999
DXF file: IAK-RG-2-13_7903054_M34547-P-4.dxf
999
Pro/ENGINEER 2010140 by Parametric Technology Corporation
  0
SECTION
  2
HEADER
  9
$ACADVER
  1
AC1015
  9
$DWGCODEPAGE
  3
ANSI_1252
  9
$EXTMAX
 10
594.0
 20
420.0
 30
0.0
  9
$EXTMIN
 10
0.0
 20
0.0
 30
0.0
  9
$LIMMIN
 10
0.0
 20
0.0
  9
$LIMMAX
 10
594.0
 20
420.0
  9
$VIEWCTR
 10
297.0
 20
210.0
  9
$VIEWSIZE
 40
420.0
  9
$CLAYER
  8
0
  9
$LTSCALE
 40
32.67
  9
$CELTYPE
  6
BYLAYER
  9
$DIMSCALE
 40
1.0
  9
$DIMASZ
 40
3.5
  9
$DIMEXO
 40
3.7125
  9
$DIMDLI
 40
22.572
  9
$DIMEXE
 40
10.692
  9
$DIMCEN
 40
5.346
  9
$DIMLFAC
 40
1.0
  9
$DIMBLK
  1
_FILLED
  9
$DIMTXT
 40
3.5
  9
$DIMTOL
 70
1
  9
$DIMLIM
 70
0
  9
$DIMTFAC
 40
1.0
  9
$DIMTP
 40
0.005
  9
$DIMTM
 40
0.005
  9
$PDMODE
 70
3
  9
$PDSIZE
 40
0.3125
  9
$HANDSEED
  5
5A5
  9
$TILEMODE
 70
1
  9
$MEASUREMENT
 70
1
  9
$INSUNITS
 70
4
  0
ENDSEC
  0
SECTION
  2
CLASSES
  0
CLASS
  1
ACDBDICTIONARYWDFLT
  2
AcDbDictionaryWithDefault
  3
AutoCAD 2000
 90
0
280
0
281
0
  0
CLASS
  1
ACDBPLACEHOLDER
  2
AcDbPlaceHolder
  3
AutoCAD 2000
 90
0
280
0
281
0
  0
CLASS
  1
LAYOUT
  2
AcDbLayout
  3
AutoCAD 2000
 90
0
280
0
281
0
  0
ENDSEC
  0
SECTION
  2
TABLES
  0
TABLE
  2
VPORT
  5
8
100
AcDbSymbolTable
 70
2
  0
VPORT
  5
1F4
100
AcDbSymbolTableRecord
100
AcDbViewportTableRecord
  2
*ACTIVE
 70
0
 10
0.0
 20
0.0
 11
1.0
 21
1.0
 12
297.0
 22
210.0
 13
0.0
 23
0.0
 14
1.0
 24
1.0
 15
0.0
 25
0.0
 16
0.0
 26
0.0
 36
1.0
 17
0.0
 27
0.0
 37
0.0
 40
420.0
 41
1.4142857143
 42
50.0
 43
0.0
 44
0.0
 50
0.0
 51
0.0
 71
0
 72
100
 73
1
 74
1
 75
0
 76
0
 77
0
 78
0
  0
ENDTAB
  0
TABLE
  2
LTYPE
  5
5
100
AcDbSymbolTable
 70
6
  0
LTYPE
  5
14
100
AcDbSymbolTableRecord
100
AcDbLinetypeTableRecord
  2
BYBLOCK
 70
0
  3

 72
65
 73
0
 40
0.0
  0
LTYPE
  5
15
100
AcDbSymbolTableRecord
100
AcDbLinetypeTableRecord
  2
BYLAYER
 70
0
  3

 72
65
 73
0
 40
0.0
  0
LTYPE
  5
16
100
AcDbSymbolTableRecord
100
AcDbLinetypeTableRecord
  2
CONTINUOUS
 70
64
  3
Solid line
 72
65
 73
0
 40
0.0
  0
LTYPE
  5
1F5
100
AcDbSymbolTableRecord
100
AcDbLinetypeTableRecord
  2
CENTER
 70
64
  3
____ _ ____ _ ____ _ ____ _ ____ _ ____ _ ____
 72
65
 73
4
 40
0.6
 49
0.375
 74
0
 49
-0.075
 74
0
 49
0.075
 74
0
 49
-0.075
 74
0
  0
LTYPE
  5
1F6
100
AcDbSymbolTableRecord
100
AcDbLinetypeTableRecord
  2
HIDDEN
 70
64
  3
- - - - - - - - - - - - - - - - - - - -
 72
65
 73
2
 40
0.2
 49
0.1
 74
0
 49
-0.1
 74
0
  0
LTYPE
  5
1F7
100
AcDbSymbolTableRecord
100
AcDbLinetypeTableRecord
  2
PHANTOM
 70
64
  3
_____ _ _ _____ _ _ _____ _ _ _____
 72
65
 73
6
 40
0.8
 49
0.45
 74
0
 49
-0.05
 74
0
 49
0.1
 74
0
 49
-0.05
 74
0
 49
0.1
 74
0
 49
-0.05
 74
0
  0
LTYPE
  5
1F8
100
AcDbSymbolTableRecord
100
AcDbLinetypeTableRecord
  2
DOT
 70
64
  3
. . . . . . . . . . . . . . . . . . . .
 72
65
 73
2
 40
0.2
 49
0.1
 74
0
 49
-0.1
 74
0
  0
LTYPE
  5
1F9
100
AcDbSymbolTableRecord
100
AcDbLinetypeTableRecord
  2
DASHED
 70
64
  3
- - - - - - - - - - - - - - - - - - - -
 72
65
 73
2
 40
0.2
 49
0.1
 74
0
 49
-0.1
 74
0
  0
ENDTAB
  0
TABLE
  2
LAYER
  5
2
100
AcDbSymbolTable
 70
36
  0
LAYER
  5
10
100
AcDbSymbolTableRecord
100
AcDbLayerTableRecord
  2
0
 70
0
 62
7
  6
CONTINUOUS
370
-3
390
F
  0
LAYER
  5
1FA
100
AcDbSymbolTableRecord
100
AcDbLayerTableRecord
  2
DEFAULT_1
 70
0
 62
7
  6
CENTER
370
-3
390
F
  0
LAYER
  5
1FB
100
AcDbSymbolTableRecord
100
AcDbLayerTableRecord
  2
DEFAULT_2
 70
0
 62
8
  6
HIDDEN
370
-3
390
F
  0
LAYER
  5
1FC
100
AcDbSymbolTableRecord
100
AcDbLayerTableRecord
  2
DEFAULT_3
 70
0
 62
7
  6
PHANTOM
370
-3
390
F
  0
LAYER
  5
1FD
100
AcDbSymbolTableRecord
100
AcDbLayerTableRecord
  2
BEZUGSACHSEN
 70
0
 62
7
  6
CONTINUOUS
370
-3
390
F
  0
LAYER
  5
1FE
100
AcDbSymbolTableRecord
100
AcDbLayerTableRecord
  2
BEZUGSEBENEN
 70
0
 62
7
  6
CONTINUOUS
370
-3
390
F
  0
LAYER
  5
1FF
100
AcDbSymbolTableRecord
100
AcDbLayerTableRecord
  2
BG_STARTBEZUEGE
 70
0
 62
7
  6
CONTINUOUS
370
-3
390
F
  0
LAYER
  5
200
100
AcDbSymbolTableRecord
100
AcDbLayerTableRecord
  2
FASEN
 70
0
 62
7
  6
CONTINUOUS
370
-3
390
F
  0
LAYER
  5
201
100
AcDbSymbolTableRecord
100
AcDbLayerTableRecord
  2
HILFEN
 70
0
 62
7
  6
CONTINUOUS
370
-3
390
F
  0
LAYER
  5
202
100
AcDbSymbolTableRecord
100
AcDbLayerTableRecord
  2
KONSTRUKTIONSELEMENTE
 70
0
 62
7
  6
CONTINUOUS
370
-3
390
F
  0
LAYER
  5
203
100
AcDbSymbolTableRecord
100
AcDbLayerTableRecord
  2
NORM
 70
0
 62
7
  6
CONTINUOUS
370
-3
390
F
  0
LAYER
  5
204
100
AcDbSymbolTableRecord
100
AcDbLayerTableRecord
  2
PLATZIERUNG
 70
0
 62
7
  6
CONTINUOUS
370
-3
390
F
  0
LAYER
  5
205
100
AcDbSymbolTableRecord
100
AcDbLayerTableRecord
  2
RUNDUNGEN
 70
0
 62
7
  6
CONTINUOUS
370
-3
390
F
  0
LAYER
  5
206
100
AcDbSymbolTableRecord
100
AcDbLayerTableRecord
  2
TEIL_STARTBEZUEGE
 70
0
 62
7
  6
CONTINUOUS
370
-3
390
F
  0
LAYER
  5
207
100
AcDbSymbolTableRecord
100
AcDbLayerTableRecord
  2
T_STARTBEZUEGE
 70
0
 62
7
  6
CONTINUOUS
370
-3
390
F
  0
ENDTAB
  0
TABLE
  2
STYLE
  5
3
100
AcDbSymbolTable
 70
1
  0
STYLE
  5
11
100
AcDbSymbolTableRecord
100
AcDbTextStyleTableRecord
  2
STANDARD
 70
0
 40
0.0
 41
0.7
 50
0.0
 71
0
 42
0.2
  3
txt
  4

  0
STYLE
  5
208
100
AcDbSymbolTableRecord
100
AcDbTextStyleTableRecord
  2
TEXTSTYLE_1
 70
0
 40
0.0
 41
0.8
 50
0.0
 71
0
 42
0.2
  3
gdt
  4

  0
ENDTAB
  0
TABLE
  2
VIEW
  5
6
100
AcDbSymbolTable
 70
0
  0
ENDTAB
  0
TABLE
  2
UCS
  5
7
100
AcDbSymbolTable
 70
0
  0
ENDTAB
  0
TABLE
  2
APPID
  5
9
100
AcDbSymbolTable
 70
1
  0
APPID
  5
209
100
AcDbSymbolTableRecord
100
AcDbRegAppTableRecord
  2
ACAD
 70
0
  0
ENDTAB
  0
TABLE
  2
BLOCK_RECORD
  5
1
100
AcDbSymbolTable
 70
0
  0
BLOCK_RECORD
  5
20A
100
AcDbSymbolTableRecord
100
AcDbBlockTableRecord
  2
*Model_Space
  0
BLOCK_RECORD
  5
20B
100
AcDbSymbolTableRecord
100
AcDbBlockTableRecord
  2
*Paper_Space
  0
ENDTAB
  0
TABLE
  2
DIMSTYLE
  5
A
100
AcDbSymbolTable
 70
1
100
AcDbDimStyleTable
 71
0
  0
DIMSTYLE
105
20C
100
AcDbSymbolTableRecord
100
AcDbDimStyleTableRecord
  2
STANDARD
 70
0
  3

  4

 40
1.0
 41
3.5
 42
0.0625
 43
0.38
 44
0.18
 45
0.0
 46
0.0
 47
0.005
 48
0.005
140
3.5
141
0.09
142
0.0
143
25.4
144
1.0
145
0.0
146
1.0
147
0.09
 71
1.0
 72
0.0
 73
0
 74
0
 75
0
 76
0
 77
1
 78
8
170
0
171
2
172
0
173
0
174
0
175
0
176
0
177
0
178
5
270
2
271
3
272
3
273
2
274
2
275
0
280
0
281
0
282
0
283
1
284
8
285
0
286
0
287
3
288
0
340
11
  0
ENDTAB
  0
ENDSEC
  0
SECTION
  2
BLOCKS
  0
BLOCK
  5
20
100
AcDbEntity
  8
0
100
AcDbBlockBegin
  2
*Model_Space
 70
0
 10
0.0
 20
0.0
 30
0.0
  3
*Model_Space
  1

  0
ENDBLK
  5
21
100
AcDbEntity
  8
0
100
AcDbBlockEnd
  0
BLOCK
  5
1C
100
AcDbEntity
  8
0
100
AcDbBlockBegin
  2
*Paper_Space
 70
0
 10
0.0
 20
0.0
 30
0.0
  3
*Paper_Space
  1

  0
ENDBLK
  5
1D
100
AcDbEntity
  8
0
100
AcDbBlockEnd
  0
ENDSEC
  0
SECTION
  2
ENTITIES
  0
MTEXT
  5
20D
100
AcDbEntity
  8
0
100
AcDbMText
 62
5
  6
CONTINUOUS
  7
STANDARD
 71
1
 72
1
 10
407.2613094144
 20
270.0760644531
 30
0.0
 11
0.0
 21
1.0
 31
0.0
 44
0.9
  1
RUD
 40
10.0
 41
26.6666666667
  0
MTEXT
  5
20E
100
AcDbEntity
  8
0
100
AcDbMText
 62
5
  6
CONTINUOUS
  7
STANDARD
 71
1
 72
1
 10
549.4143651113
 20
240.6839445739
 30
0.0
 11
0.0
 21
1.0
 31
0.0
 44
0.9
  1
IAK-RG 2-13
 40
10.0
 41
83.3333333333
  0
MTEXT
  5
20F
100
AcDbEntity
  8
0
100
AcDbMText
 62
5
  6
CONTINUOUS
  7
STANDARD
 71
1
 72
1
 10
111.6518273618
 20
225.7572304605
 30
0.0
 11
0.0
 21
1.0
 31
0.0
 44
0.9
  1
RUD IAK-RG 2-13
 40
10.0
 41
115.9523809524
  0
LINE
  5
210
100
AcDbEntity
  8
0
100
AcDbLine
 62
7
  6
CONTINUOUS
 10
0.0
 20
0.0
 11
0.0
 21
420.0
  0
LINE
  5
211
100
AcDbEntity
  8
0
100
AcDbLine
 62
7
  6
CONTINUOUS
 10
0.0
 20
0.0
 11
594.0
 21
0.0
  0
LINE
  5
212
100
AcDbEntity
  8
0
100
AcDbLine
 62
7
  6
CONTINUOUS
 10
0.0
 20
420.0
 11
594.0
 21
420.0
  0
LINE
  5
213
100
AcDbEntity
  8
0
100
AcDbLine
 62
7
  6
CONTINUOUS
 10
594.0
 20
0.0
 11
594.0
 21
420.0
  0
LINE
  5
214
100
AcDbEntity
  8
RUNDUNGEN
100
AcDbLine
 62
7
  6
CONTINUOUS
 10
253.0209383906
 20
2.7614802498
 11
249.4854044847
 21
6.2970141558
  0
LINE
  5
215
100
AcDbEntity
  8
RUNDUNGEN
100
AcDbLine
 62
7
  6
CONTINUOUS
 10
327.3128953578
 20
84.1245050289
 11
330.8484292637
 21
80.5889711229
  0
LINE
  5
216
100
AcDbEntity
  8
KONSTRUKTIONSELEMENTE
100
AcDbLine
 62
7
  6
CONTINUOUS
 10
334.1260861927
 20
100.9079014785
 11
337.6616200987
 21
97.3723675726
  0
LINE
  5
217
100
AcDbEntity
  8
KONSTRUKTIONSELEMENTE
100
AcDbLine
 62
7
  6
CONTINUOUS
 10
334.4796395833
 20
101.2614548691
 11
338.0151734893
 21
97.7259209632
  0
LINE
  5
218
100
AcDbEntity
  8
RUNDUNGEN
100
AcDbLine
 62
7
  6
CONTINUOUS
 10
343.9625608701
 20
93.7031027292
 11
340.4270269641
 21
97.2386366352
  0
LINE
  5
219
100
AcDbEntity
  8
0
100
AcDbLine
 62
7
  6
CONTINUOUS
 10
430.5116301839
 20
94.3088797296
 11
432.9548309979
 21
93.419627357
  0
LINE
  5
21A
100
AcDbEntity
  8
0
100
AcDbLine
 62
7
  6
CONTINUOUS
 10
425.5771649985
 20
106.4806114608
 11
444.5586889781
 21
99.5719017312
  0
LINE
  5
21B
100
AcDbEntity
  8
0
100
AcDbLine
 62
7
  6
CONTINUOUS
 10
439.8195578471
 20
125.5836193865
 11
445.9275598822
 21
123.3604884549
  0
LINE
  5
21C
100
AcDbEntity
  8
0
100
AcDbLine
 62
7
  6
CONTINUOUS
 10
448.5915923233
 20
130.6798574317
 11
442.4835902882
 21
132.9029883633
  0
LINE
  5
21D
100
AcDbEntity
  8
0
100
AcDbLine
 62
7
  6
CONTINUOUS
 10
455.385162176
 20
145.7489354383
 11
446.9656304858
 21
148.81339436
  0
LINE
  5
21E
100
AcDbEntity
  8
KONSTRUKTIONSELEMENTE
100
AcDbLine
 62
7
  6
CONTINUOUS
 10
395.2908227654
 20
162.0726380512
 11
398.8263566713
 21
158.5371041452
  0
LINE
  5
21F
100
AcDbEntity
  8
KONSTRUKTIONSELEMENTE
100
AcDbLine
 62
7
  6
CONTINUOUS
 10
395.644376156
 20
162.4261914418
 11
399.1799100619
 21
158.8906575358
  0
LINE
  5
220
100
AcDbEntity
  8
0
100
AcDbLine
 62
7
  6
CONTINUOUS
 10
461.8836129065
 20
166.9604558543
 11
455.6220309207
 21
169.2394853165
  0
LINE
  5
221
100
AcDbEntity
  8
0
100
AcDbLine
 62
7
  6
CONTINUOUS
 10
396.8913024481
 20
237.1673782132
 11
396.8913024481
 21
327.1673782132
  0
LINE
  5
222
100
AcDbEntity
  8
0
100
AcDbLine
 62
7
  6
CONTINUOUS
 10
469.4610384893
 20
187.7792615405
 11
463.1994565035
 21
190.0582910028
  0
LINE
  5
223
100
AcDbEntity
  8
0
100
AcDbLine
 62
7
  6
CONTINUOUS
 10
428.8913024481
 20
237.1673782132
 11
428.8913024481
 21
327.1673782132
  0
LINE
  5
224
100
AcDbEntity
  8
0
100
AcDbLine
 62
7
  6
CONTINUOUS
 10
475.0080990064
 20
203.0196850557
 11
468.7465170206
 21
205.298714518
  0
LINE
  5
225
100
AcDbEntity
  8
RUNDUNGEN
100
AcDbLine
 62
7
  6
CONTINUOUS
 10
542.0606552508
 20
134.3625806865
 11
534.2058412137
 21
139.8625806865
  0
LINE
  5
226
100
AcDbEntity
  8
KONSTRUKTIONSELEMENTE
100
AcDbLine
 62
7
  6
CONTINUOUS
 10
330.09557754
 20
96.8773928258
 11
334.1260861927
 21
100.9079014785
  0
LINE
  5
227
100
AcDbEntity
  8
KONSTRUKTIONSELEMENTE
100
AcDbLine
 62
7
  6
CONTINUOUS
 10
334.4796395833
 20
101.2614548691
 11
338.5101482361
 21
105.2919635219
  0
LINE
  5
228
100
AcDbEntity
  8
KONSTRUKTIONSELEMENTE
100
AcDbLine
 62
7
  6
CONTINUOUS
 10
391.2603141126
 20
158.0421293984
 11
395.2908227654
 21
162.0726380512
  0
LINE
  5
229
100
AcDbEntity
  8
KONSTRUKTIONSELEMENTE
100
AcDbLine
 62
7
  6
CONTINUOUS
 10
395.644376156
 20
162.4261914418
 11
399.6748848087
 21
166.4567000945
  0
LINE
  5
22A
100
AcDbEntity
  8
KONSTRUKTIONSELEMENTE
100
AcDbLine
 62
7
  6
CONTINUOUS
 10
371.1077708488
 20
135.6975551129
 11
360.501169131
 21
125.0909533951
  0
LINE
  5
22B
100
AcDbEntity
  8
KONSTRUKTIONSELEMENTE
100
AcDbLine
 62
7
  6
CONTINUOUS
 10
333.6311114459
 20
93.3418589198
 11
337.6616200987
 21
97.3723675726
  0
LINE
  5
22C
100
AcDbEntity
  8
KONSTRUKTIONSELEMENTE
100
AcDbLine
 62
7
  6
CONTINUOUS
 10
338.0151734893
 20
97.7259209632
 11
342.045682142
 21
101.7564296159
  0
LINE
  5
22D
100
AcDbEntity
  8
KONSTRUKTIONSELEMENTE
100
AcDbLine
 62
7
  6
CONTINUOUS
 10
394.7958480186
 20
154.5065954925
 11
398.8263566713
 21
158.5371041452
  0
LINE
  5
22E
100
AcDbEntity
  8
KONSTRUKTIONSELEMENTE
100
AcDbLine
 62
7
  6
CONTINUOUS
 10
399.1799100619
 20
158.8906575358
 11
403.2104187147
 21
162.9211661886
  0
LINE
  5
22F
100
AcDbEntity
  8
KONSTRUKTIONSELEMENTE
100
AcDbLine
 62
7
  6
CONTINUOUS
 10
403.988236174
 20
162.9211661886
 11
444.9526250385
 21
203.8855550531
  0
LINE
  5
230
100
AcDbEntity
  8
KONSTRUKTIONSELEMENTE
100
AcDbLine
 62
7
  6
CONTINUOUS
 10
374.2897513641
 20
132.5155745976
 11
363.6831496463
 21
121.9089728798
  0
LINE
  5
231
100
AcDbEntity
  8
RUNDUNGEN
100
AcDbLine
 62
7
  6
CONTINUOUS
 10
249.4854044847
 20
6.2970141558
 11
340.4271905699
 21
97.2388002409
  0
LINE
  5
232
100
AcDbEntity
  8
KONSTRUKTIONSELEMENTE
100
AcDbLine
 62
7
  6
CONTINUOUS
 10
344.9448199449
 20
101.4028762254
 11
363.6535049201
 21
120.1115612005
  0
LINE
  5
233
100
AcDbEntity
  8
KONSTRUKTIONSELEMENTE
100
AcDbLine
 62
7
  6
CONTINUOUS
 10
376.0575183171
 20
132.5155745976
 11
394.7662032923
 21
151.2242595727
  0
LINE
  5
234
100
AcDbEntity
  8
KONSTRUKTIONSELEMENTE
100
AcDbLine
 62
7
  6
CONTINUOUS
 10
348.1268004602
 20
98.22089571
 11
366.8354854354
 21
116.9295806852
  0
LINE
  5
235
100
AcDbEntity
  8
KONSTRUKTIONSELEMENTE
100
AcDbLine
 62
7
  6
CONTINUOUS
 10
379.2394988324
 20
129.3335940822
 11
397.9481838076
 21
148.0422790574
  0
LINE
  5
236
100
AcDbEntity
  8
RUNDUNGEN
100
AcDbLine
 62
7
  6
CONTINUOUS
 10
253.0209383906
 20
2.7614802498
 11
343.9627127021
 21
93.7032545612
  0
LINE
  5
237
100
AcDbEntity
  8
KONSTRUKTIONSELEMENTE
100
AcDbLine
 62
7
  6
CONTINUOUS
 10
368.6328971146
 20
116.9592254115
 11
379.2394988324
 21
127.5658271293
  0
LINE
  5
238
100
AcDbEntity
  8
KONSTRUKTIONSELEMENTE
100
AcDbLine
 62
7
  6
CONTINUOUS
 10
409.6928948678
 20
157.3121163834
 11
450.609479288
 21
198.2287008036
  0
LINE
  5
239
100
AcDbEntity
  8
KONSTRUKTIONSELEMENTE
100
AcDbLine
 62
7
  6
CONTINUOUS
 10
409.6450904235
 20
156.4864944798
 11
401.2305197273
 21
148.0719237837
  0
LINE
  5
23A
100
AcDbEntity
  8
KONSTRUKTIONSELEMENTE
100
AcDbLine
 62
7
  6
CONTINUOUS
 10
348.4803538508
 20
95.3217579072
 11
340.0657831547
 21
86.907187211
  0
LINE
  5
23B
100
AcDbEntity
  8
0
100
AcDbLine
 62
7
  6
CONTINUOUS
 10
497.0057228099
 20
210.877096689
 11
490.7441408241
 21
208.5980672267
  0
LINE
  5
23C
100
AcDbEntity
  8
0
100
AcDbLine
 62
7
  6
CONTINUOUS
 10
492.7745058897
 20
203.0196850557
 11
499.0360878755
 21
205.298714518
  0
LINE
  5
23D
100
AcDbEntity
  8
0
100
AcDbLine
 62
7
  6
CONTINUOUS
 10
470.7768820862
 20
210.877096689
 11
477.038464072
 21
208.5980672267
  0
LINE
  5
23E
100
AcDbEntity
  8
0
100
AcDbLine
 62
7
  6
CONTINUOUS
 10
459.8881570644
 20
130.2860166733
 11
462.3699618559
 21
121.0237950968
  0
LINE
  5
23F
100
AcDbEntity
  8
RUNDUNGEN
100
AcDbLine
 62
7
  6
CONTINUOUS
 10
439.8195578471
 20
125.5836193865
 11
445.2380447124
 21
144.8182362388
  0
LINE
  5
240
100
AcDbEntity
  8
0
100
AcDbLine
 62
7
  6
CONTINUOUS
 10
442.4835902882
 20
132.9029883633
 11
446.9656304858
 21
148.81339436
  0
LINE
  5
241
100
AcDbEntity
  8
RUNDUNGEN
100
AcDbLine
 62
7
  6
CONTINUOUS
 10
419.6339910941
 20
117.6360520365
 11
425.7219496453
 21
134.3625806865
  0
LINE
  5
242
100
AcDbEntity
  8
RUNDUNGEN
100
AcDbLine
 62
7
  6
CONTINUOUS
 10
433.5767636824
 20
139.8625806865
 11
437.2176317108
 21
149.8657833817
  0
LINE
  5
243
100
AcDbEntity
  8
BEZUGSACHSEN
100
AcDbLine
 62
7
  6
CONTINUOUS
 10
459.4023060293
 20
197.660555329
 11
448.162789127
 21
166.7802364343
  0
LINE
  5
244
100
AcDbEntity
  8
RUNDUNGEN
100
AcDbLine
 62
7
  6
CONTINUOUS
 10
448.1626858407
 20
166.7799526577
 11
443.4332059834
 21
153.785813544
  0
LINE
  5
245
100
AcDbEntity
  8
KONSTRUKTIONSELEMENTE
100
AcDbLine
 62
7
  6
CONTINUOUS
 10
470.7768820862
 20
210.877096689
 11
461.4101689315
 21
200.9209289431
  0
LINE
  5
246
100
AcDbEntity
  8
KONSTRUKTIONSELEMENTE
100
AcDbLine
 62
7
  6
CONTINUOUS
 10
371.81487763
 20
113.7772448961
 11
382.4214793478
 21
124.3838466139
  0
LINE
  5
247
100
AcDbEntity
  8
KONSTRUKTIONSELEMENTE
100
AcDbLine
 62
7
  6
CONTINUOUS
 10
413.1806243294
 20
152.9509605739
 11
404.7660536333
 21
144.5363898777
  0
LINE
  5
248
100
AcDbEntity
  8
KONSTRUKTIONSELEMENTE
100
AcDbLine
 62
7
  6
CONTINUOUS
 10
352.0158877568
 20
91.7862240012
 11
343.6013170606
 21
83.3716533051
  0
LINE
  5
249
100
AcDbEntity
  8
0
100
AcDbLine
 62
7
  6
CONTINUOUS
 10
498.3215664068
 20
187.7792615405
 11
504.5831483926
 21
190.0582910028
  0
LINE
  5
24A
100
AcDbEntity
  8
0
100
AcDbLine
 62
7
  6
CONTINUOUS
 10
477.8140813675
 20
194.9503930908
 11
477.038464072
 21
208.5980672267
  0
LINE
  5
24B
100
AcDbEntity
  8
0
100
AcDbLine
 62
7
  6
CONTINUOUS
 10
459.875577633
 20
159.7519890458
 11
455.385162176
 21
145.7489354383
  0
LINE
  5
24C
100
AcDbEntity
  8
0
100
AcDbLine
 62
7
  6
CONTINUOUS
 10
442.4835902882
 20
132.9029883633
 11
439.8195578471
 21
125.5836193865
  0
LINE
  5
24D
100
AcDbEntity
  8
0
100
AcDbLine
 62
7
  6
CONTINUOUS
 10
448.5915923233
 20
130.6798574317
 11
445.9275598822
 21
123.3604884549
  0
LINE
  5
24E
100
AcDbEntity
  8
BEZUGSACHSEN
100
AcDbLine
 62
7
  6
CONTINUOUS
 10
477.2564658242
 20
191.1621726058
 11
466.0169489219
 21
160.2818537112
  0
LINE
  5
24F
100
AcDbEntity
  8
0
100
AcDbLine
 62
7
  6
CONTINUOUS
 10
466.0168456356
 20
160.2815699345
 11
461.2873657784
 21
147.2874308208
  0
LINE
  5
250
100
AcDbEntity
  8
0
100
AcDbLine
 62
7
  6
CONTINUOUS
 10
452.5267620342
 20
162.4267391808
 11
446.9656304858
 21
148.81339436
  0
LINE
  5
251
100
AcDbEntity
  8
0
100
AcDbLine
 62
7
  6
CONTINUOUS
 10
448.5915923233
 20
130.6798574317
 11
455.385162176
 21
145.7489354383
  0
LINE
  5
252
100
AcDbEntity
  8
0
100
AcDbLine
 62
7
  6
CONTINUOUS
 10
445.9275598822
 20
123.3604884549
 11
454.1405315185
 21
141.5779960304
  0
LINE
  5
253
100
AcDbEntity
  8
RUNDUNGEN
100
AcDbLine
 62
7
  6
CONTINUOUS
 10
433.5767636824
 20
139.8625806865
 11
425.7219496453
 21
134.3625806865
  0
LINE
  5
254
100
AcDbEntity
  8
0
100
AcDbLine
 62
7
  6
CONTINUOUS
 10
505.8989919896
 20
166.9604558543
 11
512.1605739754
 21
169.2394853165
  0
LINE
  5
255
100
AcDbEntity
  8
KONSTRUKTIONSELEMENTE
100
AcDbLine
 62
7
  6
CONTINUOUS
 10
497.0057228099
 20
210.877096689
 11
506.3724359647
 21
200.9209289431
  0
LINE
  5
256
100
AcDbEntity
  8
0
100
AcDbLine
 62
7
  6
CONTINUOUS
 10
521.8550450139
 20
123.3604884549
 11
513.6420733776
 21
141.5779960304
  0
LINE
  5
257
100
AcDbEntity
  8
0
100
AcDbLine
 62
7
  6
CONTINUOUS
 10
519.1910125728
 20
130.6798574317
 11
512.3974427202
 21
145.7489354383
  0
LINE
  5
258
100
AcDbEntity
  8
0
100
AcDbLine
 62
7
  6
CONTINUOUS
 10
511.5006015914
 20
104.2972664468
 11
505.4126430402
 21
121.0237950968
  0
LINE
  5
259
100
AcDbEntity
  8
0
100
AcDbLine
 62
7
  6
CONTINUOUS
 10
504.253579803
 20
140.2892193696
 11
507.8944478317
 21
130.2860166733
  0
LINE
  5
25A
100
AcDbEntity
  8
0
100
AcDbLine
 62
7
  6
CONTINUOUS
 10
501.7656559742
 20
160.2818537112
 11
506.4952391178
 21
147.2874308208
  0
LINE
  5
25B
100
AcDbEntity
  8
BEZUGSACHSEN
100
AcDbLine
 62
7
  6
CONTINUOUS
 10
501.7656559742
 20
160.2818537112
 11
490.5261390719
 21
191.1621726058
  0
LINE
  5
25C
100
AcDbEntity
  8
0
100
AcDbLine
 62
7
  6
CONTINUOUS
 10
489.9685235286
 20
194.9503930908
 11
490.7441408241
 21
208.5980672267
  0
LINE
  5
25D
100
AcDbEntity
  8
0
100
AcDbLine
 62
7
  6
CONTINUOUS
 10
459.8881570644
 20
130.2860166733
 11
463.5290250931
 21
140.2892193696
  0
LINE
  5
25E
100
AcDbEntity
  8
0
100
AcDbLine
 62
7
  6
CONTINUOUS
 10
456.2820033047
 20
104.2972664468
 11
462.3699618559
 21
121.0237950968
  0
LINE
  5
25F
100
AcDbEntity
  8
0
100
AcDbLine
 62
7
  6
CONTINUOUS
 10
515.2558428619
 20
162.4267391808
 11
520.8169744103
 21
148.81339436
  0
LINE
  5
260
100
AcDbEntity
  8
0
100
AcDbLine
 62
7
  6
CONTINUOUS
 10
519.1910125728
 20
130.6798574317
 11
521.8550450139
 21
123.3604884549
  0
LINE
  5
261
100
AcDbEntity
  8
0
100
AcDbLine
 62
7
  6
CONTINUOUS
 10
525.2990146079
 20
132.9029883633
 11
527.9630470491
 21
125.5836193865
  0
LINE
  5
262
100
AcDbEntity
  8
RUNDUNGEN
100
AcDbLine
 62
7
  6
CONTINUOUS
 10
519.6198157691
 20
166.7802364343
 11
524.3493989127
 21
153.785813544
  0
LINE
  5
263
100
AcDbEntity
  8
BEZUGSACHSEN
100
AcDbLine
 62
7
  6
CONTINUOUS
 10
519.6198157691
 20
166.7802364343
 11
508.3802988668
 21
197.660555329
  0
LINE
  5
264
100
AcDbEntity
  8
0
100
AcDbLine
 62
7
  6
CONTINUOUS
 10
507.9070272631
 20
159.7519890458
 11
512.3974427202
 21
145.7489354383
  0
LINE
  5
265
100
AcDbEntity
  8
0
100
AcDbLine
 62
7
  6
CONTINUOUS
 10
512.3974427202
 20
145.7489354383
 11
520.8169744103
 21
148.81339436
  0
LINE
  5
266
100
AcDbEntity
  8
RUNDUNGEN
100
AcDbLine
 62
7
  6
CONTINUOUS
 10
530.564973185
 20
149.8657833827
 11
534.2058412137
 21
139.8625806865
  0
LINE
  5
267
100
AcDbEntity
  8
RUNDUNGEN
100
AcDbLine
 62
7
  6
CONTINUOUS
 10
548.148613802
 20
117.6360520365
 11
542.0606552508
 21
134.3625806865
  0
LINE
  5
268
100
AcDbEntity
  8
0
100
AcDbLine
 62
7
  6
CONTINUOUS
 10
525.2990146079
 20
132.9029883633
 11
520.8169744103
 21
148.81339436
  0
LINE
  5
269
100
AcDbEntity
  8
RUNDUNGEN
100
AcDbLine
 62
7
  6
CONTINUOUS
 10
527.9630470491
 20
125.5836193865
 11
522.5445601837
 21
144.8182362388
  0
LINE
  5
26A
100
AcDbEntity
  8
0
100
AcDbLine
 62
7
  6
CONTINUOUS
 10
505.4126430402
 20
121.0237950968
 11
507.8944478317
 21
130.2860166733
  0
LINE
  5
26B
100
AcDbEntity
  8
0
100
AcDbLine
 62
7
  6
CONTINUOUS
 10
525.2990146079
 20
132.9029883633
 11
519.1910125728
 21
130.6798574317
  0
LINE
  5
26C
100
AcDbEntity
  8
0
100
AcDbLine
 62
7
  6
CONTINUOUS
 10
521.8550450139
 20
123.3604884549
 11
527.9630470491
 21
125.5836193865
  0
LINE
  5
26D
100
AcDbEntity
  8
0
100
AcDbLine
 62
7
  6
CONTINUOUS
 10
538.8913024481
 20
327.1673782132
 11
538.8913024481
 21
237.1673782132
  0
LINE
  5
26E
100
AcDbEntity
  8
0
100
AcDbLine
 62
7
  6
CONTINUOUS
 10
523.223915918
 20
99.5719017312
 11
542.2054398976
 21
106.4806114608
  0
LINE
  5
26F
100
AcDbEntity
  8
0
100
AcDbLine
 62
7
  6
CONTINUOUS
 10
534.8277738982
 20
93.419627357
 11
537.2709747122
 21
94.3088797296
  0
LINE
  5
270
100
AcDbEntity
  8
0
100
AcDbLine
 62
7
  6
CONTINUOUS
 10
570.8913024481
 20
327.1673782132
 11
570.8913024481
 21
237.1673782132
  0
LINE
  5
271
100
AcDbEntity
  8
RUNDUNGEN
100
AcDbLine
 62
7
  6
CONTINUOUS
 10
79.2202839261
 20
2.7614802498
 11
82.7202839261
 21
2.7614802498
  0
LINE
  5
272
100
AcDbEntity
  8
RUNDUNGEN
100
AcDbLine
 62
7
  6
CONTINUOUS
 10
151.7202839261
 20
2.7614802498
 11
155.2202839261
 21
2.7614802498
  0
LINE
  5
273
100
AcDbEntity
  8
RUNDUNGEN
100
AcDbLine
 62
7
  6
CONTINUOUS
 10
89.2202839261
 20
13.3680819676
 11
98.0756997143
 21
13.3680819676
  0
LINE
  5
274
100
AcDbEntity
  8
RUNDUNGEN
100
AcDbLine
 62
7
  6
CONTINUOUS
 10
136.364868138
 20
13.3680819676
 11
145.2202839261
 21
13.3680819676
  0
LINE
  5
275
100
AcDbEntity
  8
0
100
AcDbLine
 62
7
  6
CONTINUOUS
 10
99.0368358703
 20
66.6839332691
 11
105.2768358703
 21
66.6839332691
  0
LINE
  5
276
100
AcDbEntity
  8
0
100
AcDbLine
 62
7
  6
CONTINUOUS
 10
108.5863775622
 20
66.6839332691
 11
109.8343775622
 21
66.6839332691
  0
LINE
  5
277
100
AcDbEntity
  8
0
100
AcDbLine
 62
7
  6
CONTINUOUS
 10
115.7792176542
 20
66.6839332691
 11
117.2202839261
 21
66.6839332691
  0
LINE
  5
278
100
AcDbEntity
  8
0
100
AcDbLine
 62
7
  6
CONTINUOUS
 10
128.078753531
 20
66.6839332691
 11
132.6001107188
 21
66.6839332691
  0
LINE
  5
279
100
AcDbEntity
  8
0
100
AcDbLine
 62
7
  6
CONTINUOUS
 10
99.0368358703
 20
67.1435526769
 11
105.2768358703
 21
67.1435526769
  0
LINE
  5
27A
100
AcDbEntity
  8
0
100
AcDbLine
 62
7
  6
CONTINUOUS
 10
108.5863775622
 20
67.1435526769
 11
109.8343775622
 21
67.1435526769
  0
LINE
  5
27B
100
AcDbEntity
  8
0
100
AcDbLine
 62
7
  6
CONTINUOUS
 10
115.7792176542
 20
67.1435526769
 11
116.8450062511
 21
67.1435526769
  0
LINE
  5
27C
100
AcDbEntity
  8
0
100
AcDbLine
 62
7
  6
CONTINUOUS
 10
128.078753531
 20
67.1435526769
 11
132.6001107188
 21
67.1435526769
  0
LINE
  5
27D
100
AcDbEntity
  8
0
100
AcDbLine
 62
7
  6
CONTINUOUS
 10
132.6274581401
 20
67.6031720846
 11
129.326753531
 21
67.6031720846
  0
LINE
  5
27E
100
AcDbEntity
  8
0
100
AcDbLine
 62
7
  6
CONTINUOUS
 10
103.1318358703
 20
67.7870198477
 11
101.1818358703
 21
67.7870198477
  0
LINE
  5
27F
100
AcDbEntity
  8
0
100
AcDbLine
 62
7
  6
CONTINUOUS
 10
101.5328358703
 20
68.2006773147
 11
102.7808358703
 21
68.2006773147
  0
LINE
  5
280
100
AcDbEntity
  8
0
100
AcDbLine
 62
7
  6
CONTINUOUS
 10
101.5328358703
 20
68.6602967225
 11
102.7808358703
 21
68.6602967225
  0
LINE
  5
281
100
AcDbEntity
  8
0
100
AcDbLine
 62
7
  6
CONTINUOUS
 10
102.2933358703
 20
69.3037638934
 11
102.0203358703
 21
69.3037638934
  0
LINE
  5
282
100
AcDbEntity
  8
0
100
AcDbLine
 62
7
  6
CONTINUOUS
 10
102.7808358703
 20
69.5795355381
 11
102.4493358703
 21
69.5795355381
  0
LINE
  5
283
100
AcDbEntity
  8
0
100
AcDbLine
 62
7
  6
CONTINUOUS
 10
101.8643358703
 20
69.5795355381
 11
101.5328358703
 21
69.5795355381
  0
LINE
  5
284
100
AcDbEntity
  8
0
100
AcDbLine
 62
7
  6
CONTINUOUS
 10
101.1818358703
 20
69.993193005
 11
101.8643358703
 21
69.993193005
  0
LINE
  5
285
100
AcDbEntity
  8
0
100
AcDbLine
 62
7
  6
CONTINUOUS
 10
102.4493358703
 20
69.993193005
 11
103.1318358703
 21
69.993193005
  0
LINE
  5
286
100
AcDbEntity
  8
0
100
AcDbLine
 62
7
  6
CONTINUOUS
 10
109.8343775622
 20
70.1436416843
 11
112.9543775622
 21
70.1436416843
  0
LINE
  5
287
100
AcDbEntity
  8
0
100
AcDbLine
 62
7
  6
CONTINUOUS
 10
101.1818358703
 20
70.4528124128
 11
101.8643358703
 21
70.4528124128
  0
LINE
  5
288
100
AcDbEntity
  8
0
100
AcDbLine
 62
7
  6
CONTINUOUS
 10
102.4493358703
 20
70.4528124128
 11
103.1318358703
 21
70.4528124128
  0
LINE
  5
289
100
AcDbEntity
  8
0
100
AcDbLine
 62
7
  6
CONTINUOUS
 10
103.1318358703
 20
70.5447362944
 11
102.4493358703
 21
70.5447362944
  0
LINE
  5
28A
100
AcDbEntity
  8
0
100
AcDbLine
 62
7
  6
CONTINUOUS
 10
101.8643358703
 20
70.5447362944
 11
101.1818358703
 21
70.5447362944
  0
LINE
  5
28B
100
AcDbEntity
  8
0
100
AcDbLine
 62
7
  6
CONTINUOUS
 10
109.8343775622
 20
70.6032610921
 11
112.9543775622
 21
70.6032610921
  0
LINE
  5
28C
100
AcDbEntity
  8
0
100
AcDbLine
 62
7
  6
CONTINUOUS
 10
101.5328358703
 20
70.9583937614
 11
101.8643358703
 21
70.9583937614
  0
LINE
  5
28D
100
AcDbEntity
  8
0
100
AcDbLine
 62
7
  6
CONTINUOUS
 10
102.4493358703
 20
70.9583937614
 11
102.7808358703
 21
70.9583937614
  0
LINE
  5
28E
100
AcDbEntity
  8
0
100
AcDbLine
 62
7
  6
CONTINUOUS
 10
113.4743775622
 20
71.0261109472
 11
109.8343775622
 21
71.0261109472
  0
LINE
  5
28F
100
AcDbEntity
  8
0
100
AcDbLine
 62
7
  6
CONTINUOUS
 10
102.0203358703
 20
71.234165406
 11
102.2933358703
 21
71.234165406
  0
LINE
  5
290
100
AcDbEntity
  8
0
100
AcDbLine
 62
7
  6
CONTINUOUS
 10
101.5328358703
 20
71.4180131691
 11
101.8643358703
 21
71.4180131691
  0
LINE
  5
291
100
AcDbEntity
  8
0
100
AcDbLine
 62
7
  6
CONTINUOUS
 10
102.4493358703
 20
71.4180131691
 11
102.7808358703
 21
71.4180131691
  0
LINE
  5
292
100
AcDbEntity
  8
0
100
AcDbLine
 62
7
  6
CONTINUOUS
 10
102.0203358703
 20
71.6937848138
 11
102.2933358703
 21
71.6937848138
  0
LINE
  5
293
100
AcDbEntity
  8
0
100
AcDbLine
 62
7
  6
CONTINUOUS
 10
129.326753531
 20
72.1993661624
 11
128.078753531
 21
72.1993661624
  0
LINE
  5
294
100
AcDbEntity
  8
0
100
AcDbLine
 62
7
  6
CONTINUOUS
 10
109.8343775622
 20
72.2453281031
 11
108.5863775622
 21
72.2453281031
  0
LINE
  5
295
100
AcDbEntity
  8
0
100
AcDbLine
 62
7
  6
CONTINUOUS
 10
102.7808358703
 20
72.3372519847
 11
101.5328358703
 21
72.3372519847
  0
LINE
  5
296
100
AcDbEntity
  8
0
100
AcDbLine
 62
7
  6
CONTINUOUS
 10
101.1818358703
 20
72.7509094517
 11
103.1318358703
 21
72.7509094517
  0
LINE
  5
297
100
AcDbEntity
  8
0
100
AcDbLine
 62
7
  6
CONTINUOUS
 10
128.078753531
 20
72.9715267674
 11
132.6274581401
 21
72.9715267674
  0
LINE
  5
298
100
AcDbEntity
  8
0
100
AcDbLine
 62
7
  6
CONTINUOUS
 10
108.5863775622
 20
73.0174887082
 11
113.4743775622
 21
73.0174887082
  0
LINE
  5
299
100
AcDbEntity
  8
0
100
AcDbLine
 62
7
  6
CONTINUOUS
 10
101.1818358703
 20
73.2105288594
 11
103.1318358703
 21
73.2105288594
  0
LINE
  5
29A
100
AcDbEntity
  8
0
100
AcDbLine
 62
7
  6
CONTINUOUS
 10
128.078753531
 20
73.4311461752
 11
132.6274581401
 21
73.4311461752
  0
LINE
  5
29B
100
AcDbEntity
  8
0
100
AcDbLine
 62
7
  6
CONTINUOUS
 10
108.5863775622
 20
73.477108116
 11
113.4743775622
 21
73.477108116
  0
LINE
  5
29C
100
AcDbEntity
  8
0
100
AcDbLine
 62
7
  6
CONTINUOUS
 10
132.6001107188
 20
73.8539960303
 11
128.078753531
 21
73.8539960303
  0
LINE
  5
29D
100
AcDbEntity
  8
0
100
AcDbLine
 62
7
  6
CONTINUOUS
 10
125.348753531
 20
73.8539960303
 11
124.100753531
 21
73.8539960303
  0
LINE
  5
29E
100
AcDbEntity
  8
0
100
AcDbLine
 62
7
  6
CONTINUOUS
 10
119.1943775622
 20
73.8539960303
 11
117.9463775622
 21
73.8539960303
  0
LINE
  5
29F
100
AcDbEntity
  8
0
100
AcDbLine
 62
7
  6
CONTINUOUS
 10
113.4743775622
 20
73.8539960303
 11
108.5863775622
 21
73.8539960303
  0
LINE
  5
2A0
100
AcDbEntity
  8
0
100
AcDbLine
 62
7
  6
CONTINUOUS
 10
105.2768358703
 20
73.8539960303
 11
99.0368358703
 21
73.8539960303
  0
LINE
  5
2A1
100
AcDbEntity
  8
RUNDUNGEN
100
AcDbLine
 62
7
  6
CONTINUOUS
 10
62.3637893927
 20
84.6812779506
 11
65.8339268326
 21
81.1769487603
  0
LINE
  5
2A2
100
AcDbEntity
  8
RUNDUNGEN
100
AcDbLine
 62
7
  6
CONTINUOUS
 10
75.1832227452
 20
71.7355329252
 11
93.3177633828
 21
53.422310118
  0
LINE
  5
2A3
100
AcDbEntity
  8
RUNDUNGEN
100
AcDbLine
 62
7
  6
CONTINUOUS
 10
123.7735002804
 20
22.6664885776
 11
131.0403798501
 21
15.3280074255
  0
LINE
  5
2A4
100
AcDbEntity
  8
0
100
AcDbLine
 62
7
  6
CONTINUOUS
 10
86.2202839261
 20
92.3220330553
 11
91.1874819148
 21
92.3220330553
  0
LINE
  5
2A5
100
AcDbEntity
  8
0
100
AcDbLine
 62
7
  6
CONTINUOUS
 10
143.2530859374
 20
92.3220330553
 11
148.2202839261
 21
92.3220330553
  0
LINE
  5
2A6
100
AcDbEntity
  8
RUNDUNGEN
100
AcDbLine
 62
7
  6
CONTINUOUS
 10
80.8017217412
 20
79.0061061156
 11
77.4176207667
 21
82.4235511111
  0
LINE
  5
2A7
100
AcDbEntity
  8
BEZUGSACHSEN
100
AcDbLine
 62
7
  6
CONTINUOUS
 10
109.8202839261
 20
104.7986756281
 11
124.6202839261
 21
104.7986756281
  0
LINE
  5
2A8
100
AcDbEntity
  8
0
100
AcDbLine
 62
7
  6
CONTINUOUS
 10
143.2634145516
 20
92.3220331507
 11
143.2629565526
 21
92.3222083275
  0
LINE
  5
2A9
100
AcDbEntity
  8
RUNDUNGEN
100
AcDbLine
 62
7
  6
CONTINUOUS
 10
145.5663447655
 20
80.5932093926
 11
128.6918126531
 21
88.9481530187
  0
LINE
  5
2AA
100
AcDbEntity
  8
RUNDUNGEN
100
AcDbLine
 62
7
  6
CONTINUOUS
 10
128.6918126531
 20
92.4836869246
 11
145.5663447655
 21
84.1287432986
  0
LINE
  5
2AB
100
AcDbEntity
  8
RUNDUNGEN
100
AcDbLine
 62
7
  6
CONTINUOUS
 10
160.1351961918
 20
17.9993951293
 11
141.1228044695
 21
37.1991186111
  0
LINE
  5
2AC
100
AcDbEntity
  8
RUNDUNGEN
100
AcDbLine
 62
7
  6
CONTINUOUS
 10
91.6583200052
 20
87.150983571
 11
90.5446597804
 21
88.275616846
  0
LINE
  5
2AD
100
AcDbEntity
  8
RUNDUNGEN
100
AcDbLine
 62
7
  6
CONTINUOUS
 10
160.1351961918
 20
21.5349290352
 11
141.1228044695
 21
40.734652517
  0
LINE
  5
2AE
100
AcDbEntity
  8
RUNDUNGEN
100
AcDbLine
 62
7
  6
CONTINUOUS
 10
91.6583200052
 20
90.6865174769
 11
90.5446597804
 21
91.8111507519
  0
LINE
  5
2AF
100
AcDbEntity
  8
BEZUGSACHSEN
100
AcDbLine
 62
7
  6
CONTINUOUS
 10
109.8202839261
 20
112.694560484
 11
124.6202839261
 21
112.694560484
  0
LINE
  5
2B0
100
AcDbEntity
  8
BEZUGSACHSEN
100
AcDbLine
 62
7
  6
CONTINUOUS
 10
109.8202839261
 20
120.7935170942
 11
124.6202839261
 21
120.7935170942
  0
LINE
  5
2B1
100
AcDbEntity
  8
BEZUGSACHSEN
100
AcDbLine
 62
7
  6
CONTINUOUS
 10
109.8202839261
 20
123.1486756281
 11
124.6202839261
 21
123.1486756281
  0
LINE
  5
2B2
100
AcDbEntity
  8
0
100
AcDbLine
 62
7
  6
CONTINUOUS
 10
112.9543775622
 20
70.1436416843
 11
115.7792176542
 21
66.6839332691
  0
LINE
  5
2B3
100
AcDbEntity
  8
0
100
AcDbLine
 62
7
  6
CONTINUOUS
 10
112.9543775622
 20
70.6032610921
 11
115.7792176542
 21
67.1435526769
  0
LINE
  5
2B4
100
AcDbEntity
  8
0
100
AcDbLine
 62
7
  6
CONTINUOUS
 10
117.2202839261
 20
66.6839332691
 11
114.2831706369
 21
70.2811477068
  0
LINE
  5
2B5
100
AcDbEntity
  8
0
100
AcDbLine
 62
7
  6
CONTINUOUS
 10
145.1331459564
 20
142.0974624804
 11
145.674161857
 21
142.2214219286
  0
LINE
  5
2B6
100
AcDbEntity
  8
0
100
AcDbLine
 62
7
  6
CONTINUOUS
 10
145.674161857
 20
142.6702091195
 11
144.9978908204
 21
142.5462496822
  0
LINE
  5
2B7
100
AcDbEntity
  8
0
100
AcDbLine
 62
7
  6
CONTINUOUS
 10
145.674161857
 20
142.8412191912
 11
144.9978908204
 21
142.7172597539
  0
LINE
  5
2B8
100
AcDbEntity
  8
RUNDUNGEN
100
AcDbLine
 62
7
  6
CONTINUOUS
 10
86.2202839261
 20
134.3625806865
 11
109.8202839261
 21
134.3625806865
  0
LINE
  5
2B9
100
AcDbEntity
  8
RUNDUNGEN
100
AcDbLine
 62
7
  6
CONTINUOUS
 10
124.6202839261
 20
134.3625806865
 11
148.2202839261
 21
134.3625806865
  0
LINE
  5
2BA
100
AcDbEntity
  8
RUNDUNGEN
100
AcDbLine
 62
7
  6
CONTINUOUS
 10
173.8799329891
 20
88.967805318
 11
166.999055817
 21
92.3746755344
  0
LINE
  5
2BB
100
AcDbEntity
  8
RUNDUNGEN
100
AcDbLine
 62
7
  6
CONTINUOUS
 10
173.8799329891
 20
92.5033392239
 11
166.999055817
 21
95.9102094403
  0
LINE
  5
2BC
100
AcDbEntity
  8
RUNDUNGEN
100
AcDbLine
 62
7
  6
CONTINUOUS
 10
61.2787016584
 20
87.1147566766
 11
61.2787016584
 21
90.6502905825
  0
LINE
  5
2BD
100
AcDbEntity
  8
0
100
AcDbLine
 62
7
  6
CONTINUOUS
 10
104.8854868303
 20
142.7941685568
 11
104.3688206563
 21
142.6702091195
  0
LINE
  5
2BE
100
AcDbEntity
  8
0
100
AcDbLine
 62
7
  6
CONTINUOUS
 10
104.8854868303
 20
142.9651786285
 11
104.3688206563
 21
142.8412191912
  0
LINE
  5
2BF
100
AcDbEntity
  8
0
100
AcDbLine
 62
7
  6
CONTINUOUS
 10
98.6854875694
 20
142.7941685568
 11
98.1688206563
 21
142.6702091195
  0
LINE
  5
2C0
100
AcDbEntity
  8
0
100
AcDbLine
 62
7
  6
CONTINUOUS
 10
98.6854875694
 20
142.9651786285
 11
98.1688206563
 21
142.8412191912
  0
LINE
  5
2C1
100
AcDbEntity
  8
0
100
AcDbLine
 62
7
  6
CONTINUOUS
 10
137.0178989351
 20
142.7941685568
 11
136.4768830346
 21
142.6702091195
  0
LINE
  5
2C2
100
AcDbEntity
  8
0
100
AcDbLine
 62
7
  6
CONTINUOUS
 10
137.0178989351
 20
142.9651786285
 11
136.4768830346
 21
142.8412191912
  0
LINE
  5
2C3
100
AcDbEntity
  8
0
100
AcDbLine
 62
7
  6
CONTINUOUS
 10
134.718579423
 20
147.055840668
 11
135.2595960975
 21
147.1798001053
  0
LINE
  5
2C4
100
AcDbEntity
  8
0
100
AcDbLine
 62
7
  6
CONTINUOUS
 10
104.3688206563
 20
142.0974624804
 11
105.0146544824
 21
142.2214219286
  0
LINE
  5
2C5
100
AcDbEntity
  8
0
100
AcDbLine
 62
7
  6
CONTINUOUS
 10
98.1688206563
 20
142.0974624804
 11
98.8146537433
 21
142.2214219286
  0
LINE
  5
2C6
100
AcDbEntity
  8
0
100
AcDbLine
 62
7
  6
CONTINUOUS
 10
136.4768830346
 20
142.0974624804
 11
137.1531532972
 21
142.2214219286
  0
LINE
  5
2C7
100
AcDbEntity
  8
0
100
AcDbLine
 62
7
  6
CONTINUOUS
 10
143.6453502951
 20
147.1798001053
 11
144.3216213317
 21
147.3037595426
  0
LINE
  5
2C8
100
AcDbEntity
  8
0
100
AcDbLine
 62
7
  6
CONTINUOUS
 10
135.2595960975
 20
147.7525466576
 11
134.5833250609
 21
147.6285872203
  0
LINE
  5
2C9
100
AcDbEntity
  8
0
100
AcDbLine
 62
7
  6
CONTINUOUS
 10
135.2595960975
 20
147.9235567293
 11
134.5833250609
 21
147.799597292
  0
LINE
  5
2CA
100
AcDbEntity
  8
0
100
AcDbLine
 62
7
  6
CONTINUOUS
 10
144.4568749199
 20
147.7525466576
 11
143.510096707
 21
147.6285872203
  0
LINE
  5
2CB
100
AcDbEntity
  8
0
100
AcDbLine
 62
7
  6
CONTINUOUS
 10
144.4568749199
 20
147.9235567293
 11
143.510096707
 21
147.799597292
  0
LINE
  5
2CC
100
AcDbEntity
  8
RUNDUNGEN
100
AcDbLine
 62
7
  6
CONTINUOUS
 10
148.2202839261
 20
139.8625806865
 11
122.9729099595
 21
139.8625806865
  0
LINE
  5
2CD
100
AcDbEntity
  8
RUNDUNGEN
100
AcDbLine
 62
7
  6
CONTINUOUS
 10
111.4676578927
 20
139.8625806865
 11
86.2202839261
 21
139.8625806865
  0
LINE
  5
2CE
100
AcDbEntity
  8
0
100
AcDbLine
 62
7
  6
CONTINUOUS
 10
89.6438206563
 20
142.0974624804
 11
90.4188206563
 21
142.0974624804
  0
LINE
  5
2CF
100
AcDbEntity
  8
0
100
AcDbLine
 62
7
  6
CONTINUOUS
 10
93.6479871998
 20
142.0974624804
 11
94.5521541129
 21
142.0974624804
  0
LINE
  5
2D0
100
AcDbEntity
  8
0
100
AcDbLine
 62
7
  6
CONTINUOUS
 10
97.6521537433
 20
142.0974624804
 11
98.1688206563
 21
142.0974624804
  0
LINE
  5
2D1
100
AcDbEntity
  8
0
100
AcDbLine
 62
7
  6
CONTINUOUS
 10
101.2688206563
 20
142.0974624804
 11
104.3688206563
 21
142.0974624804
  0
LINE
  5
2D2
100
AcDbEntity
  8
0
100
AcDbLine
 62
7
  6
CONTINUOUS
 10
124.9802839261
 20
142.0974624804
 11
125.7918085509
 21
142.0974624804
  0
LINE
  5
2D3
100
AcDbEntity
  8
0
100
AcDbLine
 62
7
  6
CONTINUOUS
 10
126.8738413193
 20
142.0974624804
 11
127.6853659441
 21
142.0974624804
  0
LINE
  5
2D4
100
AcDbEntity
  8
0
100
AcDbLine
 62
7
  6
CONTINUOUS
 10
131.0667186117
 20
142.0974624804
 11
132.0134975985
 21
142.0974624804
  0
LINE
  5
2D5
100
AcDbEntity
  8
0
100
AcDbLine
 62
7
  6
CONTINUOUS
 10
135.2595960975
 20
142.0974624804
 11
136.4768830346
 21
142.0974624804
  0
LINE
  5
2D6
100
AcDbEntity
  8
0
100
AcDbLine
 62
7
  6
CONTINUOUS
 10
140.263998208
 20
142.0974624804
 11
141.0755228327
 21
142.0974624804
  0
LINE
  5
2D7
100
AcDbEntity
  8
0
100
AcDbLine
 62
7
  6
CONTINUOUS
 10
144.0511126075
 20
142.0974624804
 11
145.1331459564
 21
142.0974624804
  0
LINE
  5
2D8
100
AcDbEntity
  8
0
100
AcDbLine
 62
7
  6
CONTINUOUS
 10
144.9978908204
 20
142.5462496822
 11
144.1863661957
 21
142.5462496822
  0
LINE
  5
2D9
100
AcDbEntity
  8
0
100
AcDbLine
 62
7
  6
CONTINUOUS
 10
136.4768830346
 20
142.6702091195
 11
135.2595960975
 21
142.6702091195
  0
LINE
  5
2DA
100
AcDbEntity
  8
0
100
AcDbLine
 62
7
  6
CONTINUOUS
 10
104.3688206563
 20
142.6702091195
 11
102.0438206563
 21
142.6702091195
  0
LINE
  5
2DB
100
AcDbEntity
  8
0
100
AcDbLine
 62
7
  6
CONTINUOUS
 10
98.1688206563
 20
142.6702091195
 11
97.6521537433
 21
142.6702091195
  0
LINE
  5
2DC
100
AcDbEntity
  8
0
100
AcDbLine
 62
7
  6
CONTINUOUS
 10
144.9978908204
 20
142.7172597539
 11
144.1863661957
 21
142.7172597539
  0
LINE
  5
2DD
100
AcDbEntity
  8
0
100
AcDbLine
 62
7
  6
CONTINUOUS
 10
136.4768830346
 20
142.8412191912
 11
135.2595960975
 21
142.8412191912
  0
LINE
  5
2DE
100
AcDbEntity
  8
0
100
AcDbLine
 62
7
  6
CONTINUOUS
 10
104.3688206563
 20
142.8412191912
 11
102.0438206563
 21
142.8412191912
  0
LINE
  5
2DF
100
AcDbEntity
  8
0
100
AcDbLine
 62
7
  6
CONTINUOUS
 10
98.1688206563
 20
142.8412191912
 11
97.6521537433
 21
142.8412191912
  0
LINE
  5
2E0
100
AcDbEntity
  8
0
100
AcDbLine
 62
7
  6
CONTINUOUS
 10
142.8338256704
 20
143.290006393
 11
142.2197523591
 21
143.290006393
  0
LINE
  5
2E1
100
AcDbEntity
  8
0
100
AcDbLine
 62
7
  6
CONTINUOUS
 10
142.8338256704
 20
143.4610164646
 11
142.1575546338
 21
143.4610164646
  0
LINE
  5
2E2
100
AcDbEntity
  8
0
100
AcDbLine
 62
7
  6
CONTINUOUS
 10
136.3416286725
 20
144.5766515742
 11
137.5589156096
 21
144.5766515742
  0
LINE
  5
2E3
100
AcDbEntity
  8
0
100
AcDbLine
 62
7
  6
CONTINUOUS
 10
90.4188206563
 20
144.7006110115
 11
92.6146539281
 21
144.7006110115
  0
LINE
  5
2E4
100
AcDbEntity
  8
0
100
AcDbLine
 62
7
  6
CONTINUOUS
 10
127.6853659441
 20
144.7006110115
 11
129.9846856497
 21
144.7006110115
  0
LINE
  5
2E5
100
AcDbEntity
  8
0
100
AcDbLine
 62
7
  6
CONTINUOUS
 10
144.3216213317
 20
144.8245704489
 11
144.8626372322
 21
144.8245704489
  0
LINE
  5
2E6
100
AcDbEntity
  8
0
100
AcDbLine
 62
7
  6
CONTINUOUS
 10
144.8626372322
 20
145.1493981265
 11
144.3216213317
 21
145.1493981265
  0
LINE
  5
2E7
100
AcDbEntity
  8
0
100
AcDbLine
 62
7
  6
CONTINUOUS
 10
138.3704402343
 20
145.1493981265
 11
136.3416286725
 21
145.1493981265
  0
LINE
  5
2E8
100
AcDbEntity
  8
0
100
AcDbLine
 62
7
  6
CONTINUOUS
 10
130.2551939869
 20
145.2733575638
 11
127.6853659441
 21
145.2733575638
  0
LINE
  5
2E9
100
AcDbEntity
  8
0
100
AcDbLine
 62
7
  6
CONTINUOUS
 10
92.8729871998
 20
145.2733575638
 11
90.4188206563
 21
145.2733575638
  0
LINE
  5
2EA
100
AcDbEntity
  8
0
100
AcDbLine
 62
7
  6
CONTINUOUS
 10
144.8626372322
 20
145.3204081982
 11
144.3216213317
 21
145.3204081982
  0
LINE
  5
2EB
100
AcDbEntity
  8
0
100
AcDbLine
 62
7
  6
CONTINUOUS
 10
138.3704402343
 20
145.3204081982
 11
136.3416286725
 21
145.3204081982
  0
LINE
  5
2EC
100
AcDbEntity
  8
0
100
AcDbLine
 62
7
  6
CONTINUOUS
 10
130.2551939869
 20
145.4443676355
 11
127.6853659441
 21
145.4443676355
  0
LINE
  5
2ED
100
AcDbEntity
  8
0
100
AcDbLine
 62
7
  6
CONTINUOUS
 10
92.8729871998
 20
145.4443676355
 11
90.4188206563
 21
145.4443676355
  0
LINE
  5
2EE
100
AcDbEntity
  8
0
100
AcDbLine
 62
7
  6
CONTINUOUS
 10
137.5589156096
 20
146.4360431341
 11
138.3704402343
 21
146.4360431341
  0
LINE
  5
2EF
100
AcDbEntity
  8
0
100
AcDbLine
 62
7
  6
CONTINUOUS
 10
142.2928097698
 20
146.5600029187
 11
142.9690792586
 21
146.5600029187
  0
LINE
  5
2F0
100
AcDbEntity
  8
0
100
AcDbLine
 62
7
  6
CONTINUOUS
 10
102.0438206563
 20
147.1798001053
 11
104.3688206563
 21
147.1798001053
  0
LINE
  5
2F1
100
AcDbEntity
  8
0
100
AcDbLine
 62
7
  6
CONTINUOUS
 10
135.2595960975
 20
147.1798001053
 11
136.4768830346
 21
147.1798001053
  0
LINE
  5
2F2
100
AcDbEntity
  8
0
100
AcDbLine
 62
7
  6
CONTINUOUS
 10
90.4188206563
 20
147.3037595426
 11
92.8729871998
 21
147.3037595426
  0
LINE
  5
2F3
100
AcDbEntity
  8
0
100
AcDbLine
 62
7
  6
CONTINUOUS
 10
127.6853659441
 20
147.3037595426
 11
130.2551939869
 21
147.3037595426
  0
LINE
  5
2F4
100
AcDbEntity
  8
0
100
AcDbLine
 62
7
  6
CONTINUOUS
 10
144.3216213317
 20
147.3037595426
 11
144.8626372322
 21
147.3037595426
  0
LINE
  5
2F5
100
AcDbEntity
  8
0
100
AcDbLine
 62
7
  6
CONTINUOUS
 10
144.7273836441
 20
147.7525466576
 11
144.4568749199
 21
147.7525466576
  0
LINE
  5
2F6
100
AcDbEntity
  8
0
100
AcDbLine
 62
7
  6
CONTINUOUS
 10
141.0755228327
 20
147.7525466576
 11
140.263998208
 21
147.7525466576
  0
LINE
  5
2F7
100
AcDbEntity
  8
0
100
AcDbLine
 62
7
  6
CONTINUOUS
 10
136.4768830346
 20
147.7525466576
 11
135.2595960975
 21
147.7525466576
  0
LINE
  5
2F8
100
AcDbEntity
  8
0
100
AcDbLine
 62
7
  6
CONTINUOUS
 10
130.1199400118
 20
147.7525466576
 11
126.8738413193
 21
147.7525466576
  0
LINE
  5
2F9
100
AcDbEntity
  8
0
100
AcDbLine
 62
7
  6
CONTINUOUS
 10
125.7918085509
 20
147.7525466576
 11
124.9802839261
 21
147.7525466576
  0
LINE
  5
2FA
100
AcDbEntity
  8
0
100
AcDbLine
 62
7
  6
CONTINUOUS
 10
104.3688206563
 20
147.7525466576
 11
101.2688206563
 21
147.7525466576
  0
LINE
  5
2FB
100
AcDbEntity
  8
0
100
AcDbLine
 62
7
  6
CONTINUOUS
 10
100.2354875694
 20
147.7525466576
 11
99.4604875694
 21
147.7525466576
  0
LINE
  5
2FC
100
AcDbEntity
  8
0
100
AcDbLine
 62
7
  6
CONTINUOUS
 10
96.3604875694
 20
147.7525466576
 11
95.5854871998
 21
147.7525466576
  0
LINE
  5
2FD
100
AcDbEntity
  8
0
100
AcDbLine
 62
7
  6
CONTINUOUS
 10
92.7438206563
 20
147.7525466576
 11
89.6438206563
 21
147.7525466576
  0
LINE
  5
2FE
100
AcDbEntity
  8
0
100
AcDbLine
 62
7
  6
CONTINUOUS
 10
144.7273836441
 20
147.9235567293
 11
144.4568749199
 21
147.9235567293
  0
LINE
  5
2FF
100
AcDbEntity
  8
0
100
AcDbLine
 62
7
  6
CONTINUOUS
 10
141.0755228327
 20
147.9235567293
 11
140.263998208
 21
147.9235567293
  0
LINE
  5
300
100
AcDbEntity
  8
0
100
AcDbLine
 62
7
  6
CONTINUOUS
 10
136.4768830346
 20
147.9235567293
 11
135.2595960975
 21
147.9235567293
  0
LINE
  5
301
100
AcDbEntity
  8
0
100
AcDbLine
 62
7
  6
CONTINUOUS
 10
130.1199400118
 20
147.9235567293
 11
126.8738413193
 21
147.9235567293
  0
LINE
  5
302
100
AcDbEntity
  8
0
100
AcDbLine
 62
7
  6
CONTINUOUS
 10
125.7918085509
 20
147.9235567293
 11
124.9802839261
 21
147.9235567293
  0
LINE
  5
303
100
AcDbEntity
  8
0
100
AcDbLine
 62
7
  6
CONTINUOUS
 10
104.3688206563
 20
147.9235567293
 11
101.2688206563
 21
147.9235567293
  0
LINE
  5
304
100
AcDbEntity
  8
0
100
AcDbLine
 62
7
  6
CONTINUOUS
 10
100.2354875694
 20
147.9235567293
 11
99.4604875694
 21
147.9235567293
  0
LINE
  5
305
100
AcDbEntity
  8
0
100
AcDbLine
 62
7
  6
CONTINUOUS
 10
96.3604875694
 20
147.9235567293
 11
95.5854871998
 21
147.9235567293
  0
LINE
  5
306
100
AcDbEntity
  8
0
100
AcDbLine
 62
7
  6
CONTINUOUS
 10
92.7438206563
 20
147.9235567293
 11
89.6438206563
 21
147.9235567293
  0
LINE
  5
307
100
AcDbEntity
  8
0
100
AcDbLine
 62
7
  6
CONTINUOUS
 10
145.674161857
 20
147.6285872203
 11
144.7273836441
 21
147.7525466576
  0
LINE
  5
308
100
AcDbEntity
  8
0
100
AcDbLine
 62
7
  6
CONTINUOUS
 10
145.674161857
 20
147.799597292
 11
144.7273836441
 21
147.9235567293
  0
LINE
  5
309
100
AcDbEntity
  8
0
100
AcDbLine
 62
7
  6
CONTINUOUS
 10
144.8626372322
 20
144.8245704489
 11
145.674161857
 21
144.7006110115
  0
LINE
  5
30A
100
AcDbEntity
  8
0
100
AcDbLine
 62
7
  6
CONTINUOUS
 10
134.5833250609
 20
142.2214219286
 11
135.2595960975
 21
142.0974624804
  0
LINE
  5
30B
100
AcDbEntity
  8
0
100
AcDbLine
 62
7
  6
CONTINUOUS
 10
144.1863661957
 20
142.5462496822
 11
143.510096707
 21
142.6702091195
  0
LINE
  5
30C
100
AcDbEntity
  8
0
100
AcDbLine
 62
7
  6
CONTINUOUS
 10
144.1863661957
 20
142.7172597539
 11
143.510096707
 21
142.8412191912
  0
LINE
  5
30D
100
AcDbEntity
  8
0
100
AcDbLine
 62
7
  6
CONTINUOUS
 10
130.7962102744
 20
147.6285872203
 11
130.1199400118
 21
147.7525466576
  0
LINE
  5
30E
100
AcDbEntity
  8
0
100
AcDbLine
 62
7
  6
CONTINUOUS
 10
130.7962102744
 20
147.799597292
 11
130.1199400118
 21
147.9235567293
  0
LINE
  5
30F
100
AcDbEntity
  8
0
100
AcDbLine
 62
7
  6
CONTINUOUS
 10
137.1531532972
 20
147.6285872203
 11
136.4768830346
 21
147.7525466576
  0
LINE
  5
310
100
AcDbEntity
  8
0
100
AcDbLine
 62
7
  6
CONTINUOUS
 10
137.1531532972
 20
147.799597292
 11
136.4768830346
 21
147.9235567293
  0
LINE
  5
311
100
AcDbEntity
  8
0
100
AcDbLine
 62
7
  6
CONTINUOUS
 10
144.8626372322
 20
147.3037595426
 11
145.5389082688
 21
147.1798001053
  0
LINE
  5
312
100
AcDbEntity
  8
0
100
AcDbLine
 62
7
  6
CONTINUOUS
 10
97.0063206563
 20
142.2214219286
 11
97.6521537433
 21
142.0974624804
  0
LINE
  5
313
100
AcDbEntity
  8
0
100
AcDbLine
 62
7
  6
CONTINUOUS
 10
93.3896541129
 20
147.6285872203
 11
92.7438206563
 21
147.7525466576
  0
LINE
  5
314
100
AcDbEntity
  8
0
100
AcDbLine
 62
7
  6
CONTINUOUS
 10
93.3896541129
 20
147.799597292
 11
92.7438206563
 21
147.9235567293
  0
LINE
  5
315
100
AcDbEntity
  8
0
100
AcDbLine
 62
7
  6
CONTINUOUS
 10
105.0146544824
 20
147.6285872203
 11
104.3688206563
 21
147.7525466576
  0
LINE
  5
316
100
AcDbEntity
  8
0
100
AcDbLine
 62
7
  6
CONTINUOUS
 10
105.0146544824
 20
147.799597292
 11
104.3688206563
 21
147.9235567293
  0
LINE
  5
317
100
AcDbEntity
  8
0
100
AcDbLine
 62
7
  6
CONTINUOUS
 10
135.2595960975
 20
142.6702091195
 11
134.718579423
 21
142.7941685568
  0
LINE
  5
318
100
AcDbEntity
  8
0
100
AcDbLine
 62
7
  6
CONTINUOUS
 10
135.2595960975
 20
142.8412191912
 11
134.718579423
 21
142.9651786285
  0
LINE
  5
319
100
AcDbEntity
  8
0
100
AcDbLine
 62
7
  6
CONTINUOUS
 10
143.510096707
 20
142.2214219286
 11
144.0511126075
 21
142.0974624804
  0
LINE
  5
31A
100
AcDbEntity
  8
0
100
AcDbLine
 62
7
  6
CONTINUOUS
 10
136.4768830346
 20
147.1798001053
 11
137.0178989351
 21
147.055840668
  0
LINE
  5
31B
100
AcDbEntity
  8
0
100
AcDbLine
 62
7
  6
CONTINUOUS
 10
97.6521537433
 20
142.6702091195
 11
97.1354875694
 21
142.7941685568
  0
LINE
  5
31C
100
AcDbEntity
  8
0
100
AcDbLine
 62
7
  6
CONTINUOUS
 10
97.6521537433
 20
142.8412191912
 11
97.1354875694
 21
142.9651786285
  0
LINE
  5
31D
100
AcDbEntity
  8
0
100
AcDbLine
 62
7
  6
CONTINUOUS
 10
104.3688206563
 20
147.1798001053
 11
104.8854868303
 21
147.055840668
  0
LINE
  5
31E
100
AcDbEntity
  8
0
100
AcDbLine
 62
7
  6
CONTINUOUS
 10
92.8729871998
 20
147.3037595426
 11
93.2604871998
 21
147.1798001053
  0
LINE
  5
31F
100
AcDbEntity
  8
0
100
AcDbLine
 62
7
  6
CONTINUOUS
 10
96.4896537433
 20
142.4693408358
 11
97.0063206563
 21
142.2214219286
  0
LINE
  5
320
100
AcDbEntity
  8
0
100
AcDbLine
 62
7
  6
CONTINUOUS
 10
105.5313206563
 20
147.3806683456
 11
105.0146544824
 21
147.6285872203
  0
LINE
  5
321
100
AcDbEntity
  8
0
100
AcDbLine
 62
7
  6
CONTINUOUS
 10
105.5313206563
 20
147.5516784173
 11
105.0146544824
 21
147.799597292
  0
LINE
  5
322
100
AcDbEntity
  8
0
100
AcDbLine
 62
7
  6
CONTINUOUS
 10
97.1354875694
 20
142.7941685568
 11
96.7479875694
 21
143.0420875183
  0
LINE
  5
323
100
AcDbEntity
  8
0
100
AcDbLine
 62
7
  6
CONTINUOUS
 10
97.1354875694
 20
142.9651786285
 11
96.7479875694
 21
143.21309759
  0
LINE
  5
324
100
AcDbEntity
  8
0
100
AcDbLine
 62
7
  6
CONTINUOUS
 10
104.8854868303
 20
147.055840668
 11
105.2729868303
 21
146.8079217933
  0
LINE
  5
325
100
AcDbEntity
  8
0
100
AcDbLine
 62
7
  6
CONTINUOUS
 10
93.9063206563
 20
147.2567089083
 11
93.3896541129
 21
147.6285872203
  0
LINE
  5
326
100
AcDbEntity
  8
0
100
AcDbLine
 62
7
  6
CONTINUOUS
 10
93.9063206563
 20
147.42771898
 11
93.3896541129
 21
147.799597292
  0
LINE
  5
327
100
AcDbEntity
  8
0
100
AcDbLine
 62
7
  6
CONTINUOUS
 10
95.9729875694
 20
142.9651786285
 11
96.4896537433
 21
142.4693408358
  0
LINE
  5
328
100
AcDbEntity
  8
0
100
AcDbLine
 62
7
  6
CONTINUOUS
 10
93.2604871998
 20
147.1798001053
 11
93.5188206563
 21
146.9318812307
  0
LINE
  5
329
100
AcDbEntity
  8
0
100
AcDbLine
 62
7
  6
CONTINUOUS
 10
94.2938206563
 20
146.760871159
 11
93.9063206563
 21
147.2567089083
  0
LINE
  5
32A
100
AcDbEntity
  8
0
100
AcDbLine
 62
7
  6
CONTINUOUS
 10
94.2938206563
 20
146.9318812307
 11
93.9063206563
 21
147.42771898
  0
LINE
  5
32B
100
AcDbEntity
  8
0
100
AcDbLine
 62
7
  6
CONTINUOUS
 10
72.9104634046
 20
166.9604558543
 11
72.9104634046
 21
169.2394853165
  0
LINE
  5
32C
100
AcDbEntity
  8
RUNDUNGEN
100
AcDbLine
 62
7
  6
CONTINUOUS
 10
73.2202839261
 20
7.004120937
 11
73.2202839261
 21
19.1014503092
  0
LINE
  5
32D
100
AcDbEntity
  8
RUNDUNGEN
100
AcDbLine
 62
7
  6
CONTINUOUS
 10
74.8305692315
 20
72.5264135112
 11
74.8305692315
 21
76.0619474171
  0
LINE
  5
32E
100
AcDbEntity
  8
RUNDUNGEN
100
AcDbLine
 62
7
  6
CONTINUOUS
 10
88.2202839261
 20
153.8136625228
 11
146.2202839261
 21
153.8136625228
  0
LINE
  5
32F
100
AcDbEntity
  8
0
100
AcDbLine
 62
7
  6
CONTINUOUS
 10
130.2551939869
 20
147.3037595426
 11
130.6609562993
 21
147.1798001053
  0
LINE
  5
330
100
AcDbEntity
  8
0
100
AcDbLine
 62
7
  6
CONTINUOUS
 10
146.6209400699
 20
144.6535603772
 11
145.9446705812
 21
144.9014792518
  0
LINE
  5
331
100
AcDbEntity
  8
0
100
AcDbLine
 62
7
  6
CONTINUOUS
 10
146.6209400699
 20
144.8245704489
 11
145.9446705812
 21
145.0724893235
  0
LINE
  5
332
100
AcDbEntity
  8
0
100
AcDbLine
 62
7
  6
CONTINUOUS
 10
134.0423091603
 20
142.4693408358
 11
134.5833250609
 21
142.2214219286
  0
LINE
  5
333
100
AcDbEntity
  8
0
100
AcDbLine
 62
7
  6
CONTINUOUS
 10
142.9690792586
 20
142.4693408358
 11
143.510096707
 21
142.2214219286
  0
LINE
  5
334
100
AcDbEntity
  8
0
100
AcDbLine
 62
7
  6
CONTINUOUS
 10
143.510096707
 20
142.6702091195
 11
143.2395879828
 21
142.7941685568
  0
LINE
  5
335
100
AcDbEntity
  8
0
100
AcDbLine
 62
7
  6
CONTINUOUS
 10
143.510096707
 20
142.8412191912
 11
143.2395879828
 21
142.9651786285
  0
LINE
  5
336
100
AcDbEntity
  8
0
100
AcDbLine
 62
7
  6
CONTINUOUS
 10
137.6941699717
 20
147.3806683456
 11
137.1531532972
 21
147.6285872203
  0
LINE
  5
337
100
AcDbEntity
  8
0
100
AcDbLine
 62
7
  6
CONTINUOUS
 10
137.6941699717
 20
147.5516784173
 11
137.1531532972
 21
147.799597292
  0
LINE
  5
338
100
AcDbEntity
  8
0
100
AcDbLine
 62
7
  6
CONTINUOUS
 10
146.2151777575
 20
147.3806683456
 11
145.674161857
 21
147.6285872203
  0
LINE
  5
339
100
AcDbEntity
  8
0
100
AcDbLine
 62
7
  6
CONTINUOUS
 10
146.2151777575
 20
147.5516784173
 11
145.674161857
 21
147.799597292
  0
LINE
  5
33A
100
AcDbEntity
  8
0
100
AcDbLine
 62
7
  6
CONTINUOUS
 10
134.718579423
 20
142.7941685568
 11
134.3128171106
 21
143.0420875183
  0
LINE
  5
33B
100
AcDbEntity
  8
0
100
AcDbLine
 62
7
  6
CONTINUOUS
 10
134.718579423
 20
142.9651786285
 11
134.3128171106
 21
143.21309759
  0
LINE
  5
33C
100
AcDbEntity
  8
0
100
AcDbLine
 62
7
  6
CONTINUOUS
 10
142.5633169462
 20
142.7172597539
 11
142.9690792586
 21
142.4693408358
  0
LINE
  5
33D
100
AcDbEntity
  8
0
100
AcDbLine
 62
7
  6
CONTINUOUS
 10
137.0178989351
 20
147.055840668
 11
137.4236612475
 21
146.8079217933
  0
LINE
  5
33E
100
AcDbEntity
  8
0
100
AcDbLine
 62
7
  6
CONTINUOUS
 10
131.3372269489
 20
147.2567089083
 11
130.7962102744
 21
147.6285872203
  0
LINE
  5
33F
100
AcDbEntity
  8
0
100
AcDbLine
 62
7
  6
CONTINUOUS
 10
131.3372269489
 20
147.42771898
 11
130.7962102744
 21
147.799597292
  0
LINE
  5
340
100
AcDbEntity
  8
0
100
AcDbLine
 62
7
  6
CONTINUOUS
 10
106.0479868303
 20
146.8848305963
 11
105.5313206563
 21
147.3806683456
  0
LINE
  5
341
100
AcDbEntity
  8
0
100
AcDbLine
 62
7
  6
CONTINUOUS
 10
106.0479868303
 20
147.055840668
 11
105.5313206563
 21
147.5516784173
  0
LINE
  5
342
100
AcDbEntity
  8
0
100
AcDbLine
 62
7
  6
CONTINUOUS
 10
96.7479875694
 20
143.0420875183
 11
96.4896537433
 21
143.4139658303
  0
LINE
  5
343
100
AcDbEntity
  8
0
100
AcDbLine
 62
7
  6
CONTINUOUS
 10
96.7479875694
 20
143.21309759
 11
96.4896537433
 21
143.584975902
  0
LINE
  5
344
100
AcDbEntity
  8
0
100
AcDbLine
 62
7
  6
CONTINUOUS
 10
105.2729868303
 20
146.8079217933
 11
105.5313206563
 21
146.4360431341
  0
LINE
  5
345
100
AcDbEntity
  8
0
100
AcDbLine
 62
7
  6
CONTINUOUS
 10
95.7146541129
 20
143.4610164646
 11
95.9729875694
 21
142.9651786285
  0
LINE
  5
346
100
AcDbEntity
  8
0
100
AcDbLine
 62
7
  6
CONTINUOUS
 10
94.4824261198
 20
142.0974624804
 11
93.3896541129
 21
144.7775198145
  0
LINE
  5
347
100
AcDbEntity
  8
0
100
AcDbLine
 62
7
  6
CONTINUOUS
 10
94.5521541129
 20
142.0974624804
 11
93.3896541129
 21
144.9485298862
  0
LINE
  5
348
100
AcDbEntity
  8
0
100
AcDbLine
 62
7
  6
CONTINUOUS
 10
92.6146539281
 20
144.7006110115
 11
93.6479871998
 21
142.0974624804
  0
LINE
  5
349
100
AcDbEntity
  8
0
100
AcDbLine
 62
7
  6
CONTINUOUS
 10
93.5188206563
 20
146.9318812307
 11
93.6479871998
 21
146.5600029187
  0
LINE
  5
34A
100
AcDbEntity
  8
0
100
AcDbLine
 62
7
  6
CONTINUOUS
 10
94.4229871998
 20
146.388992847
 11
94.2938206563
 21
146.760871159
  0
LINE
  5
34B
100
AcDbEntity
  8
0
100
AcDbLine
 62
7
  6
CONTINUOUS
 10
94.4229871998
 20
146.5600029187
 11
94.2938206563
 21
146.9318812307
  0
LINE
  5
34C
100
AcDbEntity
  8
0
100
AcDbLine
 62
7
  6
CONTINUOUS
 10
74.9095068163
 20
162.4267391808
 11
78.8468537173
 21
148.81339436
  0
LINE
  5
34D
100
AcDbEntity
  8
0
100
AcDbLine
 62
7
  6
CONTINUOUS
 10
74.9095068163
 20
159.7519890458
 11
78.8468537173
 21
145.7489354383
  0
LINE
  5
34E
100
AcDbEntity
  8
0
100
AcDbLine
 62
7
  6
CONTINUOUS
 10
78.8468537173
 20
130.6798574317
 11
80.2202839261
 21
123.3604884549
  0
LINE
  5
34F
100
AcDbEntity
  8
0
100
AcDbLine
 62
7
  6
CONTINUOUS
 10
78.8468537173
 20
132.9029883633
 11
80.2202839261
 21
125.5836193865
  0
LINE
  5
350
100
AcDbEntity
  8
0
100
AcDbLine
 62
7
  6
CONTINUOUS
 10
78.8468537173
 20
130.6798574317
 11
78.8468537173
 21
148.81339436
  0
LINE
  5
351
100
AcDbEntity
  8
0
100
AcDbLine
 62
7
  6
CONTINUOUS
 10
80.2202839261
 20
99.5719017312
 11
80.2202839261
 21
106.4806114608
  0
LINE
  5
352
100
AcDbEntity
  8
RUNDUNGEN
100
AcDbLine
 62
7
  6
CONTINUOUS
 10
80.2202839261
 20
106.4806114608
 11
80.2202839261
 21
145.9342772812
  0
LINE
  5
353
100
AcDbEntity
  8
RUNDUNGEN
100
AcDbLine
 62
7
  6
CONTINUOUS
 10
83.2202839261
 20
3.1150336404
 11
83.2202839261
 21
9.1254412805
  0
LINE
  5
354
100
AcDbEntity
  8
0
100
AcDbLine
 62
7
  6
CONTINUOUS
 10
86.2202839261
 20
93.419627357
 11
86.2202839261
 21
94.3088797296
  0
LINE
  5
355
100
AcDbEntity
  8
0
100
AcDbLine
 62
7
  6
CONTINUOUS
 10
89.6438206563
 20
147.9235567293
 11
89.6438206563
 21
142.0974624804
  0
LINE
  5
356
100
AcDbEntity
  8
0
100
AcDbLine
 62
7
  6
CONTINUOUS
 10
90.4188206563
 20
142.0974624804
 11
90.4188206563
 21
144.7006110115
  0
LINE
  5
357
100
AcDbEntity
  8
0
100
AcDbLine
 62
7
  6
CONTINUOUS
 10
90.4188206563
 20
145.2733575638
 11
90.4188206563
 21
147.3037595426
  0
LINE
  5
358
100
AcDbEntity
  8
0
100
AcDbLine
 62
7
  6
CONTINUOUS
 10
145.674161857
 20
144.7006110115
 11
146.0799241693
 21
144.4526921369
  0
LINE
  5
359
100
AcDbEntity
  8
0
100
AcDbLine
 62
7
  6
CONTINUOUS
 10
145.5389082688
 20
147.1798001053
 11
145.9446705812
 21
146.9318812307
  0
LINE
  5
35A
100
AcDbEntity
  8
0
100
AcDbLine
 62
7
  6
CONTINUOUS
 10
133.5012924859
 20
142.9651786285
 11
134.0423091603
 21
142.4693408358
  0
LINE
  5
35B
100
AcDbEntity
  8
0
100
AcDbLine
 62
7
  6
CONTINUOUS
 10
130.6609562993
 20
147.1798001053
 11
130.9314646365
 21
146.9318812307
  0
LINE
  5
35C
100
AcDbEntity
  8
0
100
AcDbLine
 62
7
  6
CONTINUOUS
 10
138.2351866461
 20
146.8848305963
 11
137.6941699717
 21
147.3806683456
  0
LINE
  5
35D
100
AcDbEntity
  8
0
100
AcDbLine
 62
7
  6
CONTINUOUS
 10
138.2351866461
 20
147.055840668
 11
137.6941699717
 21
147.5516784173
  0
LINE
  5
35E
100
AcDbEntity
  8
0
100
AcDbLine
 62
7
  6
CONTINUOUS
 10
143.2395879828
 20
142.7941685568
 11
142.9690792586
 21
143.0420875183
  0
LINE
  5
35F
100
AcDbEntity
  8
0
100
AcDbLine
 62
7
  6
CONTINUOUS
 10
143.2395879828
 20
142.9651786285
 11
142.9690792586
 21
143.21309759
  0
LINE
  5
360
100
AcDbEntity
  8
0
100
AcDbLine
 62
7
  6
CONTINUOUS
 10
131.7429888743
 20
146.760871159
 11
131.3372269489
 21
147.2567089083
  0
LINE
  5
361
100
AcDbEntity
  8
0
100
AcDbLine
 62
7
  6
CONTINUOUS
 10
131.7429888743
 20
146.9318812307
 11
131.3372269489
 21
147.42771898
  0
LINE
  5
362
100
AcDbEntity
  8
0
100
AcDbLine
 62
7
  6
CONTINUOUS
 10
106.3063206563
 20
146.388992847
 11
106.0479868303
 21
146.8848305963
  0
LINE
  5
363
100
AcDbEntity
  8
0
100
AcDbLine
 62
7
  6
CONTINUOUS
 10
106.3063206563
 20
146.5600029187
 11
106.0479868303
 21
147.055840668
  0
LINE
  5
364
100
AcDbEntity
  8
0
100
AcDbLine
 62
7
  6
CONTINUOUS
 10
96.4896537433
 20
143.4139658303
 11
96.3604875694
 21
143.9098035796
  0
LINE
  5
365
100
AcDbEntity
  8
0
100
AcDbLine
 62
7
  6
CONTINUOUS
 10
96.4896537433
 20
143.584975902
 11
96.3604875694
 21
144.0808136513
  0
LINE
  5
366
100
AcDbEntity
  8
0
100
AcDbLine
 62
7
  6
CONTINUOUS
 10
105.5313206563
 20
146.4360431341
 11
105.6604868303
 21
145.9402053848
  0
LINE
  5
367
100
AcDbEntity
  8
0
100
AcDbLine
 62
7
  6
CONTINUOUS
 10
95.5854871998
 20
144.0808136513
 11
95.7146541129
 21
143.4610164646
  0
LINE
  5
368
100
AcDbEntity
  8
0
100
AcDbLine
 62
7
  6
CONTINUOUS
 10
92.7438206563
 20
147.9235567293
 11
92.7438206563
 21
147.7525466576
  0
LINE
  5
369
100
AcDbEntity
  8
0
100
AcDbLine
 62
7
  6
CONTINUOUS
 10
92.8729871998
 20
145.4443676355
 11
92.8729871998
 21
145.2733575638
  0
LINE
  5
36A
100
AcDbEntity
  8
0
100
AcDbLine
 62
7
  6
CONTINUOUS
 10
93.2604871998
 20
145.5683270728
 11
93.2604871998
 21
145.3973170011
  0
LINE
  5
36B
100
AcDbEntity
  8
0
100
AcDbLine
 62
7
  6
CONTINUOUS
 10
93.3896541129
 20
147.799597292
 11
93.3896541129
 21
147.6285872203
  0
LINE
  5
36C
100
AcDbEntity
  8
0
100
AcDbLine
 62
7
  6
CONTINUOUS
 10
93.3896541129
 20
144.9485298862
 11
93.3896541129
 21
144.7775198145
  0
LINE
  5
36D
100
AcDbEntity
  8
0
100
AcDbLine
 62
7
  6
CONTINUOUS
 10
93.5188206563
 20
145.8162459475
 11
93.5188206563
 21
145.6452358758
  0
LINE
  5
36E
100
AcDbEntity
  8
0
100
AcDbLine
 62
7
  6
CONTINUOUS
 10
93.6479871998
 20
146.5600029187
 11
93.6479871998
 21
146.0171141878
  0
LINE
  5
36F
100
AcDbEntity
  8
0
100
AcDbLine
 62
7
  6
CONTINUOUS
 10
93.9063206563
 20
147.42771898
 11
93.9063206563
 21
147.2567089083
  0
LINE
  5
370
100
AcDbEntity
  8
0
100
AcDbLine
 62
7
  6
CONTINUOUS
 10
94.2938206563
 20
146.9318812307
 11
94.2938206563
 21
146.760871159
  0
LINE
  5
371
100
AcDbEntity
  8
0
100
AcDbLine
 62
7
  6
CONTINUOUS
 10
94.4229871998
 20
146.0641648221
 11
94.4229871998
 21
146.5600029187
  0
LINE
  5
372
100
AcDbEntity
  8
0
100
AcDbLine
 62
7
  6
CONTINUOUS
 10
95.5854871998
 20
147.9235567293
 11
95.5854871998
 21
144.0808136513
  0
LINE
  5
373
100
AcDbEntity
  8
KONSTRUKTIONSELEMENTE
100
AcDbLine
 62
7
  6
CONTINUOUS
 10
95.7801346729
 20
121.2068839955
 11
95.7801346729
 21
123.5561155474
  0
LINE
  5
374
100
AcDbEntity
  8
0
100
AcDbLine
 62
7
  6
CONTINUOUS
 10
96.3604875694
 20
143.9098035796
 11
96.3604875694
 21
147.9235567293
  0
LINE
  5
375
100
AcDbEntity
  8
0
100
AcDbLine
 62
7
  6
CONTINUOUS
 10
96.4896537433
 20
143.584975902
 11
96.4896537433
 21
143.4139658303
  0
LINE
  5
376
100
AcDbEntity
  8
0
100
AcDbLine
 62
7
  6
CONTINUOUS
 10
96.7479875694
 20
143.21309759
 11
96.7479875694
 21
143.0420875183
  0
LINE
  5
377
100
AcDbEntity
  8
0
100
AcDbLine
 62
7
  6
CONTINUOUS
 10
97.1354875694
 20
142.9651786285
 11
97.1354875694
 21
142.7941685568
  0
LINE
  5
378
100
AcDbEntity
  8
0
100
AcDbLine
 62
7
  6
CONTINUOUS
 10
97.6521537433
 20
142.8412191912
 11
97.6521537433
 21
142.6702091195
  0
LINE
  5
379
100
AcDbEntity
  8
0
100
AcDbLine
 62
7
  6
CONTINUOUS
 10
98.1688206563
 20
142.8412191912
 11
98.1688206563
 21
142.6702091195
  0
LINE
  5
37A
100
AcDbEntity
  8
0
100
AcDbLine
 62
7
  6
CONTINUOUS
 10
98.2568358703
 20
73.302452741
 11
98.2568358703
 21
67.2354765584
  0
LINE
  5
37B
100
AcDbEntity
  8
0
100
AcDbLine
 62
7
  6
CONTINUOUS
 10
98.6854875694
 20
142.9651786285
 11
98.6854875694
 21
142.7941685568
  0
LINE
  5
37C
100
AcDbEntity
  8
0
100
AcDbLine
 62
7
  6
CONTINUOUS
 10
99.0729875694
 20
143.21309759
 11
99.0729875694
 21
143.0420875183
  0
LINE
  5
37D
100
AcDbEntity
  8
0
100
AcDbLine
 62
7
  6
CONTINUOUS
 10
99.3313206563
 20
143.584975902
 11
99.3313206563
 21
143.4139658303
  0
LINE
  5
37E
100
AcDbEntity
  8
0
100
AcDbLine
 62
7
  6
CONTINUOUS
 10
99.4604875694
 20
147.9235567293
 11
99.4604875694
 21
143.9098035796
  0
LINE
  5
37F
100
AcDbEntity
  8
0
100
AcDbLine
 62
7
  6
CONTINUOUS
 10
100.2354875694
 20
144.0808136513
 11
100.2354875694
 21
147.9235567293
  0
LINE
  5
380
100
AcDbEntity
  8
0
100
AcDbLine
 62
7
  6
CONTINUOUS
 10
100.7918358703
 20
68.0627914924
 11
100.7918358703
 21
70.1770407682
  0
LINE
  5
381
100
AcDbEntity
  8
0
100
AcDbLine
 62
7
  6
CONTINUOUS
 10
100.7918358703
 20
70.820507939
 11
100.7918358703
 21
72.9347572148
  0
LINE
  5
382
100
AcDbEntity
  8
0
100
AcDbLine
 62
7
  6
CONTINUOUS
 10
101.2202839261
 20
398.1673782132
 11
101.2202839261
 21
166.1673782132
  0
LINE
  5
383
100
AcDbEntity
  8
0
100
AcDbLine
 62
7
  6
CONTINUOUS
 10
101.2688206563
 20
147.9235567293
 11
101.2688206563
 21
142.0974624804
  0
LINE
  5
384
100
AcDbEntity
  8
0
100
AcDbLine
 62
7
  6
CONTINUOUS
 10
101.3768358703
 20
72.2269433268
 11
101.3768358703
 21
71.0687024192
  0
LINE
  5
385
100
AcDbEntity
  8
0
100
AcDbLine
 62
7
  6
CONTINUOUS
 10
101.3768358703
 20
69.4692268802
 11
101.3768358703
 21
68.3109859726
  0
LINE
  5
386
100
AcDbEntity
  8
0
100
AcDbLine
 62
7
  6
CONTINUOUS
 10
101.8643358703
 20
69.4140725513
 11
101.8643358703
 21
69.5795355381
  0
LINE
  5
387
100
AcDbEntity
  8
0
100
AcDbLine
 62
7
  6
CONTINUOUS
 10
101.8643358703
 20
69.993193005
 11
101.8643358703
 21
70.5447362944
  0
LINE
  5
388
100
AcDbEntity
  8
0
100
AcDbLine
 62
7
  6
CONTINUOUS
 10
101.8643358703
 20
70.9583937614
 11
101.8643358703
 21
71.5834761559
  0
LINE
  5
389
100
AcDbEntity
  8
0
100
AcDbLine
 62
7
  6
CONTINUOUS
 10
102.0438206563
 20
142.6702091195
 11
102.0438206563
 21
147.1798001053
  0
LINE
  5
38A
100
AcDbEntity
  8
0
100
AcDbLine
 62
7
  6
CONTINUOUS
 10
102.4493358703
 20
71.5834761559
 11
102.4493358703
 21
70.9583937614
  0
LINE
  5
38B
100
AcDbEntity
  8
0
100
AcDbLine
 62
7
  6
CONTINUOUS
 10
102.4493358703
 20
70.5447362944
 11
102.4493358703
 21
69.993193005
  0
LINE
  5
38C
100
AcDbEntity
  8
0
100
AcDbLine
 62
7
  6
CONTINUOUS
 10
102.4493358703
 20
69.5795355381
 11
102.4493358703
 21
69.4140725513
  0
LINE
  5
38D
100
AcDbEntity
  8
0
100
AcDbLine
 62
7
  6
CONTINUOUS
 10
102.9368358703
 20
68.3109859726
 11
102.9368358703
 21
69.4692268802
  0
LINE
  5
38E
100
AcDbEntity
  8
0
100
AcDbLine
 62
7
  6
CONTINUOUS
 10
102.9368358703
 20
71.0687024192
 11
102.9368358703
 21
72.2269433268
  0
LINE
  5
38F
100
AcDbEntity
  8
0
100
AcDbLine
 62
7
  6
CONTINUOUS
 10
103.5218358703
 20
72.9347572148
 11
103.5218358703
 21
70.820507939
  0
LINE
  5
390
100
AcDbEntity
  8
0
100
AcDbLine
 62
7
  6
CONTINUOUS
 10
103.5218358703
 20
70.1770407682
 11
103.5218358703
 21
68.0627914924
  0
LINE
  5
391
100
AcDbEntity
  8
0
100
AcDbLine
 62
7
  6
CONTINUOUS
 10
104.3688206563
 20
147.9235567293
 11
104.3688206563
 21
147.7525466576
  0
LINE
  5
392
100
AcDbEntity
  8
0
100
AcDbLine
 62
7
  6
CONTINUOUS
 10
104.3688206563
 20
142.8412191912
 11
104.3688206563
 21
142.6702091195
  0
LINE
  5
393
100
AcDbEntity
  8
0
100
AcDbLine
 62
7
  6
CONTINUOUS
 10
104.8854868303
 20
142.9651786285
 11
104.8854868303
 21
142.7941685568
  0
LINE
  5
394
100
AcDbEntity
  8
0
100
AcDbLine
 62
7
  6
CONTINUOUS
 10
105.0146544824
 20
147.799597292
 11
105.0146544824
 21
147.6285872203
  0
LINE
  5
395
100
AcDbEntity
  8
0
100
AcDbLine
 62
7
  6
CONTINUOUS
 10
105.2729868303
 20
143.21309759
 11
105.2729868303
 21
143.0420875183
  0
LINE
  5
396
100
AcDbEntity
  8
0
100
AcDbLine
 62
7
  6
CONTINUOUS
 10
105.5313206563
 20
147.5516784173
 11
105.5313206563
 21
147.3806683456
  0
LINE
  5
397
100
AcDbEntity
  8
0
100
AcDbLine
 62
7
  6
CONTINUOUS
 10
105.5313206563
 20
143.584975902
 11
105.5313206563
 21
143.4139658303
  0
LINE
  5
398
100
AcDbEntity
  8
0
100
AcDbLine
 62
7
  6
CONTINUOUS
 10
105.6604868303
 20
145.9402053848
 11
105.6604868303
 21
143.9098035796
  0
LINE
  5
399
100
AcDbEntity
  8
0
100
AcDbLine
 62
7
  6
CONTINUOUS
 10
146.7561952059
 20
146.8848305963
 11
146.2151777575
 21
147.3806683456
  0
LINE
  5
39A
100
AcDbEntity
  8
0
100
AcDbLine
 62
7
  6
CONTINUOUS
 10
146.7561952059
 20
147.055840668
 11
146.2151777575
 21
147.5516784173
  0
LINE
  5
39B
100
AcDbEntity
  8
0
100
AcDbLine
 62
7
  6
CONTINUOUS
 10
134.3128171106
 20
143.0420875183
 11
134.0423091603
 21
143.4139658303
  0
LINE
  5
39C
100
AcDbEntity
  8
0
100
AcDbLine
 62
7
  6
CONTINUOUS
 10
134.3128171106
 20
143.21309759
 11
134.0423091603
 21
143.584975902
  0
LINE
  5
39D
100
AcDbEntity
  8
0
100
AcDbLine
 62
7
  6
CONTINUOUS
 10
142.2928097698
 20
143.0891380658
 11
142.5633169462
 21
142.7172597539
  0
LINE
  5
39E
100
AcDbEntity
  8
0
100
AcDbLine
 62
7
  6
CONTINUOUS
 10
146.8914487941
 20
144.2816820652
 11
146.6209400699
 21
144.6535603772
  0
LINE
  5
39F
100
AcDbEntity
  8
0
100
AcDbLine
 62
7
  6
CONTINUOUS
 10
146.8914487941
 20
144.4526921369
 11
146.6209400699
 21
144.8245704489
  0
LINE
  5
3A0
100
AcDbEntity
  8
0
100
AcDbLine
 62
7
  6
CONTINUOUS
 10
145.9446705812
 20
146.9318812307
 11
146.2151777575
 21
146.5600029187
  0
LINE
  5
3A1
100
AcDbEntity
  8
0
100
AcDbLine
 62
7
  6
CONTINUOUS
 10
133.2307845356
 20
143.4610164646
 11
133.5012924859
 21
142.9651786285
  0
LINE
  5
3A2
100
AcDbEntity
  8
0
100
AcDbLine
 62
7
  6
CONTINUOUS
 10
131.9404834031
 20
142.0974624804
 11
130.7962102744
 21
144.7775198145
  0
LINE
  5
3A3
100
AcDbEntity
  8
0
100
AcDbLine
 62
7
  6
CONTINUOUS
 10
132.0134975985
 20
142.0974624804
 11
130.7962102744
 21
144.9485298862
  0
LINE
  5
3A4
100
AcDbEntity
  8
0
100
AcDbLine
 62
7
  6
CONTINUOUS
 10
129.9846856497
 20
144.7006110115
 11
131.0667186117
 21
142.0974624804
  0
LINE
  5
3A5
100
AcDbEntity
  8
0
100
AcDbLine
 62
7
  6
CONTINUOUS
 10
106.4354868303
 20
145.7691953131
 11
106.3063206563
 21
146.388992847
  0
LINE
  5
3A6
100
AcDbEntity
  8
0
100
AcDbLine
 62
7
  6
CONTINUOUS
 10
106.4354868303
 20
145.9402053848
 11
106.3063206563
 21
146.5600029187
  0
LINE
  5
3A7
100
AcDbEntity
  8
0
100
AcDbLine
 62
7
  6
CONTINUOUS
 10
106.0479868303
 20
147.055840668
 11
106.0479868303
 21
146.8848305963
  0
LINE
  5
3A8
100
AcDbEntity
  8
0
100
AcDbLine
 62
7
  6
CONTINUOUS
 10
106.0568358703
 20
67.2354765584
 11
106.0568358703
 21
73.302452741
  0
LINE
  5
3A9
100
AcDbEntity
  8
0
100
AcDbLine
 62
7
  6
CONTINUOUS
 10
106.3063206563
 20
146.5600029187
 11
106.3063206563
 21
146.388992847
  0
LINE
  5
3AA
100
AcDbEntity
  8
0
100
AcDbLine
 62
7
  6
CONTINUOUS
 10
106.4354868303
 20
144.0808136513
 11
106.4354868303
 21
145.9402053848
  0
LINE
  5
3AB
100
AcDbEntity
  8
0
100
AcDbLine
 62
7
  6
CONTINUOUS
 10
108.5863775622
 20
73.8539960303
 11
108.5863775622
 21
73.0174887082
  0
LINE
  5
3AC
100
AcDbEntity
  8
0
100
AcDbLine
 62
7
  6
CONTINUOUS
 10
108.5863775622
 20
72.2453281031
 11
108.5863775622
 21
66.6839332691
  0
LINE
  5
3AD
100
AcDbEntity
  8
0
100
AcDbLine
 62
7
  6
CONTINUOUS
 10
109.8202839261
 20
119.6297422276
 11
109.8202839261
 21
99.6487452412
  0
LINE
  5
3AE
100
AcDbEntity
  8
KONSTRUKTIONSELEMENTE
100
AcDbLine
 62
7
  6
CONTINUOUS
 10
109.8202839261
 20
119.6297422276
 11
109.8202839261
 21
136.6032448087
  0
LINE
  5
3AF
100
AcDbEntity
  8
0
100
AcDbLine
 62
7
  6
CONTINUOUS
 10
109.8343775622
 20
66.6839332691
 11
109.8343775622
 21
70.6032610921
  0
LINE
  5
3B0
100
AcDbEntity
  8
0
100
AcDbLine
 62
7
  6
CONTINUOUS
 10
109.8343775622
 20
71.0261109472
 11
109.8343775622
 21
72.2453281031
  0
LINE
  5
3B1
100
AcDbEntity
  8
0
100
AcDbLine
 62
7
  6
CONTINUOUS
 10
112.9543775622
 20
70.1436416843
 11
112.9543775622
 21
70.6032610921
  0
LINE
  5
3B2
100
AcDbEntity
  8
KONSTRUKTIONSELEMENTE
100
AcDbLine
 62
7
  6
CONTINUOUS
 10
113.7202839261
 20
103.8777499595
 11
113.7202839261
 21
104.7986756281
  0
LINE
  5
3B3
100
AcDbEntity
  8
0
100
AcDbLine
 62
7
  6
CONTINUOUS
 10
114.2831706369
 20
70.2811477068
 11
114.2831706369
 21
70.7407671145
  0
LINE
  5
3B4
100
AcDbEntity
  8
KONSTRUKTIONSELEMENTE
100
AcDbLine
 62
7
  6
CONTINUOUS
 10
114.7202839261
 20
104.7986756281
 11
114.7202839261
 21
83.0873854082
  0
LINE
  5
3B5
100
AcDbEntity
  8
0
100
AcDbLine
 62
7
  6
CONTINUOUS
 10
114.8824942809
 20
72.4814192355
 11
114.8824942809
 21
72.0217998277
  0
LINE
  5
3B6
100
AcDbEntity
  8
KONSTRUKTIONSELEMENTE
100
AcDbLine
 62
7
  6
CONTINUOUS
 10
114.9702839261
 20
123.1486756281
 11
114.9702839261
 21
132.5325113426
  0
LINE
  5
3B7
100
AcDbEntity
  8
0
100
AcDbLine
 62
7
  6
CONTINUOUS
 10
115.7792176542
 20
66.6839332691
 11
115.7792176542
 21
67.1435526769
  0
LINE
  5
3B8
100
AcDbEntity
  8
0
100
AcDbLine
 62
7
  6
CONTINUOUS
 10
117.9463775622
 20
73.8539960303
 11
117.9463775622
 21
69.3174011799
  0
LINE
  5
3B9
100
AcDbEntity
  8
0
100
AcDbLine
 62
7
  6
CONTINUOUS
 10
119.1943775622
 20
69.3174011799
 11
119.1943775622
 21
73.8539960303
  0
LINE
  5
3BA
100
AcDbEntity
  8
KONSTRUKTIONSELEMENTE
100
AcDbLine
 62
7
  6
CONTINUOUS
 10
119.4702839261
 20
123.1486756281
 11
119.4702839261
 21
132.5325113426
  0
LINE
  5
3BB
100
AcDbEntity
  8
KONSTRUKTIONSELEMENTE
100
AcDbLine
 62
7
  6
CONTINUOUS
 10
119.7202839261
 20
104.7986756281
 11
119.7202839261
 21
83.0873854082
  0
LINE
  5
3BC
100
AcDbEntity
  8
0
100
AcDbLine
 62
7
  6
CONTINUOUS
 10
100.1063206563
 20
143.4610164646
 11
100.2354875694
 21
144.0808136513
  0
LINE
  5
3BD
100
AcDbEntity
  8
0
100
AcDbLine
 62
7
  6
CONTINUOUS
 10
106.3063206563
 20
143.4610164646
 11
106.4354868303
 21
144.0808136513
  0
LINE
  5
3BE
100
AcDbEntity
  8
0
100
AcDbLine
 62
7
  6
CONTINUOUS
 10
99.4604875694
 20
144.0808136513
 11
99.3313206563
 21
143.584975902
  0
LINE
  5
3BF
100
AcDbEntity
  8
0
100
AcDbLine
 62
7
  6
CONTINUOUS
 10
99.4604875694
 20
143.9098035796
 11
99.3313206563
 21
143.4139658303
  0
LINE
  5
3C0
100
AcDbEntity
  8
0
100
AcDbLine
 62
7
  6
CONTINUOUS
 10
93.6479871998
 20
146.1881242594
 11
93.5188206563
 21
145.8162459475
  0
LINE
  5
3C1
100
AcDbEntity
  8
0
100
AcDbLine
 62
7
  6
CONTINUOUS
 10
93.6479871998
 20
146.0171141878
 11
93.5188206563
 21
145.6452358758
  0
LINE
  5
3C2
100
AcDbEntity
  8
0
100
AcDbLine
 62
7
  6
CONTINUOUS
 10
94.2938206563
 20
145.6922865101
 11
94.4229871998
 21
146.0641648221
  0
LINE
  5
3C3
100
AcDbEntity
  8
0
100
AcDbLine
 62
7
  6
CONTINUOUS
 10
142.9690792586
 20
143.0420875183
 11
142.8338256704
 21
143.290006393
  0
LINE
  5
3C4
100
AcDbEntity
  8
0
100
AcDbLine
 62
7
  6
CONTINUOUS
 10
142.9690792586
 20
143.21309759
 11
142.8338256704
 21
143.4610164646
  0
LINE
  5
3C5
100
AcDbEntity
  8
0
100
AcDbLine
 62
7
  6
CONTINUOUS
 10
146.0799241693
 20
144.4526921369
 11
146.3504328935
 21
143.9568542139
  0
LINE
  5
3C6
100
AcDbEntity
  8
0
100
AcDbLine
 62
7
  6
CONTINUOUS
 10
130.9314646365
 20
146.9318812307
 11
131.0667186117
 21
146.5600029187
  0
LINE
  5
3C7
100
AcDbEntity
  8
0
100
AcDbLine
 62
7
  6
CONTINUOUS
 10
131.8782432364
 20
146.388992847
 11
131.7429888743
 21
146.760871159
  0
LINE
  5
3C8
100
AcDbEntity
  8
0
100
AcDbLine
 62
7
  6
CONTINUOUS
 10
131.8782432364
 20
146.5600029187
 11
131.7429888743
 21
146.9318812307
  0
LINE
  5
3C9
100
AcDbEntity
  8
0
100
AcDbLine
 62
7
  6
CONTINUOUS
 10
137.4236612475
 20
146.8079217933
 11
137.5589156096
 21
146.4360431341
  0
LINE
  5
3CA
100
AcDbEntity
  8
0
100
AcDbLine
 62
7
  6
CONTINUOUS
 10
142.1575546338
 20
143.4610164646
 11
142.2928097698
 21
143.0891380658
  0
LINE
  5
3CB
100
AcDbEntity
  8
0
100
AcDbLine
 62
7
  6
CONTINUOUS
 10
134.0423091603
 20
143.4139658303
 11
133.9070547982
 21
143.9098035796
  0
LINE
  5
3CC
100
AcDbEntity
  8
0
100
AcDbLine
 62
7
  6
CONTINUOUS
 10
134.0423091603
 20
143.584975902
 11
133.9070547982
 21
144.0808136513
  0
LINE
  5
3CD
100
AcDbEntity
  8
0
100
AcDbLine
 62
7
  6
CONTINUOUS
 10
133.0955301735
 20
144.0808136513
 11
133.2307845356
 21
143.4610164646
  0
LINE
  5
3CE
100
AcDbEntity
  8
KONSTRUKTIONSELEMENTE
100
AcDbLine
 62
7
  6
CONTINUOUS
 10
120.7202839261
 20
104.7986756281
 11
120.7202839261
 21
103.8777499595
  0
LINE
  5
3CF
100
AcDbEntity
  8
0
100
AcDbLine
 62
7
  6
CONTINUOUS
 10
124.100753531
 20
73.8539960303
 11
124.100753531
 21
69.3174011799
  0
LINE
  5
3D0
100
AcDbEntity
  8
0
100
AcDbLine
 62
7
  6
CONTINUOUS
 10
124.6202839261
 20
99.6487452412
 11
124.6202839261
 21
119.6297422276
  0
LINE
  5
3D1
100
AcDbEntity
  8
KONSTRUKTIONSELEMENTE
100
AcDbLine
 62
7
  6
CONTINUOUS
 10
124.6202839261
 20
119.6297422276
 11
124.6202839261
 21
136.6032448933
  0
LINE
  5
3D2
100
AcDbEntity
  8
0
100
AcDbLine
 62
7
  6
CONTINUOUS
 10
124.9802839261
 20
147.9235567293
 11
124.9802839261
 21
142.0974624804
  0
LINE
  5
3D3
100
AcDbEntity
  8
0
100
AcDbLine
 62
7
  6
CONTINUOUS
 10
125.348753531
 20
69.3174011799
 11
125.348753531
 21
73.8539960303
  0
LINE
  5
3D4
100
AcDbEntity
  8
0
100
AcDbLine
 62
7
  6
CONTINUOUS
 10
125.7918085509
 20
142.0974624804
 11
125.7918085509
 21
147.9235567293
  0
LINE
  5
3D5
100
AcDbEntity
  8
0
100
AcDbLine
 62
7
  6
CONTINUOUS
 10
126.8738413193
 20
147.9235567293
 11
126.8738413193
 21
142.0974624804
  0
LINE
  5
3D6
100
AcDbEntity
  8
0
100
AcDbLine
 62
7
  6
CONTINUOUS
 10
127.6853659441
 20
142.0974624804
 11
127.6853659441
 21
144.7006110115
  0
LINE
  5
3D7
100
AcDbEntity
  8
0
100
AcDbLine
 62
7
  6
CONTINUOUS
 10
127.6853659441
 20
145.2733575638
 11
127.6853659441
 21
147.3037595426
  0
LINE
  5
3D8
100
AcDbEntity
  8
0
100
AcDbLine
 62
7
  6
CONTINUOUS
 10
128.078753531
 20
73.8539960303
 11
128.078753531
 21
72.9715267674
  0
LINE
  5
3D9
100
AcDbEntity
  8
0
100
AcDbLine
 62
7
  6
CONTINUOUS
 10
128.078753531
 20
72.1993661624
 11
128.078753531
 21
66.6839332691
  0
LINE
  5
3DA
100
AcDbEntity
  8
0
100
AcDbLine
 62
7
  6
CONTINUOUS
 10
129.326753531
 20
67.6031720846
 11
129.326753531
 21
72.1993661624
  0
LINE
  5
3DB
100
AcDbEntity
  8
0
100
AcDbLine
 62
7
  6
CONTINUOUS
 10
130.1199400118
 20
147.9235567293
 11
130.1199400118
 21
147.7525466576
  0
LINE
  5
3DC
100
AcDbEntity
  8
0
100
AcDbLine
 62
7
  6
CONTINUOUS
 10
130.2551939869
 20
145.4443676355
 11
130.2551939869
 21
145.2733575638
  0
LINE
  5
3DD
100
AcDbEntity
  8
0
100
AcDbLine
 62
7
  6
CONTINUOUS
 10
130.6609562993
 20
145.5683270728
 11
130.6609562993
 21
145.3973170011
  0
LINE
  5
3DE
100
AcDbEntity
  8
0
100
AcDbLine
 62
7
  6
CONTINUOUS
 10
130.7962102744
 20
147.799597292
 11
130.7962102744
 21
147.6285872203
  0
LINE
  5
3DF
100
AcDbEntity
  8
0
100
AcDbLine
 62
7
  6
CONTINUOUS
 10
130.7962102744
 20
144.9485298862
 11
130.7962102744
 21
144.7775198145
  0
LINE
  5
3E0
100
AcDbEntity
  8
0
100
AcDbLine
 62
7
  6
CONTINUOUS
 10
130.9314646365
 20
145.8162459475
 11
130.9314646365
 21
145.6452358758
  0
LINE
  5
3E1
100
AcDbEntity
  8
0
100
AcDbLine
 62
7
  6
CONTINUOUS
 10
131.0667186117
 20
146.5600029187
 11
131.0667186117
 21
146.0171141878
  0
LINE
  5
3E2
100
AcDbEntity
  8
0
100
AcDbLine
 62
7
  6
CONTINUOUS
 10
131.3372269489
 20
147.42771898
 11
131.3372269489
 21
147.2567089083
  0
LINE
  5
3E3
100
AcDbEntity
  8
0
100
AcDbLine
 62
7
  6
CONTINUOUS
 10
131.7429888743
 20
146.9318812307
 11
131.7429888743
 21
146.760871159
  0
LINE
  5
3E4
100
AcDbEntity
  8
0
100
AcDbLine
 62
7
  6
CONTINUOUS
 10
131.8782432364
 20
146.0641648221
 11
131.8782432364
 21
146.5600029187
  0
LINE
  5
3E5
100
AcDbEntity
  8
0
100
AcDbLine
 62
7
  6
CONTINUOUS
 10
133.0955301735
 20
145.9402053848
 11
133.0955301735
 21
144.0808136513
  0
LINE
  5
3E6
100
AcDbEntity
  8
0
100
AcDbLine
 62
7
  6
CONTINUOUS
 10
133.2202839261
 20
398.1673782132
 11
133.2202839261
 21
166.1673782132
  0
LINE
  5
3E7
100
AcDbEntity
  8
0
100
AcDbLine
 62
7
  6
CONTINUOUS
 10
133.2307845356
 20
146.5600029187
 11
133.2307845356
 21
146.388992847
  0
LINE
  5
3E8
100
AcDbEntity
  8
0
100
AcDbLine
 62
7
  6
CONTINUOUS
 10
133.5012924859
 20
147.055840668
 11
133.5012924859
 21
146.8848305963
  0
LINE
  5
3E9
100
AcDbEntity
  8
0
100
AcDbLine
 62
7
  6
CONTINUOUS
 10
133.9070547982
 20
143.9098035796
 11
133.9070547982
 21
145.9402053848
  0
LINE
  5
3EA
100
AcDbEntity
  8
0
100
AcDbLine
 62
7
  6
CONTINUOUS
 10
134.0423091603
 20
147.5516784173
 11
134.0423091603
 21
147.3806683456
  0
LINE
  5
3EB
100
AcDbEntity
  8
0
100
AcDbLine
 62
7
  6
CONTINUOUS
 10
134.0423091603
 20
143.584975902
 11
134.0423091603
 21
143.4139658303
  0
LINE
  5
3EC
100
AcDbEntity
  8
0
100
AcDbLine
 62
7
  6
CONTINUOUS
 10
105.6604868303
 20
144.0808136513
 11
105.5313206563
 21
143.584975902
  0
LINE
  5
3ED
100
AcDbEntity
  8
0
100
AcDbLine
 62
7
  6
CONTINUOUS
 10
105.6604868303
 20
143.9098035796
 11
105.5313206563
 21
143.4139658303
  0
LINE
  5
3EE
100
AcDbEntity
  8
0
100
AcDbLine
 62
7
  6
CONTINUOUS
 10
99.8479875694
 20
142.9651786285
 11
100.1063206563
 21
143.4610164646
  0
LINE
  5
3EF
100
AcDbEntity
  8
0
100
AcDbLine
 62
7
  6
CONTINUOUS
 10
147.0267023822
 20
143.7858441423
 11
146.8914487941
 21
144.2816820652
  0
LINE
  5
3F0
100
AcDbEntity
  8
0
100
AcDbLine
 62
7
  6
CONTINUOUS
 10
147.0267023822
 20
143.9568542139
 11
146.8914487941
 21
144.4526921369
  0
LINE
  5
3F1
100
AcDbEntity
  8
0
100
AcDbLine
 62
7
  6
CONTINUOUS
 10
146.8914487941
 20
146.388992847
 11
146.7561952059
 21
146.8848305963
  0
LINE
  5
3F2
100
AcDbEntity
  8
0
100
AcDbLine
 62
7
  6
CONTINUOUS
 10
146.8914487941
 20
146.5600029187
 11
146.7561952059
 21
147.055840668
  0
LINE
  5
3F3
100
AcDbEntity
  8
0
100
AcDbLine
 62
7
  6
CONTINUOUS
 10
138.3348183841
 20
146.4282696552
 11
138.2351866461
 21
146.8848305963
  0
LINE
  5
3F4
100
AcDbEntity
  8
0
100
AcDbLine
 62
7
  6
CONTINUOUS
 10
138.3704402343
 20
146.4360431341
 11
138.2351866461
 21
147.055840668
  0
LINE
  5
3F5
100
AcDbEntity
  8
0
100
AcDbLine
 62
7
  6
CONTINUOUS
 10
134.3128171106
 20
143.21309759
 11
134.3128171106
 21
143.0420875183
  0
LINE
  5
3F6
100
AcDbEntity
  8
0
100
AcDbLine
 62
7
  6
CONTINUOUS
 10
134.5833250609
 20
147.799597292
 11
134.5833250609
 21
147.6285872203
  0
LINE
  5
3F7
100
AcDbEntity
  8
0
100
AcDbLine
 62
7
  6
CONTINUOUS
 10
134.6991514097
 20
70.7469688338
 11
134.6991514097
 21
70.287349426
  0
LINE
  5
3F8
100
AcDbEntity
  8
0
100
AcDbLine
 62
7
  6
CONTINUOUS
 10
134.718579423
 20
142.9651786285
 11
134.718579423
 21
142.7941685568
  0
LINE
  5
3F9
100
AcDbEntity
  8
0
100
AcDbLine
 62
7
  6
CONTINUOUS
 10
135.2595960975
 20
147.9235567293
 11
135.2595960975
 21
147.7525466576
  0
LINE
  5
3FA
100
AcDbEntity
  8
0
100
AcDbLine
 62
7
  6
CONTINUOUS
 10
135.2595960975
 20
142.8412191912
 11
135.2595960975
 21
142.6702091195
  0
LINE
  5
3FB
100
AcDbEntity
  8
0
100
AcDbLine
 62
7
  6
CONTINUOUS
 10
136.3416286725
 20
145.3204081982
 11
136.3416286725
 21
144.5766515742
  0
LINE
  5
3FC
100
AcDbEntity
  8
0
100
AcDbLine
 62
7
  6
CONTINUOUS
 10
136.4768830346
 20
147.9235567293
 11
136.4768830346
 21
147.7525466576
  0
LINE
  5
3FD
100
AcDbEntity
  8
0
100
AcDbLine
 62
7
  6
CONTINUOUS
 10
136.4768830346
 20
142.8412191912
 11
136.4768830346
 21
142.6702091195
  0
LINE
  5
3FE
100
AcDbEntity
  8
0
100
AcDbLine
 62
7
  6
CONTINUOUS
 10
137.0178989351
 20
142.9651786285
 11
137.0178989351
 21
142.7941685568
  0
LINE
  5
3FF
100
AcDbEntity
  8
0
100
AcDbLine
 62
7
  6
CONTINUOUS
 10
137.1531532972
 20
147.799597292
 11
137.1531532972
 21
147.6285872203
  0
LINE
  5
400
100
AcDbEntity
  8
0
100
AcDbLine
 62
7
  6
CONTINUOUS
 10
137.4236612475
 20
143.21309759
 11
137.4236612475
 21
143.0420875183
  0
LINE
  5
401
100
AcDbEntity
  8
0
100
AcDbLine
 62
7
  6
CONTINUOUS
 10
137.5589156096
 20
144.5766515742
 11
137.5589156096
 21
143.4139658303
  0
LINE
  5
402
100
AcDbEntity
  8
0
100
AcDbLine
 62
7
  6
CONTINUOUS
 10
137.6941699717
 20
147.5516784173
 11
137.6941699717
 21
147.3806683456
  0
LINE
  5
403
100
AcDbEntity
  8
0
100
AcDbLine
 62
7
  6
CONTINUOUS
 10
138.2351866461
 20
147.055840668
 11
138.2351866461
 21
146.8848305963
  0
LINE
  5
404
100
AcDbEntity
  8
0
100
AcDbLine
 62
7
  6
CONTINUOUS
 10
138.3704402343
 20
143.4610164646
 11
138.3704402343
 21
145.3204081982
  0
LINE
  5
405
100
AcDbEntity
  8
KONSTRUKTIONSELEMENTE
100
AcDbLine
 62
7
  6
CONTINUOUS
 10
138.6604331793
 20
121.2068839955
 11
138.6604331793
 21
123.5561155474
  0
LINE
  5
406
100
AcDbEntity
  8
0
100
AcDbLine
 62
7
  6
CONTINUOUS
 10
139.4524735833
 20
147.055840668
 11
139.4524735833
 21
146.0641648221
  0
LINE
  5
407
100
AcDbEntity
  8
0
100
AcDbLine
 62
7
  6
CONTINUOUS
 10
140.263998208
 20
147.9235567293
 11
140.263998208
 21
147.7525466576
  0
LINE
  5
408
100
AcDbEntity
  8
0
100
AcDbLine
 62
7
  6
CONTINUOUS
 10
140.263998208
 20
146.9318812307
 11
140.263998208
 21
142.0974624804
  0
LINE
  5
409
100
AcDbEntity
  8
0
100
AcDbLine
 62
7
  6
CONTINUOUS
 10
141.0755228327
 20
142.0974624804
 11
141.0755228327
 21
147.9235567293
  0
LINE
  5
40A
100
AcDbEntity
  8
0
100
AcDbLine
 62
7
  6
CONTINUOUS
 10
142.428063358
 20
147.055840668
 11
142.428063358
 21
146.8848305963
  0
LINE
  5
40B
100
AcDbEntity
  8
0
100
AcDbLine
 62
7
  6
CONTINUOUS
 10
142.8338256704
 20
143.4610164646
 11
142.8338256704
 21
143.290006393
  0
LINE
  5
40C
100
AcDbEntity
  8
0
100
AcDbLine
 62
7
  6
CONTINUOUS
 10
142.9690792586
 20
147.5516784173
 11
142.9690792586
 21
147.3806683456
  0
LINE
  5
40D
100
AcDbEntity
  8
0
100
AcDbLine
 62
7
  6
CONTINUOUS
 10
142.9690792586
 20
143.21309759
 11
142.9690792586
 21
143.0420875183
  0
LINE
  5
40E
100
AcDbEntity
  8
0
100
AcDbLine
 62
7
  6
CONTINUOUS
 10
143.2395879828
 20
142.9651786285
 11
143.2395879828
 21
142.7941685568
  0
LINE
  5
40F
100
AcDbEntity
  8
0
100
AcDbLine
 62
7
  6
CONTINUOUS
 10
143.510096707
 20
147.799597292
 11
143.510096707
 21
147.6285872203
  0
LINE
  5
410
100
AcDbEntity
  8
0
100
AcDbLine
 62
7
  6
CONTINUOUS
 10
143.510096707
 20
142.8412191912
 11
143.510096707
 21
142.6702091195
  0
LINE
  5
411
100
AcDbEntity
  8
0
100
AcDbLine
 62
7
  6
CONTINUOUS
 10
144.1863661957
 20
142.7172597539
 11
144.1863661957
 21
142.5462496822
  0
LINE
  5
412
100
AcDbEntity
  8
0
100
AcDbLine
 62
7
  6
CONTINUOUS
 10
144.3216213317
 20
145.3204081982
 11
144.3216213317
 21
144.8245704489
  0
LINE
  5
413
100
AcDbEntity
  8
0
100
AcDbLine
 62
7
  6
CONTINUOUS
 10
144.4568749199
 20
147.9235567293
 11
144.4568749199
 21
147.7525466576
  0
LINE
  5
414
100
AcDbEntity
  8
0
100
AcDbLine
 62
7
  6
CONTINUOUS
 10
144.7273836441
 20
147.9235567293
 11
144.7273836441
 21
147.7525466576
  0
LINE
  5
415
100
AcDbEntity
  8
0
100
AcDbLine
 62
7
  6
CONTINUOUS
 10
144.8626372322
 20
145.3204081982
 11
144.8626372322
 21
145.1493981265
  0
LINE
  5
416
100
AcDbEntity
  8
0
100
AcDbLine
 62
7
  6
CONTINUOUS
 10
144.9978908204
 20
142.7172597539
 11
144.9978908204
 21
142.5462496822
  0
LINE
  5
417
100
AcDbEntity
  8
0
100
AcDbLine
 62
7
  6
CONTINUOUS
 10
145.674161857
 20
147.799597292
 11
145.674161857
 21
147.6285872203
  0
LINE
  5
418
100
AcDbEntity
  8
0
100
AcDbLine
 62
7
  6
CONTINUOUS
 10
145.674161857
 20
145.5683270728
 11
145.674161857
 21
145.3973170011
  0
LINE
  5
419
100
AcDbEntity
  8
0
100
AcDbLine
 62
7
  6
CONTINUOUS
 10
145.674161857
 20
142.8412191912
 11
145.674161857
 21
142.6702091195
  0
LINE
  5
41A
100
AcDbEntity
  8
0
100
AcDbLine
 62
7
  6
CONTINUOUS
 10
145.9446705812
 20
145.8162459475
 11
145.9446705812
 21
145.6452358758
  0
LINE
  5
41B
100
AcDbEntity
  8
0
100
AcDbLine
 62
7
  6
CONTINUOUS
 10
145.9446705812
 20
145.0724893235
 11
145.9446705812
 21
144.9014792518
  0
LINE
  5
41C
100
AcDbEntity
  8
0
100
AcDbLine
 62
7
  6
CONTINUOUS
 10
145.9446705812
 20
142.9651786285
 11
145.9446705812
 21
142.7941685568
  0
LINE
  5
41D
100
AcDbEntity
  8
0
100
AcDbLine
 62
7
  6
CONTINUOUS
 10
146.2151777575
 20
147.5516784173
 11
146.2151777575
 21
147.3806683456
  0
LINE
  5
41E
100
AcDbEntity
  8
0
100
AcDbLine
 62
7
  6
CONTINUOUS
 10
146.2151777575
 20
146.5600029187
 11
146.2151777575
 21
146.1410736251
  0
LINE
  5
41F
100
AcDbEntity
  8
0
100
AcDbLine
 62
7
  6
CONTINUOUS
 10
146.2151777575
 20
143.21309759
 11
146.2151777575
 21
143.0420875183
  0
LINE
  5
420
100
AcDbEntity
  8
0
100
AcDbLine
 62
7
  6
CONTINUOUS
 10
146.3504328935
 20
143.9568542139
 11
146.3504328935
 21
143.290006393
  0
LINE
  5
421
100
AcDbEntity
  8
0
100
AcDbLine
 62
7
  6
CONTINUOUS
 10
146.6209400699
 20
144.8245704489
 11
146.6209400699
 21
144.6535603772
  0
LINE
  5
422
100
AcDbEntity
  8
0
100
AcDbLine
 62
7
  6
CONTINUOUS
 10
146.7561952059
 20
147.055840668
 11
146.7561952059
 21
146.8848305963
  0
LINE
  5
423
100
AcDbEntity
  8
0
100
AcDbLine
 62
7
  6
CONTINUOUS
 10
146.8914487941
 20
144.4526921369
 11
146.8914487941
 21
144.2816820652
  0
LINE
  5
424
100
AcDbEntity
  8
0
100
AcDbLine
 62
7
  6
CONTINUOUS
 10
146.8914487941
 20
146.3120836968
 11
146.8914487941
 21
146.5600029187
  0
LINE
  5
425
100
AcDbEntity
  8
0
100
AcDbLine
 62
7
  6
CONTINUOUS
 10
147.0267023822
 20
143.4610164646
 11
147.0267023822
 21
143.9568542139
  0
LINE
  5
426
100
AcDbEntity
  8
0
100
AcDbLine
 62
7
  6
CONTINUOUS
 10
148.2202839261
 20
94.3088797296
 11
148.2202839261
 21
93.419627357
  0
LINE
  5
427
100
AcDbEntity
  8
0
100
AcDbLine
 62
7
  6
CONTINUOUS
 10
133.2307845356
 20
146.5600029187
 11
133.0955301735
 21
145.9402053848
  0
LINE
  5
428
100
AcDbEntity
  8
0
100
AcDbLine
 62
7
  6
CONTINUOUS
 10
133.2307845356
 20
146.388992847
 11
133.0955301735
 21
145.7691953131
  0
LINE
  5
429
100
AcDbEntity
  8
0
100
AcDbLine
 62
7
  6
CONTINUOUS
 10
106.0479868303
 20
142.9651786285
 11
106.3063206563
 21
143.4610164646
  0
LINE
  5
42A
100
AcDbEntity
  8
0
100
AcDbLine
 62
7
  6
CONTINUOUS
 10
99.3313206563
 20
143.584975902
 11
99.0729875694
 21
143.21309759
  0
LINE
  5
42B
100
AcDbEntity
  8
0
100
AcDbLine
 62
7
  6
CONTINUOUS
 10
99.3313206563
 20
143.4139658303
 11
99.0729875694
 21
143.0420875183
  0
LINE
  5
42C
100
AcDbEntity
  8
0
100
AcDbLine
 62
7
  6
CONTINUOUS
 10
105.5313206563
 20
143.584975902
 11
105.2729868303
 21
143.21309759
  0
LINE
  5
42D
100
AcDbEntity
  8
0
100
AcDbLine
 62
7
  6
CONTINUOUS
 10
105.5313206563
 20
143.4139658303
 11
105.2729868303
 21
143.0420875183
  0
LINE
  5
42E
100
AcDbEntity
  8
0
100
AcDbLine
 62
7
  6
CONTINUOUS
 10
93.9063206563
 20
145.1964487608
 11
94.2938206563
 21
145.6922865101
  0
LINE
  5
42F
100
AcDbEntity
  8
0
100
AcDbLine
 62
7
  6
CONTINUOUS
 10
93.5188206563
 20
145.8162459475
 11
93.2604871998
 21
145.5683270728
  0
LINE
  5
430
100
AcDbEntity
  8
0
100
AcDbLine
 62
7
  6
CONTINUOUS
 10
93.5188206563
 20
145.6452358758
 11
93.2604871998
 21
145.3973170011
  0
LINE
  5
431
100
AcDbEntity
  8
RUNDUNGEN
100
AcDbLine
 62
7
  6
CONTINUOUS
 10
151.2202839261
 20
9.1254412805
 11
151.2202839261
 21
3.1150336404
  0
LINE
  5
432
100
AcDbEntity
  8
0
100
AcDbLine
 62
7
  6
CONTINUOUS
 10
154.2202839261
 20
106.4806114608
 11
154.2202839261
 21
99.5719017312
  0
LINE
  5
433
100
AcDbEntity
  8
RUNDUNGEN
100
AcDbLine
 62
7
  6
CONTINUOUS
 10
154.2202839261
 20
106.4806114608
 11
154.2202839261
 21
145.9342772812
  0
LINE
  5
434
100
AcDbEntity
  8
0
100
AcDbLine
 62
7
  6
CONTINUOUS
 10
155.5937141349
 20
130.6798574317
 11
155.5937141349
 21
148.81339436
  0
LINE
  5
435
100
AcDbEntity
  8
RUNDUNGEN
100
AcDbLine
 62
7
  6
CONTINUOUS
 10
161.2202839261
 20
7.004120937
 11
161.2202839261
 21
19.1014503092
  0
LINE
  5
436
100
AcDbEntity
  8
0
100
AcDbLine
 62
7
  6
CONTINUOUS
 10
161.5301044477
 20
166.9604558543
 11
161.5301044477
 21
169.2394853165
  0
LINE
  5
437
100
AcDbEntity
  8
0
100
AcDbLine
 62
7
  6
CONTINUOUS
 10
133.9070547982
 20
145.9402053848
 11
134.0423091603
 21
146.4360431341
  0
LINE
  5
438
100
AcDbEntity
  8
0
100
AcDbLine
 62
7
  6
CONTINUOUS
 10
138.2351866461
 20
142.9651786285
 11
138.3704402343
 21
143.4610164646
  0
LINE
  5
439
100
AcDbEntity
  8
0
100
AcDbLine
 62
7
  6
CONTINUOUS
 10
142.428063358
 20
147.055840668
 11
142.2928097698
 21
146.5600029187
  0
LINE
  5
43A
100
AcDbEntity
  8
0
100
AcDbLine
 62
7
  6
CONTINUOUS
 10
142.428063358
 20
146.8848305963
 11
142.3394575409
 21
146.5600029187
  0
LINE
  5
43B
100
AcDbEntity
  8
0
100
AcDbLine
 62
7
  6
CONTINUOUS
 10
146.7561952059
 20
145.8162459475
 11
146.8914487941
 21
146.3120836968
  0
LINE
  5
43C
100
AcDbEntity
  8
0
100
AcDbLine
 62
7
  6
CONTINUOUS
 10
131.0667186117
 20
146.1881242594
 11
130.9314646365
 21
145.8162459475
  0
LINE
  5
43D
100
AcDbEntity
  8
0
100
AcDbLine
 62
7
  6
CONTINUOUS
 10
131.0667186117
 20
146.0171141878
 11
130.9314646365
 21
145.6452358758
  0
LINE
  5
43E
100
AcDbEntity
  8
0
100
AcDbLine
 62
7
  6
CONTINUOUS
 10
131.7429888743
 20
145.6922865101
 11
131.8782432364
 21
146.0641648221
  0
LINE
  5
43F
100
AcDbEntity
  8
0
100
AcDbLine
 62
7
  6
CONTINUOUS
 10
137.5589156096
 20
143.584975902
 11
137.4236612475
 21
143.21309759
  0
LINE
  5
440
100
AcDbEntity
  8
0
100
AcDbLine
 62
7
  6
CONTINUOUS
 10
137.5589156096
 20
143.4139658303
 11
137.4236612475
 21
143.0420875183
  0
LINE
  5
441
100
AcDbEntity
  8
0
100
AcDbLine
 62
7
  6
CONTINUOUS
 10
133.5012924859
 20
147.055840668
 11
133.2307845356
 21
146.5600029187
  0
LINE
  5
442
100
AcDbEntity
  8
0
100
AcDbLine
 62
7
  6
CONTINUOUS
 10
133.5012924859
 20
146.8848305963
 11
133.2307845356
 21
146.388992847
  0
LINE
  5
443
100
AcDbEntity
  8
0
100
AcDbLine
 62
7
  6
CONTINUOUS
 10
99.3313206563
 20
142.4693408358
 11
99.8479875694
 21
142.9651786285
  0
LINE
  5
444
100
AcDbEntity
  8
0
100
AcDbLine
 62
7
  6
CONTINUOUS
 10
105.5313206563
 20
142.4693408358
 11
106.0479868303
 21
142.9651786285
  0
LINE
  5
445
100
AcDbEntity
  8
RUNDUNGEN
100
AcDbLine
 62
7
  6
CONTINUOUS
 10
174.7327801163
 20
87.8093493873
 11
174.7327801163
 21
91.3448832932
  0
LINE
  5
446
100
AcDbEntity
  8
0
100
AcDbLine
 62
7
  6
CONTINUOUS
 10
155.5937141349
 20
132.9029883633
 11
154.2202839261
 21
125.5836193865
  0
LINE
  5
447
100
AcDbEntity
  8
0
100
AcDbLine
 62
7
  6
CONTINUOUS
 10
155.5937141349
 20
130.6798574317
 11
154.2202839261
 21
123.3604884549
  0
LINE
  5
448
100
AcDbEntity
  8
0
100
AcDbLine
 62
7
  6
CONTINUOUS
 10
159.5310610359
 20
159.7519890458
 11
155.5937141349
 21
145.7489354383
  0
LINE
  5
449
100
AcDbEntity
  8
0
100
AcDbLine
 62
7
  6
CONTINUOUS
 10
159.5310610359
 20
162.4267391808
 11
155.5937141349
 21
148.81339436
  0
LINE
  5
44A
100
AcDbEntity
  8
0
100
AcDbLine
 62
7
  6
CONTINUOUS
 10
146.8914487941
 20
143.0891380658
 11
147.0267023822
 21
143.4610164646
  0
LINE
  5
44B
100
AcDbEntity
  8
0
100
AcDbLine
 62
7
  6
CONTINUOUS
 10
146.2151777575
 20
146.3120836968
 11
145.9446705812
 21
145.8162459475
  0
LINE
  5
44C
100
AcDbEntity
  8
0
100
AcDbLine
 62
7
  6
CONTINUOUS
 10
146.2151777575
 20
146.1410736251
 11
145.9446705812
 21
145.6452358758
  0
LINE
  5
44D
100
AcDbEntity
  8
0
100
AcDbLine
 62
7
  6
CONTINUOUS
 10
146.3504328935
 20
143.4610164646
 11
146.2151777575
 21
143.21309759
  0
LINE
  5
44E
100
AcDbEntity
  8
0
100
AcDbLine
 62
7
  6
CONTINUOUS
 10
146.3504328935
 20
143.290006393
 11
146.2151777575
 21
143.0420875183
  0
LINE
  5
44F
100
AcDbEntity
  8
0
100
AcDbLine
 62
7
  6
CONTINUOUS
 10
134.0423091603
 20
146.4360431341
 11
134.3128171106
 21
146.8079217933
  0
LINE
  5
450
100
AcDbEntity
  8
0
100
AcDbLine
 62
7
  6
CONTINUOUS
 10
142.9690792586
 20
146.5600029187
 11
143.2395879828
 21
146.9318812307
  0
LINE
  5
451
100
AcDbEntity
  8
0
100
AcDbLine
 62
7
  6
CONTINUOUS
 10
131.3372269489
 20
145.1964487608
 11
131.7429888743
 21
145.6922865101
  0
LINE
  5
452
100
AcDbEntity
  8
0
100
AcDbLine
 62
7
  6
CONTINUOUS
 10
140.263998208
 20
147.9235567293
 11
139.4524735833
 21
147.055840668
  0
LINE
  5
453
100
AcDbEntity
  8
0
100
AcDbLine
 62
7
  6
CONTINUOUS
 10
140.263998208
 20
147.7525466576
 11
139.4524735833
 21
146.8848305963
  0
LINE
  5
454
100
AcDbEntity
  8
0
100
AcDbLine
 62
7
  6
CONTINUOUS
 10
139.4524735833
 20
146.0641648221
 11
140.263998208
 21
146.9318812307
  0
LINE
  5
455
100
AcDbEntity
  8
0
100
AcDbLine
 62
7
  6
CONTINUOUS
 10
130.9314646365
 20
145.8162459475
 11
130.6609562993
 21
145.5683270728
  0
LINE
  5
456
100
AcDbEntity
  8
0
100
AcDbLine
 62
7
  6
CONTINUOUS
 10
130.9314646365
 20
145.6452358758
 11
130.6609562993
 21
145.3973170011
  0
LINE
  5
457
100
AcDbEntity
  8
0
100
AcDbLine
 62
7
  6
CONTINUOUS
 10
134.0423091603
 20
147.5516784173
 11
133.5012924859
 21
147.055840668
  0
LINE
  5
458
100
AcDbEntity
  8
0
100
AcDbLine
 62
7
  6
CONTINUOUS
 10
134.0423091603
 20
147.3806683456
 11
133.5012924859
 21
146.8848305963
  0
LINE
  5
459
100
AcDbEntity
  8
0
100
AcDbLine
 62
7
  6
CONTINUOUS
 10
99.0729875694
 20
143.21309759
 11
98.6854875694
 21
142.9651786285
  0
LINE
  5
45A
100
AcDbEntity
  8
0
100
AcDbLine
 62
7
  6
CONTINUOUS
 10
99.0729875694
 20
143.0420875183
 11
98.6854875694
 21
142.7941685568
  0
LINE
  5
45B
100
AcDbEntity
  8
0
100
AcDbLine
 62
7
  6
CONTINUOUS
 10
105.2729868303
 20
143.21309759
 11
104.8854868303
 21
142.9651786285
  0
LINE
  5
45C
100
AcDbEntity
  8
0
100
AcDbLine
 62
7
  6
CONTINUOUS
 10
105.2729868303
 20
143.0420875183
 11
104.8854868303
 21
142.7941685568
  0
LINE
  5
45D
100
AcDbEntity
  8
0
100
AcDbLine
 62
7
  6
CONTINUOUS
 10
93.3896541129
 20
144.9485298862
 11
93.9063206563
 21
145.1964487608
  0
LINE
  5
45E
100
AcDbEntity
  8
0
100
AcDbLine
 62
7
  6
CONTINUOUS
 10
98.8146537433
 20
142.2214219286
 11
99.3313206563
 21
142.4693408358
  0
LINE
  5
45F
100
AcDbEntity
  8
0
100
AcDbLine
 62
7
  6
CONTINUOUS
 10
105.0146544824
 20
142.2214219286
 11
105.5313206563
 21
142.4693408358
  0
LINE
  5
460
100
AcDbEntity
  8
0
100
AcDbLine
 62
7
  6
CONTINUOUS
 10
93.2604871998
 20
145.5683270728
 11
92.8729871998
 21
145.4443676355
  0
LINE
  5
461
100
AcDbEntity
  8
0
100
AcDbLine
 62
7
  6
CONTINUOUS
 10
93.2604871998
 20
145.3973170011
 11
92.8729871998
 21
145.2733575638
  0
LINE
  5
462
100
AcDbEntity
  8
0
100
AcDbLine
 62
7
  6
CONTINUOUS
 10
146.4856864817
 20
145.4443676355
 11
146.7561952059
 21
145.8162459475
  0
LINE
  5
463
100
AcDbEntity
  8
0
100
AcDbLine
 62
7
  6
CONTINUOUS
 10
146.6209400699
 20
142.7172597539
 11
146.8914487941
 21
143.0891380658
  0
LINE
  5
464
100
AcDbEntity
  8
0
100
AcDbLine
 62
7
  6
CONTINUOUS
 10
142.9690792586
 20
147.5516784173
 11
142.428063358
 21
147.055840668
  0
LINE
  5
465
100
AcDbEntity
  8
0
100
AcDbLine
 62
7
  6
CONTINUOUS
 10
142.9690792586
 20
147.3806683456
 11
142.428063358
 21
146.8848305963
  0
LINE
  5
466
100
AcDbEntity
  8
0
100
AcDbLine
 62
7
  6
CONTINUOUS
 10
137.6941699717
 20
142.4693408358
 11
138.2351866461
 21
142.9651786285
  0
LINE
  5
467
100
AcDbEntity
  8
0
100
AcDbLine
 62
7
  6
CONTINUOUS
 10
145.9446705812
 20
145.8162459475
 11
145.674161857
 21
145.5683270728
  0
LINE
  5
468
100
AcDbEntity
  8
0
100
AcDbLine
 62
7
  6
CONTINUOUS
 10
145.9446705812
 20
145.6452358758
 11
145.674161857
 21
145.3973170011
  0
LINE
  5
469
100
AcDbEntity
  8
0
100
AcDbLine
 62
7
  6
CONTINUOUS
 10
146.2151777575
 20
143.21309759
 11
145.9446705812
 21
142.9651786285
  0
LINE
  5
46A
100
AcDbEntity
  8
0
100
AcDbLine
 62
7
  6
CONTINUOUS
 10
146.2151777575
 20
143.0420875183
 11
145.9446705812
 21
142.7941685568
  0
LINE
  5
46B
100
AcDbEntity
  8
0
100
AcDbLine
 62
7
  6
CONTINUOUS
 10
145.9446705812
 20
145.0724893235
 11
146.4856864817
 21
145.4443676355
  0
LINE
  5
46C
100
AcDbEntity
  8
0
100
AcDbLine
 62
7
  6
CONTINUOUS
 10
134.3128171106
 20
146.8079217933
 11
134.718579423
 21
147.055840668
  0
LINE
  5
46D
100
AcDbEntity
  8
0
100
AcDbLine
 62
7
  6
CONTINUOUS
 10
143.2395879828
 20
146.9318812307
 11
143.6453502951
 21
147.1798001053
  0
LINE
  5
46E
100
AcDbEntity
  8
0
100
AcDbLine
 62
7
  6
CONTINUOUS
 10
137.4236612475
 20
143.21309759
 11
137.0178989351
 21
142.9651786285
  0
LINE
  5
46F
100
AcDbEntity
  8
0
100
AcDbLine
 62
7
  6
CONTINUOUS
 10
137.4236612475
 20
143.0420875183
 11
137.0178989351
 21
142.7941685568
  0
LINE
  5
470
100
AcDbEntity
  8
0
100
AcDbLine
 62
7
  6
CONTINUOUS
 10
146.2151777575
 20
142.4693408358
 11
146.6209400699
 21
142.7172597539
  0
LINE
  5
471
100
AcDbEntity
  8
0
100
AcDbLine
 62
7
  6
CONTINUOUS
 10
134.5833250609
 20
147.799597292
 11
134.0423091603
 21
147.5516784173
  0
LINE
  5
472
100
AcDbEntity
  8
0
100
AcDbLine
 62
7
  6
CONTINUOUS
 10
134.5833250609
 20
147.6285872203
 11
134.0423091603
 21
147.3806683456
  0
LINE
  5
473
100
AcDbEntity
  8
0
100
AcDbLine
 62
7
  6
CONTINUOUS
 10
130.7962102744
 20
144.9485298862
 11
131.3372269489
 21
145.1964487608
  0
LINE
  5
474
100
AcDbEntity
  8
0
100
AcDbLine
 62
7
  6
CONTINUOUS
 10
143.510096707
 20
147.799597292
 11
142.9690792586
 21
147.5516784173
  0
LINE
  5
475
100
AcDbEntity
  8
0
100
AcDbLine
 62
7
  6
CONTINUOUS
 10
143.510096707
 20
147.6285872203
 11
142.9690792586
 21
147.3806683456
  0
LINE
  5
476
100
AcDbEntity
  8
0
100
AcDbLine
 62
7
  6
CONTINUOUS
 10
137.1531532972
 20
142.2214219286
 11
137.6941699717
 21
142.4693408358
  0
LINE
  5
477
100
AcDbEntity
  8
0
100
AcDbLine
 62
7
  6
CONTINUOUS
 10
145.9446705812
 20
142.9651786285
 11
145.674161857
 21
142.8412191912
  0
LINE
  5
478
100
AcDbEntity
  8
0
100
AcDbLine
 62
7
  6
CONTINUOUS
 10
145.9446705812
 20
142.7941685568
 11
145.674161857
 21
142.6702091195
  0
LINE
  5
479
100
AcDbEntity
  8
0
100
AcDbLine
 62
7
  6
CONTINUOUS
 10
145.674161857
 20
142.2214219286
 11
146.2151777575
 21
142.4693408358
  0
LINE
  5
47A
100
AcDbEntity
  8
0
100
AcDbLine
 62
7
  6
CONTINUOUS
 10
130.6609562993
 20
145.5683270728
 11
130.2551939869
 21
145.4443676355
  0
LINE
  5
47B
100
AcDbEntity
  8
0
100
AcDbLine
 62
7
  6
CONTINUOUS
 10
130.6609562993
 20
145.3973170011
 11
130.2551939869
 21
145.2733575638
  0
LINE
  5
47C
100
AcDbEntity
  8
0
100
AcDbLine
 62
7
  6
CONTINUOUS
 10
145.674161857
 20
145.5683270728
 11
144.8626372322
 21
145.3204081982
  0
LINE
  5
47D
100
AcDbEntity
  8
0
100
AcDbLine
 62
7
  6
CONTINUOUS
 10
145.674161857
 20
145.3973170011
 11
144.8626372322
 21
145.1493981265
  0
LINE
  5
47E
100
AcDbEntity
  8
RUNDUNGEN
100
AcDbLine
 62
7
  6
CONTINUOUS
 10
65.4755471289
 20
94.9368179499
 11
63.8372430403
 21
94.1256583746
  0
LINE
  5
47F
100
AcDbEntity
  8
RUNDUNGEN
100
AcDbLine
 62
7
  6
CONTINUOUS
 10
65.4755471289
 20
91.401284044
 11
63.8372430403
 21
90.5901244686
  0
LINE
  5
480
100
AcDbEntity
  8
RUNDUNGEN
100
AcDbLine
 62
7
  6
CONTINUOUS
 10
93.3177633828
 20
40.734652517
 11
74.3053716604
 21
21.5349290352
  0
LINE
  5
481
100
AcDbEntity
  8
RUNDUNGEN
100
AcDbLine
 62
7
  6
CONTINUOUS
 10
72.8912532046
 20
82.9879076885
 11
68.5497473699
 21
80.8383348138
  0
LINE
  5
482
100
AcDbEntity
  8
RUNDUNGEN
100
AcDbLine
 62
7
  6
CONTINUOUS
 10
105.7487551991
 20
92.4836869246
 11
100.0146908891
 21
89.6446284109
  0
LINE
  5
483
100
AcDbEntity
  8
RUNDUNGEN
100
AcDbLine
 62
7
  6
CONTINUOUS
 10
75.6620951806
 20
77.1914419495
 11
80.0036010154
 21
79.3410148242
  0
LINE
  5
484
100
AcDbEntity
  8
0
100
AcDbLine
 62
7
  6
CONTINUOUS
 10
91.1776112997
 20
92.3222083275
 11
91.1771533006
 21
92.3220331507
  0
LINE
  5
485
100
AcDbEntity
  8
RUNDUNGEN
100
AcDbLine
 62
7
  6
CONTINUOUS
 10
93.3177633828
 20
37.1991186111
 11
74.3053716604
 21
17.9993951293
  0
LINE
  5
486
100
AcDbEntity
  8
RUNDUNGEN
100
AcDbLine
 62
7
  6
CONTINUOUS
 10
153.9227156493
 20
85.1706323646
 11
164.2135988557
 21
95.562913085
  0
LINE
  5
487
100
AcDbEntity
  8
RUNDUNGEN
100
AcDbLine
 62
7
  6
CONTINUOUS
 10
153.9227156493
 20
81.6350984586
 11
164.2135988557
 21
92.0273791791
  0
LINE
  5
488
100
AcDbEntity
  8
RUNDUNGEN
100
AcDbLine
 62
7
  6
CONTINUOUS
 10
105.7487551991
 20
88.9481530187
 11
100.0146908891
 21
86.109094505
  0
LINE
  5
489
100
AcDbEntity
  8
RUNDUNGEN
100
AcDbLine
 62
7
  6
CONTINUOUS
 10
75.6620951806
 20
73.6559080436
 11
80.0036010154
 21
75.8054809183
  0
LINE
  5
48A
100
AcDbEntity
  8
RUNDUNGEN
100
AcDbLine
 62
7
  6
CONTINUOUS
 10
103.4001880022
 20
15.3280074255
 11
110.6670675718
 21
22.6664885776
  0
LINE
  5
48B
100
AcDbEntity
  8
RUNDUNGEN
100
AcDbLine
 62
7
  6
CONTINUOUS
 10
141.1228044695
 20
53.422310118
 11
174.3710842049
 21
86.9981898119
  0
ARC
  5
48C
100
AcDbEntity
  8
KONSTRUKTIONSELEMENTE
100
AcDbCircle
 62
7
  6
CONTINUOUS
 10
345.2630179964
 20
98.5390937616
 40
9.55
100
AcDbArc
 50
58.6297070454
 51
135.0
  0
ARC
  5
48D
100
AcDbEntity
  8
KONSTRUKTIONSELEMENTE
100
AcDbCircle
 62
7
  6
CONTINUOUS
 10
345.2630179964
 20
98.5390937616
 40
9.55
100
AcDbArc
 50
315.0
 51
31.3702929546
  0
ARC
  5
48E
100
AcDbEntity
  8
KONSTRUKTIONSELEMENTE
100
AcDbCircle
 62
7
  6
CONTINUOUS
 10
336.8484473003
 20
90.1245230654
 40
9.55
100
AcDbArc
 50
240.1951355235
 51
315.0
  0
ARC
  5
48F
100
AcDbEntity
  8
KONSTRUKTIONSELEMENTE
100
AcDbCircle
 62
7
  6
CONTINUOUS
 10
336.8484473003
 20
90.1245230654
 40
9.55
100
AcDbArc
 50
135.0
 51
209.8048644765
  0
ARC
  5
490
100
AcDbEntity
  8
KONSTRUKTIONSELEMENTE
100
AcDbCircle
 62
7
  6
CONTINUOUS
 10
345.2630179964
 20
98.5390937616
 40
4.55
100
AcDbArc
 50
74.6522021471
 51
135.0
  0
ARC
  5
491
100
AcDbEntity
  8
KONSTRUKTIONSELEMENTE
100
AcDbCircle
 62
7
  6
CONTINUOUS
 10
345.2630179964
 20
98.5390937616
 40
4.55
100
AcDbArc
 50
315.0
 51
15.3477978529
  0
ARC
  5
492
100
AcDbEntity
  8
KONSTRUKTIONSELEMENTE
100
AcDbCircle
 62
7
  6
CONTINUOUS
 10
336.8484473003
 20
90.1245230654
 40
4.55
100
AcDbArc
 50
258.3583327703
 51
315.0
  0
ARC
  5
493
100
AcDbEntity
  8
KONSTRUKTIONSELEMENTE
100
AcDbCircle
 62
7
  6
CONTINUOUS
 10
336.8484473003
 20
90.1245230654
 40
4.55
100
AcDbArc
 50
135.0
 51
191.6416672297
  0
ARC
  5
494
100
AcDbEntity
  8
KONSTRUKTIONSELEMENTE
100
AcDbCircle
 62
7
  6
CONTINUOUS
 10
346.5358102026
 20
99.8118859677
 40
2.25
100
AcDbArc
 50
135.0
 51
315.0
  0
ARC
  5
495
100
AcDbEntity
  8
KONSTRUKTIONSELEMENTE
100
AcDbCircle
 62
7
  6
CONTINUOUS
 10
366.1580233805
 20
119.4340991456
 40
8.0
100
AcDbArc
 50
135.0
 51
208.6357041722
  0
ARC
  5
496
100
AcDbEntity
  8
KONSTRUKTIONSELEMENTE
100
AcDbCircle
 62
7
  6
CONTINUOUS
 10
366.1580233805
 20
119.4340991456
 40
8.0
100
AcDbArc
 50
241.3642958278
 51
315.0
  0
ARC
  5
497
100
AcDbEntity
  8
KONSTRUKTIONSELEMENTE
100
AcDbCircle
 62
7
  6
CONTINUOUS
 10
376.7646250983
 20
130.0407008634
 40
8.0
100
AcDbArc
 50
315.0
 51
28.6357041722
  0
ARC
  5
498
100
AcDbEntity
  8
KONSTRUKTIONSELEMENTE
100
AcDbCircle
 62
7
  6
CONTINUOUS
 10
376.7646250983
 20
130.0407008634
 40
8.0
100
AcDbArc
 50
61.3642958278
 51
135.0
  0
ARC
  5
499
100
AcDbEntity
  8
KONSTRUKTIONSELEMENTE
100
AcDbCircle
 62
7
  6
CONTINUOUS
 10
366.1580233805
 20
119.4340991456
 40
3.5
100
AcDbArc
 50
135.0
 51
184.8461224921
  0
ARC
  5
49A
100
AcDbEntity
  8
KONSTRUKTIONSELEMENTE
100
AcDbCircle
 62
7
  6
CONTINUOUS
 10
366.1580233805
 20
119.4340991456
 40
3.5
100
AcDbArc
 50
265.1538775079
 51
315.0
  0
ARC
  5
49B
100
AcDbEntity
  8
KONSTRUKTIONSELEMENTE
100
AcDbCircle
 62
7
  6
CONTINUOUS
 10
376.7646250983
 20
130.0407008634
 40
3.5
100
AcDbArc
 50
315.0
 51
4.8461224921
  0
ARC
  5
49C
100
AcDbEntity
  8
KONSTRUKTIONSELEMENTE
100
AcDbCircle
 62
7
  6
CONTINUOUS
 10
376.7646250983
 20
130.0407008634
 40
3.5
100
AcDbArc
 50
85.1538775079
 51
135.0
  0
ARC
  5
49D
100
AcDbEntity
  8
KONSTRUKTIONSELEMENTE
100
AcDbCircle
 62
7
  6
CONTINUOUS
 10
365.274139904
 20
118.5502156691
 40
2.25
100
AcDbArc
 50
315.0
 51
135.0
  0
ARC
  5
49E
100
AcDbEntity
  8
KONSTRUKTIONSELEMENTE
100
AcDbCircle
 62
7
  6
CONTINUOUS
 10
377.6485085748
 20
130.9245843399
 40
2.25
100
AcDbArc
 50
135.0
 51
315.0
  0
ARC
  5
49F
100
AcDbEntity
  8
0
100
AcDbCircle
 62
7
  6
CONTINUOUS
 10
365.8910639594
 20
189.8168175413
 40
98.6761507302
100
AcDbArc
 50
342.2609779608
 51
346.6069414076
  0
ARC
  5
4A0
100
AcDbEntity
  8
KONSTRUKTIONSELEMENTE
100
AcDbCircle
 62
7
  6
CONTINUOUS
 10
398.013183873
 20
151.2892596381
 40
9.55
100
AcDbArc
 50
238.6297070454
 51
315.0
  0
ARC
  5
4A1
100
AcDbEntity
  8
KONSTRUKTIONSELEMENTE
100
AcDbCircle
 62
7
  6
CONTINUOUS
 10
398.013183873
 20
151.2892596381
 40
9.55
100
AcDbArc
 50
135.0
 51
211.3702929546
  0
ARC
  5
4A2
100
AcDbEntity
  8
KONSTRUKTIONSELEMENTE
100
AcDbCircle
 62
7
  6
CONTINUOUS
 10
398.013183873
 20
151.2892596381
 40
4.55
100
AcDbArc
 50
254.6522021471
 51
315.0
  0
ARC
  5
4A3
100
AcDbEntity
  8
KONSTRUKTIONSELEMENTE
100
AcDbCircle
 62
7
  6
CONTINUOUS
 10
398.013183873
 20
151.2892596381
 40
4.55
100
AcDbArc
 50
135.0
 51
195.3477978529
  0
ARC
  5
4A4
100
AcDbEntity
  8
KONSTRUKTIONSELEMENTE
100
AcDbCircle
 62
7
  6
CONTINUOUS
 10
396.3868382762
 20
149.6629140413
 40
2.25
100
AcDbArc
 50
315.0
 51
135.0
  0
ARC
  5
4A5
100
AcDbEntity
  8
0
100
AcDbCircle
 62
7
  6
CONTINUOUS
 10
423.9342291788
 20
125.0456530914
 40
98.6761507301
100
AcDbArc
 50
22.2609779608
 51
26.6069414076
  0
ARC
  5
4A6
100
AcDbEntity
  8
0
100
AcDbCircle
 62
7
  6
CONTINUOUS
 10
439.1795976064
 20
110.5220330553
 40
18.2
100
AcDbArc
 50
250.0
 51
340.0
  0
ARC
  5
4A7
100
AcDbEntity
  8
RUNDUNGEN
100
AcDbCircle
 62
7
  6
CONTINUOUS
 10
436.7363967924
 20
111.4112854279
 40
18.2
100
AcDbArc
 50
160.0
 51
250.0
  0
ARC
  5
4A8
100
AcDbEntity
  8
0
100
AcDbCircle
 62
7
  6
CONTINUOUS
 10
439.1683387208
 20
110.4901364272
 40
18.1661762112
100
AcDbArc
 50
249.9989610864
 51
253.3240615168
  0
ARC
  5
4A9
100
AcDbEntity
  8
0
100
AcDbCircle
 62
7
  6
CONTINUOUS
 10
439.1421546043
 20
110.4044778872
 40
18.0766064635
100
AcDbArc
 50
253.3256541448
 51
254.0265161695
  0
ARC
  5
4AA
100
AcDbEntity
  8
0
100
AcDbCircle
 62
7
  6
CONTINUOUS
 10
439.1017200241
 20
110.2593400169
 40
17.9259452291
100
AcDbArc
 50
254.0231042362
 51
256.9058832781
  0
ARC
  5
4AB
100
AcDbEntity
  8
0
100
AcDbCircle
 62
7
  6
CONTINUOUS
 10
439.0585219252
 20
110.078935231
 40
17.7404445611
100
AcDbArc
 50
256.9097717271
 51
257.3787475807
  0
CIRCLE
  5
4AC
100
AcDbEntity
  8
BEZUGSACHSEN
100
AcDbCircle
 62
7
  6
CONTINUOUS
 10
439.0524616581
 20
113.9736756281
 40
9.25
  0
ARC
  5
4AD
100
AcDbEntity
  8
0
100
AcDbCircle
 62
7
  6
CONTINUOUS
 10
457.8908693684
 20
142.3413402295
 40
6.0
100
AcDbArc
 50
340.0
 51
63.1480113945
  0
ARC
  5
4AE
100
AcDbEntity
  8
KONSTRUKTIONSELEMENTE
100
AcDbCircle
 62
7
  6
CONTINUOUS
 10
406.4277545691
 20
159.7038303342
 40
9.55
100
AcDbArc
 50
69.7697649129
 51
135.0
  0
ARC
  5
4AF
100
AcDbEntity
  8
KONSTRUKTIONSELEMENTE
100
AcDbCircle
 62
7
  6
CONTINUOUS
 10
406.4277545691
 20
159.7038303342
 40
9.55
100
AcDbArc
 50
315.0
 51
20.2302350871
  0
ARC
  5
4B0
100
AcDbEntity
  8
BEZUGSACHSEN
100
AcDbCircle
 62
7
  6
CONTINUOUS
 10
468.3293859267
 20
194.4113639674
 40
9.5
100
AcDbArc
 50
136.7472958606
 51
160.0
  0
ARC
  5
4B1
100
AcDbEntity
  8
BEZUGSACHSEN
100
AcDbCircle
 62
7
  6
CONTINUOUS
 10
468.3293859267
 20
194.4113639674
 40
9.5
100
AcDbArc
 50
340.0
 51
3.2527041394
  0
ARC
  5
4B2
100
AcDbEntity
  8
RUNDUNGEN
100
AcDbCircle
 62
7
  6
CONTINUOUS
 10
442.8557874359
 20
147.8136625228
 40
6.0
100
AcDbArc
 50
76.8519886055
 51
159.9999125493
  0
ARC
  5
4B3
100
AcDbEntity
  8
KONSTRUKTIONSELEMENTE
100
AcDbCircle
 62
7
  6
CONTINUOUS
 10
406.4277545691
 20
159.7038303342
 40
4.55
100
AcDbArc
 50
106.8037408542
 51
135.0
  0
ARC
  5
4B4
100
AcDbEntity
  8
KONSTRUKTIONSELEMENTE
100
AcDbCircle
 62
7
  6
CONTINUOUS
 10
406.4277545691
 20
159.7038303342
 40
4.55
100
AcDbArc
 50
315.0
 51
343.1962591458
  0
ARC
  5
4B5
100
AcDbEntity
  8
KONSTRUKTIONSELEMENTE
100
AcDbCircle
 62
7
  6
CONTINUOUS
 10
447.8288566075
 20
201.1049323727
 40
4.0
100
AcDbArc
 50
315.0
 51
135.0
  0
ARC
  5
4B6
100
AcDbEntity
  8
KONSTRUKTIONSELEMENTE
100
AcDbCircle
 62
7
  6
CONTINUOUS
 10
406.8166632987
 20
160.0927390638
 40
4.0
100
AcDbArc
 50
135.0
 51
315.0
  0
ARC
  5
4B7
100
AcDbEntity
  8
0
100
AcDbCircle
 62
7
  6
CONTINUOUS
 10
601.8915409367
 20
189.8168175413
 40
98.6761507302
100
AcDbArc
 50
193.3930585924
 51
197.7390220392
  0
ARC
  5
4B8
100
AcDbEntity
  8
0
100
AcDbCircle
 62
7
  6
CONTINUOUS
 10
543.8483757174
 20
125.0456530914
 40
98.6761507302
100
AcDbArc
 50
153.3930585924
 51
157.7390220392
  0
ARC
  5
4B9
100
AcDbEntity
  8
0
100
AcDbCircle
 62
7
  6
CONTINUOUS
 10
528.6030072897
 20
110.5220330553
 40
18.2
100
AcDbArc
 50
200.0
 51
290.0
  0
ARC
  5
4BA
100
AcDbEntity
  8
RUNDUNGEN
100
AcDbCircle
 62
7
  6
CONTINUOUS
 10
531.0462081037
 20
111.4112854279
 40
18.2
100
AcDbArc
 50
290.0
 51
20.0
  0
ARC
  5
4BB
100
AcDbEntity
  8
RUNDUNGEN
100
AcDbCircle
 62
7
  6
CONTINUOUS
 10
531.0596497596
 20
111.3755274564
 40
18.1618011854
100
AcDbArc
 50
289.9987258299
 51
293.5541637674
  0
ARC
  5
4BC
100
AcDbEntity
  8
RUNDUNGEN
100
AcDbCircle
 62
7
  6
CONTINUOUS
 10
531.0968308729
 20
111.2886315287
 40
18.0672870409
100
AcDbArc
 50
293.5561987662
 51
294.0823722752
  0
ARC
  5
4BD
100
AcDbEntity
  8
RUNDUNGEN
100
AcDbCircle
 62
7
  6
CONTINUOUS
 10
531.1604179489
 20
111.1493266509
 40
17.914160653
100
AcDbArc
 50
294.0785050125
 51
297.0820430933
  0
ARC
  5
4BE
100
AcDbEntity
  8
RUNDUNGEN
100
AcDbCircle
 62
7
  6
CONTINUOUS
 10
531.2527249591
 20
110.9659185473
 40
17.7088380493
100
AcDbArc
 50
297.0862924982
 51
297.6817854217
  0
ARC
  5
4BF
100
AcDbEntity
  8
BEZUGSACHSEN
100
AcDbCircle
 62
7
  6
CONTINUOUS
 10
499.4532189694
 20
194.4113639674
 40
9.5
100
AcDbArc
 50
20.0
 51
43.2527041394
  0
ARC
  5
4C0
100
AcDbEntity
  8
BEZUGSACHSEN
100
AcDbCircle
 62
7
  6
CONTINUOUS
 10
499.4532189694
 20
194.4113639674
 40
9.5
100
AcDbArc
 50
176.7472958606
 51
200.0
  0
CIRCLE
  5
4C1
100
AcDbEntity
  8
BEZUGSACHSEN
100
AcDbCircle
 62
7
  6
CONTINUOUS
 10
528.7301432381
 20
113.9736756281
 40
9.25
  0
ARC
  5
4C2
100
AcDbEntity
  8
0
100
AcDbCircle
 62
7
  6
CONTINUOUS
 10
509.8917355277
 20
142.3413402295
 40
6.0
100
AcDbArc
 50
116.8529514418
 51
199.9997541295
  0
ARC
  5
4C3
100
AcDbEntity
  8
RUNDUNGEN
100
AcDbCircle
 62
7
  6
CONTINUOUS
 10
524.9268174603
 20
147.8136625228
 40
6.0
100
AcDbArc
 50
20.0002458705
 51
103.1470485582
  0
ARC
  5
4C4
100
AcDbEntity
  8
0
100
AcDbCircle
 62
7
  6
CONTINUOUS
 10
483.8913024481
 20
237.1673782132
 40
87.0
100
AcDbArc
 50
296.2700932254
 51
360.0
  0
ARC
  5
4C5
100
AcDbEntity
  8
0
100
AcDbCircle
 62
7
  6
CONTINUOUS
 10
483.8913024481
 20
237.1673782132
 40
87.0
100
AcDbArc
 50
256.270295233
 51
283.729704767
  0
ARC
  5
4C6
100
AcDbEntity
  8
0
100
AcDbCircle
 62
7
  6
CONTINUOUS
 10
483.8913024481
 20
237.1673782132
 40
87.0
100
AcDbArc
 50
227.6358693257
 51
243.7299067746
  0
ARC
  5
4C7
100
AcDbEntity
  8
0
100
AcDbCircle
 62
7
  6
CONTINUOUS
 10
483.8913024481
 20
237.1673782132
 40
87.0
100
AcDbArc
 50
180.0
 51
222.3641306743
  0
ARC
  5
4C8
100
AcDbEntity
  8
0
100
AcDbCircle
 62
7
  6
CONTINUOUS
 10
483.8913024481
 20
327.1673782132
 40
87.0
100
AcDbArc
 50
0.0
 51
180.0
  0
ARC
  5
4C9
100
AcDbEntity
  8
0
100
AcDbCircle
 62
7
  6
CONTINUOUS
 10
483.8913024481
 20
237.1673782132
 40
55.0
100
AcDbArc
 50
299.9488120764
 51
360.0
  0
ARC
  5
4CA
100
AcDbEntity
  8
0
100
AcDbCircle
 62
7
  6
CONTINUOUS
 10
483.8913024481
 20
237.1673782132
 40
55.0
100
AcDbArc
 50
259.9482498956
 51
280.0517501044
  0
ARC
  5
4CB
100
AcDbEntity
  8
0
100
AcDbCircle
 62
7
  6
CONTINUOUS
 10
483.8913024481
 20
237.1673782132
 40
55.0
100
AcDbArc
 50
229.1717021672
 51
240.0511879236
  0
ARC
  5
4CC
100
AcDbEntity
  8
0
100
AcDbCircle
 62
7
  6
CONTINUOUS
 10
483.8913024481
 20
237.1673782132
 40
55.0
100
AcDbArc
 50
180.0
 51
220.8282978328
  0
ARC
  5
4CD
100
AcDbEntity
  8
0
100
AcDbCircle
 62
7
  6
CONTINUOUS
 10
483.8913024481
 20
327.1673782132
 40
55.0
100
AcDbArc
 50
0.0
 51
180.0
  0
ARC
  5
4CE
100
AcDbEntity
  8
0
100
AcDbCircle
 62
7
  6
CONTINUOUS
 10
1122.7520153403
 20
454.2198424394
 40
1088.4324688983
100
AcDbArc
 50
195.3028046965
 51
195.6965847771
  0
ARC
  5
4CF
100
AcDbEntity
  8
0
100
AcDbCircle
 62
7
  6
CONTINUOUS
 10
-859.3159423886
 20
446.1788435724
 40
1058.3428364104
100
AcDbArc
 50
344.2978174402
 51
344.7027930863
  0
ARC
  5
4D0
100
AcDbEntity
  8
0
100
AcDbCircle
 62
7
  6
CONTINUOUS
 10
1001.4437727368
 20
-84.2719082795
 40
962.5186404545
100
AcDbArc
 50
163.440382164
 51
164.7290861075
  0
ARC
  5
4D1
100
AcDbEntity
  8
0
100
AcDbCircle
 62
7
  6
CONTINUOUS
 10
-767.0032047936
 20
-84.2719082536
 40
962.51864036
100
AcDbArc
 50
15.2709138924
 51
16.5596178361
  0
ARC
  5
4D2
100
AcDbEntity
  8
0
100
AcDbCircle
 62
7
  6
CONTINUOUS
 10
-807.7009823769
 20
-92.855316937
 40
918.7873550554
100
AcDbArc
 50
16.1317323811
 51
16.574489643
  0
ARC
  5
4D3
100
AcDbEntity
  8
0
100
AcDbCircle
 62
7
  6
CONTINUOUS
 10
1040.1326230085
 20
-92.2658435227
 40
916.6937452785
100
AcDbArc
 50
163.4250047544
 51
163.8687732215
  0
ARC
  5
4D4
100
AcDbEntity
  8
0
100
AcDbCircle
 62
7
  6
CONTINUOUS
 10
349.0676256679
 20
-81.2547421951
 40
382.9230047628
100
AcDbArc
 50
131.5539219021
 51
134.8844358854
  0
ARC
  5
4D5
100
AcDbEntity
  8
0
100
AcDbCircle
 62
7
  6
CONTINUOUS
 10
-114.6270577979
 20
-81.2547421762
 40
382.9230047369
100
AcDbArc
 50
45.1155641145
 51
48.4460780981
  0
ARC
  5
4D6
100
AcDbEntity
  8
0
100
AcDbCircle
 62
7
  6
CONTINUOUS
 10
185.2361767294
 20
-104.1978604246
 40
322.3645508215
100
AcDbArc
 50
105.1071235587
 51
106.2433073409
  0
ARC
  5
4D7
100
AcDbEntity
  8
0
100
AcDbCircle
 62
7
  6
CONTINUOUS
 10
49.2043947371
 20
-104.1978475846
 40
322.3645374831
100
AcDbArc
 50
73.7566926375
 51
74.8928764564
  0
ARC
  5
4D8
100
AcDbEntity
  8
KONSTRUKTIONSELEMENTE
100
AcDbCircle
 62
7
  6
CONTINUOUS
 10
117.2202839261
 20
53.4374912006
 40
46.8
100
AcDbArc
 50
56.2046564443
 51
80.9022287256
  0
ARC
  5
4D9
100
AcDbEntity
  8
KONSTRUKTIONSELEMENTE
100
AcDbCircle
 62
7
  6
CONTINUOUS
 10
117.2202839261
 20
53.4374912006
 40
46.8
100
AcDbArc
 50
99.0977712744
 51
123.7953435557
  0
ARC
  5
4DA
100
AcDbEntity
  8
KONSTRUKTIONSELEMENTE
100
AcDbCircle
 62
7
  6
CONTINUOUS
 10
115.8348706684
 20
195.0169035933
 40
38.747005001
100
AcDbArc
 50
248.6306612273
 51
251.0502530274
  0
ARC
  5
4DB
100
AcDbEntity
  8
KONSTRUKTIONSELEMENTE
100
AcDbCircle
 62
7
  6
CONTINUOUS
 10
118.6708503549
 20
194.8395017438
 40
38.5580562816
100
AcDbArc
 50
288.9640873439
 51
291.3607481155
  0
ARC
  5
4DC
100
AcDbEntity
  8
0
100
AcDbCircle
 62
7
  6
CONTINUOUS
 10
117.2202839261
 20
398.1673782132
 40
16.0
100
AcDbArc
 50
0.0
 51
180.0
  0
ARC
  5
4DD
100
AcDbEntity
  8
0
100
AcDbCircle
 62
7
  6
CONTINUOUS
 10
117.2202839261
 20
166.1673782132
 40
16.0
100
AcDbArc
 50
180.0
 51
225.6930761934
  0
ARC
  5
4DE
100
AcDbEntity
  8
0
100
AcDbCircle
 62
7
  6
CONTINUOUS
 10
117.2202839261
 20
166.1673782132
 40
16.0
100
AcDbArc
 50
314.3098377897
 51
360.0
  0
ARC
  5
4DF
100
AcDbEntity
  8
RUNDUNGEN
100
AcDbCircle
 62
7
  6
CONTINUOUS
 10
80.4461112694
 20
81.8033334007
 40
14.2174924007
100
AcDbArc
 50
44.7414511761
 51
47.7508546602
  0
ARC
  5
4E0
100
AcDbEntity
  8
RUNDUNGEN
100
AcDbCircle
 62
7
  6
CONTINUOUS
 10
78.5139259219
 20
82.3525373663
 40
3.3598214098
100
AcDbArc
 50
296.3196901288
 51
302.1891466291
  0
ARC
  5
4E1
100
AcDbEntity
  8
0
100
AcDbCircle
 62
7
  6
CONTINUOUS
 10
133.4219015538
 20
70.7320578656
 40
2.7679754318
100
AcDbArc
 50
350.5636876715
 51
355.3957076166
  0
ARC
  5
4E2
100
AcDbEntity
  8
BEZUGSACHSEN
100
AcDbCircle
 62
7
  6
CONTINUOUS
 10
92.945082097
 20
120.1950543985
 40
2.6753504554
100
AcDbArc
 50
8.0456784282
 51
9.4681363924
  0
ARC
  5
4E3
100
AcDbEntity
  8
BEZUGSACHSEN
100
AcDbCircle
 62
7
  6
CONTINUOUS
 10
92.2954857552
 20
120.1950543985
 40
2.6753504554
100
AcDbArc
 50
170.5318636076
 51
171.9543215717
  0
ARC
  5
4E4
100
AcDbEntity
  8
BEZUGSACHSEN
100
AcDbCircle
 62
7
  6
CONTINUOUS
 10
92.9531651052
 20
120.1961438133
 40
2.6671945331
100
AcDbArc
 50
4.6413549032
 51
8.0468089403
  0
ARC
  5
4E5
100
AcDbEntity
  8
BEZUGSACHSEN
100
AcDbCircle
 62
7
  6
CONTINUOUS
 10
92.287402747
 20
120.1961438133
 40
2.6671945332
100
AcDbArc
 50
171.9531910597
 51
175.3586450967
  0
ARC
  5
4E6
100
AcDbEntity
  8
KONSTRUKTIONSELEMENTE
100
AcDbCircle
 62
7
  6
CONTINUOUS
 10
117.2202839261
 20
83.0745230654
 40
2.5
100
AcDbArc
 50
180.0
 51
360.0
  0
ARC
  5
4E7
100
AcDbEntity
  8
0
100
AcDbCircle
 62
7
  6
CONTINUOUS
 10
103.1315452386
 20
69.9107647884
 40
0.5420477023
100
AcDbArc
 50
78.8903114983
 51
89.9692795104
  0
SPLINE
  5
4E8
100
AcDbEntity
  8
0
100
AcDbSpline
 62
7
  6
CONTINUOUS
 70
0
 71
3
 72
11
 73
7
 74
0
 42
0.0000001
 43
0.0000001
 44
0.0000000001
 40
0.0
 40
0.0
 40
0.0
 40
0.0
 40
0.2551771482
 40
0.5000000006
 40
0.7448228526
 40
1.0
 40
1.0
 40
1.0
 40
1.0
 10
490.7441408241
 20
208.5980672267
 30
0.0
 10
490.7146590392
 20
208.0793090771
 30
0.0
 10
490.740094355
 20
207.0544408593
 30
0.0
 10
491.0958954235
 20
205.5674081176
 30
0.0
 10
491.7791822151
 20
204.1995704338
 30
0.0
 10
492.4184702224
 20
203.3981263263
 30
0.0
 10
492.7745058897
 20
203.0196850557
 30
0.0
  0
SPLINE
  5
4E9
100
AcDbEntity
  8
0
100
AcDbSpline
 62
7
  6
CONTINUOUS
 70
0
 71
3
 72
11
 73
7
 74
0
 42
0.0000001
 43
0.0000001
 44
0.0000000001
 40
0.0
 40
0.0
 40
0.0
 40
0.0
 40
0.2551771482
 40
0.5000000006
 40
0.7448228526
 40
1.0
 40
1.0
 40
1.0
 40
1.0
 10
497.0057228099
 20
210.877096689
 30
0.0
 10
497.3617584784
 20
210.4986554172
 30
0.0
 10
498.0010464881
 20
209.6972113081
 30
0.0
 10
498.6843332782
 20
208.3293736213
 30
0.0
 10
499.0401343436
 20
206.8423408811
 30
0.0
 10
499.0655696603
 20
205.8174726658
 30
0.0
 10
499.0360878755
 20
205.298714518
 30
0.0
  0
SPLINE
  5
4EA
100
AcDbEntity
  8
0
100
AcDbSpline
 62
7
  6
CONTINUOUS
 70
0
 71
3
 72
11
 73
7
 74
0
 42
0.0000001
 43
0.0000001
 44
0.0000000001
 40
0.0
 40
0.0
 40
0.0
 40
0.0
 40
0.2500294942
 40
0.5000000006
 40
0.7499705067
 40
1.0
 40
1.0
 40
1.0
 40
1.0
 10
504.5831483926
 20
190.0582910028
 30
0.0
 10
505.4107486618
 20
188.4032913136
 30
0.0
 10
506.9784709765
 20
185.0489897023
 30
0.0
 10
509.033681317
 20
179.8897709769
 30
0.0
 10
510.7755807241
 20
174.6165164045
 30
0.0
 10
511.73073927
 20
171.0392598245
 30
0.0
 10
512.1605739754
 20
169.2394853165
 30
0.0
  0
SPLINE
  5
4EB
100
AcDbEntity
  8
0
100
AcDbSpline
 62
7
  6
CONTINUOUS
 70
0
 71
3
 72
11
 73
7
 74
0
 42
0.0000001
 43
0.0000001
 44
0.0000000001
 40
0.0
 40
0.0
 40
0.0
 40
0.0
 40
0.250391743
 40
0.5000000006
 40
0.7496082578
 40
1.0
 40
1.0
 40
1.0
 40
1.0
 10
499.0360878755
 20
205.298714518
 30
0.0
 10
499.6936744375
 20
204.1093690684
 30
0.0
 10
500.9225548584
 20
201.6863565349
 30
0.0
 10
502.4715432529
 20
197.9194237924
 30
0.0
 10
503.7062869902
 20
194.0381153536
 30
0.0
 10
504.3223924066
 20
191.3920709652
 30
0.0
 10
504.5831483926
 20
190.0582910028
 30
0.0
  0
SPLINE
  5
4EC
100
AcDbEntity
  8
RUNDUNGEN
100
AcDbSpline
 62
7
  6
CONTINUOUS
 70
0
 71
3
 72
21
 73
17
 74
0
 42
0.0000001
 43
0.0000001
 44
0.0000000001
 40
0.0
 40
0.0
 40
0.0
 40
0.0
 40
0.132757348
 40
0.2637166388
 40
0.391846545
 40
0.5160012262
 40
0.5763736596
 40
0.6354279202
 40
0.6932205647
 40
0.7501681365
 40
0.778798421
 40
0.8078638659
 40
0.8377367771
 40
0.8687097745
 40
0.9333685728
 40
1.0
 40
1.0
 40
1.0
 40
1.0
 10
539.479552534
 20
95.2840100822
 30
0.0
 10
540.1574646435
 20
95.639650455
 30
0.0
 10
541.4601013144
 20
96.4345479268
 30
0.0
 10
543.211677392
 20
97.8749268487
 30
0.0
 10
544.6811774341
 20
99.539040118
 30
0.0
 10
545.6028420872
 20
101.1080179294
 30
0.0
 10
546.0715736936
 20
102.4365397182
 30
0.0
 10
546.2608072954
 20
103.4459779009
 30
0.0
 10
546.2548631492
 20
104.4552864577
 30
0.0
 10
546.0390883312
 20
105.2678149227
 30
0.0
 10
545.7083065121
 20
105.8444921078
 30
0.0
 10
545.3707389612
 20
106.2255201802
 30
0.0
 10
544.9428992709
 20
106.5271036399
 30
0.0
 10
544.2623654798
 20
106.7930210792
 30
0.0
 10
543.3007577394
 20
106.8177289223
 30
0.0
 10
542.566493606
 20
106.6120242636
 30
0.0
 10
542.2054398976
 20
106.4806114608
 30
0.0
  0
LINE
  5
4ED
100
AcDbEntity
  8
0
100
AcDbLine
 62
7
  6
CONTINUOUS
 10
514.1796347782
 20
130.5604338618
 11
507.8944478317
 21
130.2860166733
  0
SPLINE
  5
4EE
100
AcDbEntity
  8
0
100
AcDbSpline
 62
7
  6
CONTINUOUS
 70
0
 71
3
 72
9
 73
5
 74
0
 42
0.0000001
 43
0.0000001
 44
0.0000000001
 40
0.0
 40
0.0
 40
0.0
 40
0.0
 40
0.4841561799
 40
1.0
 40
1.0
 40
1.0
 40
1.0
 10
507.1815219958
 20
147.6943527096
 30
0.0
 10
507.287479308
 20
147.7479985665
 30
0.0
 10
507.5252846425
 20
147.8243941318
 30
0.0
 10
507.7739125147
 20
147.8272137469
 30
0.0
 10
507.8997781047
 20
147.8141982697
 30
0.0
  0
LINE
  5
4EF
100
AcDbEntity
  8
0
100
AcDbLine
 62
7
  6
CONTINUOUS
 10
505.4126430402
 20
121.0237950968
 11
511.6978299867
 21
121.2982122852
  0
SPLINE
  5
4F0
100
AcDbEntity
  8
0
100
AcDbSpline
 62
7
  6
CONTINUOUS
 70
0
 71
3
 72
11
 73
7
 74
0
 42
0.0000001
 43
0.0000001
 44
0.0000000001
 40
0.0
 40
0.0
 40
0.0
 40
0.0
 40
0.2500294942
 40
0.5000000006
 40
0.7499705067
 40
1.0
 40
1.0
 40
1.0
 40
1.0
 10
498.3215664068
 20
187.7792615405
 30
0.0
 10
498.7514011137
 20
185.9794870264
 30
0.0
 10
499.7065596611
 20
182.4022304373
 30
0.0
 10
501.4484590726
 20
177.1289758596
 30
0.0
 10
503.5036694132
 20
171.9697571412
 30
0.0
 10
505.0713917232
 20
168.6154555378
 30
0.0
 10
505.8989919896
 20
166.9604558543
 30
0.0
  0
SPLINE
  5
4F1
100
AcDbEntity
  8
0
100
AcDbSpline
 62
7
  6
CONTINUOUS
 70
0
 71
3
 72
11
 73
7
 74
0
 42
0.0000001
 43
0.0000001
 44
0.0000000001
 40
0.0
 40
0.0
 40
0.0
 40
0.0
 40
0.250391743
 40
0.5000000006
 40
0.7496082578
 40
1.0
 40
1.0
 40
1.0
 40
1.0
 10
492.7745058897
 20
203.0196850557
 30
0.0
 10
493.0352618766
 20
201.6859050887
 30
0.0
 10
493.6513672936
 20
199.0398606936
 30
0.0
 10
494.8861110349
 20
195.158552251
 30
0.0
 10
496.4350994301
 20
191.3916195139
 30
0.0
 10
497.663979847
 20
188.9686069861
 30
0.0
 10
498.3215664068
 20
187.7792615405
 30
0.0
  0
LINE
  5
4F2
100
AcDbEntity
  8
RUNDUNGEN
100
AcDbLine
 62
7
  6
CONTINUOUS
 10
529.2147167108
 20
136.032756155
 11
534.2058412137
 21
139.8625806865
  0
SPLINE
  5
4F3
100
AcDbEntity
  8
RUNDUNGEN
100
AcDbSpline
 62
7
  6
CONTINUOUS
 70
0
 71
3
 72
9
 73
5
 74
0
 42
0.0000001
 43
0.0000001
 44
0.0000000001
 40
0.0
 40
0.0
 40
0.0
 40
0.0
 40
0.4841561799
 40
1.0
 40
1.0
 40
1.0
 40
1.0
 10
523.5621113793
 20
153.6563996649
 30
0.0
 10
523.446460477
 20
153.6293867281
 30
0.0
 10
523.2151848991
 20
153.5350508038
 30
0.0
 10
523.0229124856
 20
153.3773958386
 30
0.0
 10
522.9348600373
 20
153.2865205629
 30
0.0
  0
LINE
  5
4F4
100
AcDbEntity
  8
RUNDUNGEN
100
AcDbLine
 62
7
  6
CONTINUOUS
 10
542.0606552508
 20
134.3625806865
 11
537.0695307479
 21
130.532756155
  0
SPLINE
  5
4F5
100
AcDbEntity
  8
0
100
AcDbSpline
 62
7
  6
CONTINUOUS
 70
0
 71
3
 72
23
 73
19
 74
0
 42
0.0000001
 43
0.0000001
 44
0.0000000001
 40
0.0
 40
0.0
 40
0.0
 40
0.0
 40
0.1325302002
 40
0.2639698533
 40
0.3931458519
 40
0.4565468746
 40
0.5188786075
 40
0.5799622752
 40
0.6396390499
 40
0.6978304833
 40
0.754695653
 40
0.8111197531
 40
0.8401234276
 40
0.8701692631
 40
0.9014955719
 40
0.9338765407
 40
0.9668396335
 40
1.0
 40
1.0
 40
1.0
 40
1.0
 10
534.8277765409
 20
93.4196283189
 30
0.0
 10
534.009323141
 20
93.1217354999
 30
0.0
 10
532.3340323844
 20
92.6441914615
 30
0.0
 10
529.7631881645
 20
92.3073633542
 30
0.0
 10
527.6224405225
 20
92.3748641036
 30
0.0
 10
525.9705295357
 20
92.6685486132
 30
0.0
 10
524.7892159488
 20
93.0129659257
 30
0.0
 10
523.6811540837
 20
93.4911188558
 30
0.0
 10
522.6765519071
 20
94.1122593265
 30
0.0
 10
521.8189257181
 20
94.8879649623
 30
0.0
 10
521.174184955
 20
95.8280792562
 30
0.0
 10
520.9211134372
 20
96.7580157055
 30
0.0
 10
520.9900000618
 20
97.5218602184
 30
0.0
 10
521.201137559
 20
98.085151533
 30
0.0
 10
521.568046426
 20
98.5886517302
 30
0.0
 10
522.0548733406
 20
99.0039877994
 30
0.0
 10
522.6170749973
 20
99.3299256006
 30
0.0
 10
523.0191307734
 20
99.4973660342
 30
0.0
 10
523.223915918
 20
99.5719017312
 30
0.0
  0
SPLINE
  5
4F6
100
AcDbEntity
  8
0
100
AcDbSpline
 62
7
  6
CONTINUOUS
 70
0
 71
3
 72
11
 73
7
 74
0
 42
0.0000001
 43
0.0000001
 44
0.0000000001
 40
0.0
 40
0.0
 40
0.0
 40
0.0
 40
0.2500294942
 40
0.5000000006
 40
0.7499705067
 40
1.0
 40
1.0
 40
1.0
 40
1.0
 10
455.6220309207
 20
169.2394853165
 30
0.0
 10
456.0518656276
 20
171.0392598306
 30
0.0
 10
457.007024175
 20
174.6165164198
 30
0.0
 10
458.7489235865
 20
179.8897709974
 30
0.0
 10
460.8041339271
 20
185.0489897159
 30
0.0
 10
462.3718562371
 20
188.4032913192
 30
0.0
 10
463.1994565035
 20
190.0582910028
 30
0.0
  0
LINE
  5
4F7
100
AcDbEntity
  8
0
100
AcDbLine
 62
7
  6
CONTINUOUS
 10
456.0847749094
 20
121.2982122852
 11
462.3699618559
 21
121.0237950968
  0
LINE
  5
4F8
100
AcDbEntity
  8
0
100
AcDbLine
 62
7
  6
CONTINUOUS
 10
453.6029701179
 20
130.5604338618
 11
459.8881570644
 21
130.2860166733
  0
SPLINE
  5
4F9
100
AcDbEntity
  8
0
100
AcDbSpline
 62
7
  6
CONTINUOUS
 70
0
 71
3
 72
9
 73
5
 74
0
 42
0.0000001
 43
0.0000001
 44
0.0000000001
 40
0.0
 40
0.0
 40
0.0
 40
0.0
 40
0.515843987
 40
1.0
 40
1.0
 40
1.0
 40
1.0
 10
459.8828267914
 20
147.8141982697
 30
0.0
 10
460.0086753686
 20
147.8272119876
 30
0.0
 10
460.2572684939
 20
147.8243966091
 30
0.0
 10
460.4950453423
 20
147.7480275727
 30
0.0
 10
460.6009929447
 20
147.6943982529
 30
0.0
  0
SPLINE
  5
4FA
100
AcDbEntity
  8
0
100
AcDbSpline
 62
7
  6
CONTINUOUS
 70
0
 71
3
 72
11
 73
7
 74
0
 42
0.0000001
 43
0.0000001
 44
0.0000000001
 40
0.0
 40
0.0
 40
0.0
 40
0.0
 40
0.2551771482
 40
0.5000000006
 40
0.7448228526
 40
1.0
 40
1.0
 40
1.0
 40
1.0
 10
468.7465170206
 20
205.298714518
 30
0.0
 10
468.7170352358
 20
205.8174726676
 30
0.0
 10
468.7424705515
 20
206.8423408855
 30
0.0
 10
469.09827162
 20
208.3293736271
 30
0.0
 10
469.7815584116
 20
209.6972113109
 30
0.0
 10
470.420846419
 20
210.4986554185
 30
0.0
 10
470.7768820862
 20
210.877096689
 30
0.0
  0
SPLINE
  5
4FB
100
AcDbEntity
  8
0
100
AcDbSpline
 62
7
  6
CONTINUOUS
 70
0
 71
3
 72
11
 73
7
 74
0
 42
0.0000001
 43
0.0000001
 44
0.0000000001
 40
0.0
 40
0.0
 40
0.0
 40
0.0
 40
0.250391743
 40
0.5000000006
 40
0.7496082578
 40
1.0
 40
1.0
 40
1.0
 40
1.0
 10
463.1994565035
 20
190.0582910028
 30
0.0
 10
463.4602124904
 20
191.3920709698
 30
0.0
 10
464.0763179074
 20
194.0381153649
 30
0.0
 10
465.3110616487
 20
197.9194238075
 30
0.0
 10
466.8600500439
 20
201.6863565446
 30
0.0
 10
468.0889304608
 20
204.1093690724
 30
0.0
 10
468.7465170206
 20
205.298714518
 30
0.0
  0
SPLINE
  5
4FC
100
AcDbEntity
  8
0
100
AcDbSpline
 62
7
  6
CONTINUOUS
 70
0
 71
3
 72
11
 73
7
 74
0
 42
0.0000001
 43
0.0000001
 44
0.0000000001
 40
0.0
 40
0.0
 40
0.0
 40
0.0
 40
0.2551771482
 40
0.5000000006
 40
0.7448228526
 40
1.0
 40
1.0
 40
1.0
 40
1.0
 10
475.0080990064
 20
203.0196850557
 30
0.0
 10
475.3641346749
 20
203.3981263276
 30
0.0
 10
476.0034226846
 20
204.1995704366
 30
0.0
 10
476.6867094747
 20
205.5674081234
 30
0.0
 10
477.0425105402
 20
207.0544408636
 30
0.0
 10
477.0679458568
 20
208.0793090789
 30
0.0
 10
477.038464072
 20
208.5980672267
 30
0.0
  0
SPLINE
  5
4FD
100
AcDbEntity
  8
0
100
AcDbSpline
 62
7
  6
CONTINUOUS
 70
0
 71
3
 72
11
 73
7
 74
0
 42
0.0000001
 43
0.0000001
 44
0.0000000001
 40
0.0
 40
0.0
 40
0.0
 40
0.0
 40
0.250391743
 40
0.5000000006
 40
0.7496082578
 40
1.0
 40
1.0
 40
1.0
 40
1.0
 10
469.4610384893
 20
187.7792615405
 30
0.0
 10
470.1186250513
 20
188.9686069901
 30
0.0
 10
471.3475054721
 20
191.3916195236
 30
0.0
 10
472.8964938667
 20
195.1585522661
 30
0.0
 10
474.131237604
 20
199.0398607049
 30
0.0
 10
474.7473430204
 20
201.6859050933
 30
0.0
 10
475.0080990064
 20
203.0196850557
 30
0.0
  0
SPLINE
  5
4FE
100
AcDbEntity
  8
0
100
AcDbSpline
 62
7
  6
CONTINUOUS
 70
0
 71
3
 72
11
 73
7
 74
0
 42
0.0000001
 43
0.0000001
 44
0.0000000001
 40
0.0
 40
0.0
 40
0.0
 40
0.0
 40
0.2500294942
 40
0.5000000006
 40
0.7499705067
 40
1.0
 40
1.0
 40
1.0
 40
1.0
 10
461.8836129065
 20
166.9604558543
 30
0.0
 10
462.7112131757
 20
168.6154555435
 30
0.0
 10
464.2789354904
 20
171.9697571547
 30
0.0
 10
466.3341458309
 20
177.1289758801
 30
0.0
 10
468.076045238
 20
182.4022304525
 30
0.0
 10
469.0312037838
 20
185.9794870326
 30
0.0
 10
469.4610384893
 20
187.7792615405
 30
0.0
  0
LINE
  5
4FF
100
AcDbEntity
  8
RUNDUNGEN
100
AcDbLine
 62
7
  6
CONTINUOUS
 10
430.7130741482
 20
130.532756155
 11
425.7219496453
 21
134.3625806865
  0
LINE
  5
500
100
AcDbEntity
  8
RUNDUNGEN
100
AcDbLine
 62
7
  6
CONTINUOUS
 10
438.5678881853
 20
136.032756155
 11
433.5767636824
 21
139.8625806865
  0
SPLINE
  5
501
100
AcDbEntity
  8
RUNDUNGEN
100
AcDbSpline
 62
7
  6
CONTINUOUS
 70
0
 71
3
 72
9
 73
5
 74
0
 42
0.0000001
 43
0.0000001
 44
0.0000000001
 40
0.0
 40
0.0
 40
0.0
 40
0.0
 40
0.515843987
 40
1.0
 40
1.0
 40
1.0
 40
1.0
 10
444.8477448588
 20
153.2865205629
 30
0.0
 10
444.7597043122
 20
153.3773835553
 30
0.0
 10
444.5674612396
 20
153.535019431
 30
0.0
 10
444.3362245357
 20
153.6293573671
 30
0.0
 10
444.2205917015
 20
153.6563767308
 30
0.0
  0
SPLINE
  5
502
100
AcDbEntity
  8
RUNDUNGEN
100
AcDbSpline
 62
7
  6
CONTINUOUS
 70
0
 71
3
 72
23
 73
19
 74
0
 42
0.0000001
 43
0.0000001
 44
0.0000000001
 40
0.0
 40
0.0
 40
0.0
 40
0.0
 40
0.0331605973
 40
0.0661241931
 40
0.0985073351
 40
0.1298378226
 40
0.1598853495
 40
0.1888887806
 40
0.2453145137
 40
0.3021803938
 40
0.3603725853
 40
0.4200492647
 40
0.4811321774
 40
0.543463744
 40
0.6068647369
 40
0.7360394838
 40
0.8674769933
 40
1.0
 40
1.0
 40
1.0
 40
1.0
 10
425.5771649985
 20
106.4806114608
 30
0.0
 10
425.3723784851
 20
106.555147656
 30
0.0
 10
424.9567527755
 20
106.6853187715
 30
0.0
 10
424.3165535389
 20
106.7970144911
 30
0.0
 10
423.6766042144
 20
106.7917695232
 30
0.0
 10
423.0718422718
 20
106.6418703404
 30
0.0
 10
422.5480263457
 20
106.3460037452
 30
0.0
 10
422.0042776188
 20
105.8051072704
 30
0.0
 10
421.6004508642
 20
104.9300175263
 30
0.0
 10
421.4900971393
 20
103.7953965423
 30
0.0
 10
421.6485177794
 20
102.6498974772
 30
0.0
 10
422.0188628102
 20
101.5283449408
 30
0.0
 10
422.5603599131
 20
100.4498298346
 30
0.0
 10
423.2439293274
 20
99.4266770897
 30
0.0
 10
424.3206094993
 20
98.1399036412
 30
0.0
 10
425.9171246253
 20
96.7121810143
 30
0.0
 10
428.1029687146
 20
95.3177582172
 30
0.0
 10
429.6932213877
 20
94.6067561709
 30
0.0
 10
430.5116301839
 20
94.3088797296
 30
0.0
  0
SPLINE
  5
503
100
AcDbEntity
  8
0
100
AcDbSpline
 62
7
  6
CONTINUOUS
 70
0
 71
3
 72
21
 73
17
 74
0
 42
0.0000001
 43
0.0000001
 44
0.0000000001
 40
0.0
 40
0.0
 40
0.0
 40
0.0
 40
0.0666058476
 40
0.1312166655
 40
0.1621553146
 40
0.1919929869
 40
0.22102821
 40
0.2496385378
 40
0.3065772658
 40
0.3643830598
 40
0.4234609811
 40
0.48386113
 40
0.6080741501
 40
0.736252069
 40
0.8672406927
 40
1.0
 40
1.0
 40
1.0
 40
1.0
 10
444.5586889781
 20
99.5719017312
 30
0.0
 10
444.9215497124
 20
99.4398312247
 30
0.0
 10
445.6195937387
 20
99.1236917552
 30
0.0
 10
446.3422960731
 20
98.481359262
 30
0.0
 10
446.6907850966
 20
97.8353754622
 30
0.0
 10
446.821821035
 20
97.326239446
 30
0.0
 10
446.8317947191
 20
96.8150338518
 30
0.0
 10
446.7091840755
 20
96.1583401579
 30
0.0
 10
446.3450683947
 20
95.3957311373
 30
0.0
 10
445.6925094783
 20
94.618458489
 30
0.0
 10
444.8904406237
 20
93.9676164066
 30
0.0
 10
443.6665190661
 20
93.2535380603
 30
0.0
 10
441.9389721636
 20
92.649181056
 30
0.0
 10
439.7293945901
 20
92.327816375
 30
0.0
 10
437.4491929297
 20
92.3616116449
 30
0.0
 10
435.9332179747
 20
92.5989986702
 30
0.0
 10
435.1821422189
 20
92.7671746736
 30
0.0
  0
SPLINE
  5
504
100
AcDbEntity
  8
KONSTRUKTIONSELEMENTE
100
AcDbSpline
 62
7
  6
CONTINUOUS
 70
0
 71
3
 72
12
 73
8
 74
0
 42
0.0000001
 43
0.0000001
 44
0.0000000001
 40
0.0
 40
0.0
 40
0.0
 40
0.0
 40
0.1282453638
 40
0.2146169864
 40
0.321985829
 40
0.6101725692
 40
1.0
 40
1.0
 40
1.0
 40
1.0
 10
120.7202839261
 20
103.8777499595
 30
0.0
 10
120.7202839261
 20
103.8084869497
 30
0.0
 10
120.7006209404
 20
103.6919431001
 30
0.0
 10
120.6339310467
 20
103.5309195762
 30
0.0
 10
120.502766156
 20
103.3051084021
 30
0.0
 10
120.2114716956
 20
102.9901339588
 30
0.0
 10
119.9091742922
 20
102.7787667167
 30
0.0
 10
119.7266379911
 20
102.6738521202
 30
0.0
  0
SPLINE
  5
505
100
AcDbEntity
  8
KONSTRUKTIONSELEMENTE
100
AcDbSpline
 62
7
  6
CONTINUOUS
 70
0
 71
3
 72
12
 73
8
 74
0
 42
0.0000001
 43
0.0000001
 44
0.0000000001
 40
0.0
 40
0.0
 40
0.0
 40
0.0
 40
0.3898396094
 40
0.6780156338
 40
0.7853729626
 40
0.8717632718
 40
1.0
 40
1.0
 40
1.0
 40
1.0
 10
114.713838325
 20
102.6739045914
 30
0.0
 10
114.5313110816
 20
102.7788200009
 30
0.0
 10
114.2290633179
 20
102.9902093386
 30
0.0
 10
113.9377583417
 20
103.3051272562
 30
0.0
 10
113.8066201834
 20
103.5309357181
 30
0.0
 10
113.7399743763
 20
103.6919614526
 30
0.0
 10
113.7202839261
 20
103.8084962271
 30
0.0
 10
113.7202839261
 20
103.8777499595
 30
0.0
  0
SPLINE
  5
506
100
AcDbEntity
  8
KONSTRUKTIONSELEMENTE
100
AcDbSpline
 62
7
  6
CONTINUOUS
 70
0
 71
3
 72
11
 73
7
 74
0
 42
0.0000001
 43
0.0000001
 44
0.0000000001
 40
0.0
 40
0.0
 40
0.0
 40
0.0
 40
0.2395325722
 40
0.4851111057
 40
0.7385960533
 40
1.0
 40
1.0
 40
1.0
 40
1.0
 10
124.6306721378
 20
101.4707781981
 30
0.0
 10
124.4032656441
 20
101.0258617131
 30
0.0
 10
123.8196513321
 20
100.183569713
 30
0.0
 10
122.6594079059
 20
99.1517272575
 30
0.0
 10
121.2732801797
 20
98.3600292746
 30
0.0
 10
120.2521417717
 20
98.0064914329
 30
0.0
 10
119.723708262
 20
97.8719666173
 30
0.0
  0
SPLINE
  5
507
100
AcDbEntity
  8
KONSTRUKTIONSELEMENTE
100
AcDbSpline
 62
7
  6
CONTINUOUS
 70
0
 71
3
 72
11
 73
7
 74
0
 42
0.0000001
 43
0.0000001
 44
0.0000000001
 40
0.0
 40
0.0
 40
0.0
 40
0.0
 40
0.2614244625
 40
0.5149123504
 40
0.7604812739
 40
1.0
 40
1.0
 40
1.0
 40
1.0
 10
114.7159561236
 20
97.8722138068
 30
0.0
 10
114.1875107325
 20
98.0068037405
 30
0.0
 10
113.1663862321
 20
98.360432155
 30
0.0
 10
111.7803477885
 20
99.1522804092
 30
0.0
 10
110.6203756231
 20
100.1842807299
 30
0.0
 10
110.036825658
 20
101.0265209683
 30
0.0
 10
109.8095021903
 20
101.4714317931
 30
0.0
  0
SPLINE
  5
508
100
AcDbEntity
  8
KONSTRUKTIONSELEMENTE
100
AcDbSpline
 62
7
  6
CONTINUOUS
 70
0
 71
3
 72
9
 73
5
 74
0
 42
0.0000001
 43
0.0000001
 44
0.0000000001
 40
0.0
 40
0.0
 40
0.0
 40
0.0
 40
0.4912160667
 40
1.0
 40
1.0
 40
1.0
 40
1.0
 10
122.8176441953
 20
130.4495629548
 30
0.0
 10
122.3374881568
 20
130.0812480853
 30
0.0
 10
121.2644972132
 20
129.4512273651
 30
0.0
 10
120.085668102
 20
129.0632995466
 30
0.0
 10
119.4743962466
 20
128.9246822111
 30
0.0
  0
SPLINE
  5
509
100
AcDbEntity
  8
KONSTRUKTIONSELEMENTE
100
AcDbSpline
 62
7
  6
CONTINUOUS
 70
0
 71
3
 72
9
 73
5
 74
0
 42
0.0000001
 43
0.0000001
 44
0.0000000001
 40
0.0
 40
0.0
 40
0.0
 40
0.0
 40
0.5088042152
 40
1.0
 40
1.0
 40
1.0
 40
1.0
 10
114.9681131473
 20
128.9242509987
 30
0.0
 10
114.3565001481
 20
129.0628438234
 30
0.0
 10
113.1770229618
 20
129.450724469
 30
0.0
 10
112.1034514479
 20
130.0809722362
 30
0.0
 10
111.6230782852
 20
130.4494424905
 30
0.0
  0
SPLINE
  5
50A
100
AcDbEntity
  8
KONSTRUKTIONSELEMENTE
100
AcDbSpline
 62
7
  6
CONTINUOUS
 70
0
 71
3
 72
9
 73
5
 74
0
 42
0.0000001
 43
0.0000001
 44
0.0000000001
 40
0.0
 40
0.0
 40
0.0
 40
0.0
 40
0.2444886844
 40
1.0
 40
1.0
 40
1.0
 40
1.0
 10
135.6526555746
 20
169.5337609812
 30
0.0
 10
135.4631863995
 20
169.3960735039
 30
0.0
 10
134.6793397635
 20
168.8451999529
 30
0.0
 10
133.8614816741
 20
168.3430411336
 30
0.0
 10
133.2293630306
 20
167.9905390081
 30
0.0
  0
SPLINE
  5
50B
100
AcDbEntity
  8
KONSTRUKTIONSELEMENTE
100
AcDbSpline
 62
7
  6
CONTINUOUS
 70
0
 71
3
 72
9
 73
5
 74
0
 42
0.0000001
 43
0.0000001
 44
0.0000000001
 40
0.0
 40
0.0
 40
0.0
 40
0.0
 40
0.2555302793
 40
1.0
 40
1.0
 40
1.0
 40
1.0
 10
101.2095146757
 20
167.9914879653
 30
0.0
 10
100.9954039349
 20
168.1109093661
 30
0.0
 10
100.1642230293
 20
168.5901658507
 30
0.0
 10
99.3604896981
 20
169.1174135516
 30
0.0
 10
98.7828048845
 20
169.5374791901
 30
0.0
  0
SPLINE
  5
50C
100
AcDbEntity
  8
0
100
AcDbSpline
 62
7
  6
CONTINUOUS
 70
0
 71
3
 72
12
 73
8
 74
0
 42
0.0000001
 43
0.0000001
 44
0.0000000001
 40
0.0
 40
0.0
 40
0.0
 40
0.0
 40
0.1089727213
 40
0.2201620805
 40
0.4554253
 40
0.7155329149
 40
1.0
 40
1.0
 40
1.0
 40
1.0
 10
136.18970886
 20
70.2689646497
 30
0.0
 10
136.18970886
 20
70.4558386852
 30
0.0
 10
136.1504121431
 20
70.8345129989
 30
0.0
 10
135.9142155303
 20
71.5836878549
 30
0.0
 10
135.3159584224
 20
72.4636483624
 30
0.0
 10
134.2456042885
 20
73.2921915922
 30
0.0
 10
133.3780136485
 20
73.6643184037
 30
0.0
 10
132.9118397679
 20
73.8080340896
 30
0.0
  0
SPLINE
  5
50D
100
AcDbEntity
  8
0
100
AcDbSpline
 62
7
  6
CONTINUOUS
 70
0
 71
3
 72
17
 73
13
 74
0
 42
0.0000001
 43
0.0000001
 44
0.0000000001
 40
0.0
 40
0.0
 40
0.0
 40
0.0
 40
0.0517809237
 40
0.1054811646
 40
0.2228479209
 40
0.3562855052
 40
0.5
 40
0.6437144948
 40
0.7771520791
 40
0.8945188354
 40
0.9482190763
 40
1.0
 40
1.0
 40
1.0
 40
1.0
 10
119.1943775622
 20
69.3174011799
 30
0.0
 10
119.1943775622
 20
69.2035419107
 30
0.0
 10
119.2275283083
 20
68.9704337654
 30
0.0
 10
119.4256233948
 20
68.5166872816
 30
0.0
 10
119.9151462915
 20
68.0268573453
 30
0.0
 10
120.7188183959
 20
67.6658922567
 30
0.0
 10
121.6475655466
 20
67.5396151063
 30
0.0
 10
122.5763126972
 20
67.6658922567
 30
0.0
 10
123.3799848016
 20
68.0268573453
 30
0.0
 10
123.8695076984
 20
68.5166872816
 30
0.0
 10
124.0676027848
 20
68.9704337654
 30
0.0
 10
124.100753531
 20
69.2035419107
 30
0.0
 10
124.100753531
 20
69.3174011799
 30
0.0
  0
SPLINE
  5
50E
100
AcDbEntity
  8
0
100
AcDbSpline
 62
7
  6
CONTINUOUS
 70
0
 71
3
 72
12
 73
8
 74
0
 42
0.0000001
 43
0.0000001
 44
0.0000000001
 40
0.0
 40
0.0
 40
0.0
 40
0.0
 40
0.1035930223
 40
0.210949621
 40
0.4457011106
 40
0.7125563401
 40
1.0
 40
1.0
 40
1.0
 40
1.0
 10
116.0654887276
 20
72.0222115032
 30
0.0
 10
116.0654706835
 20
72.1424948004
 30
0.0
 10
116.0304059493
 20
72.3886685704
 30
0.0
 10
115.8209775228
 20
72.8677661726
 30
0.0
 10
115.3039215991
 20
73.3850104916
 30
0.0
 10
114.4557597671
 20
73.7662177031
 30
0.0
 10
113.8081323923
 20
73.8539960303
 30
0.0
 10
113.4743775622
 20
73.8539960303
 30
0.0
  0
SPLINE
  5
50F
100
AcDbEntity
  8
0
100
AcDbSpline
 62
7
  6
CONTINUOUS
 70
0
 71
3
 72
9
 73
5
 74
0
 42
0.0000001
 43
0.0000001
 44
0.0000000001
 40
0.0
 40
0.0
 40
0.0
 40
0.0
 40
0.4402133985
 40
1.0
 40
1.0
 40
1.0
 40
1.0
 10
101.8643358703
 20
69.4140725513
 30
0.0
 10
101.8643358703
 20
69.3839395733
 30
0.0
 10
101.9107429964
 20
69.3183214391
 30
0.0
 10
101.9820180058
 20
69.3037638934
 30
0.0
 10
102.0203358703
 20
69.3037638934
 30
0.0
  0
SPLINE
  5
510
100
AcDbEntity
  8
0
100
AcDbSpline
 62
7
  6
CONTINUOUS
 70
0
 71
3
 72
9
 73
5
 74
0
 42
0.0000001
 43
0.0000001
 44
0.0000000001
 40
0.0
 40
0.0
 40
0.0
 40
0.0
 40
0.4402133985
 40
1.0
 40
1.0
 40
1.0
 40
1.0
 10
102.9368358703
 20
69.4692268802
 30
0.0
 10
102.9368358703
 20
69.4993598582
 30
0.0
 10
102.8904287441
 20
69.5649779923
 30
0.0
 10
102.8191537347
 20
69.5795355381
 30
0.0
 10
102.7808358703
 20
69.5795355381
 30
0.0
  0
SPLINE
  5
511
100
AcDbEntity
  8
0
100
AcDbSpline
 62
7
  6
CONTINUOUS
 70
0
 71
3
 72
9
 73
5
 74
0
 42
0.0000001
 43
0.0000001
 44
0.0000000001
 40
0.0
 40
0.0
 40
0.0
 40
0.0
 40
0.4402133985
 40
1.0
 40
1.0
 40
1.0
 40
1.0
 10
102.9368358703
 20
72.2269433268
 30
0.0
 10
102.9368358703
 20
72.2570763048
 30
0.0
 10
102.8904287441
 20
72.3226944389
 30
0.0
 10
102.8191537347
 20
72.3372519847
 30
0.0
 10
102.7808358703
 20
72.3372519847
 30
0.0
  0
SPLINE
  5
512
100
AcDbEntity
  8
0
100
AcDbSpline
 62
7
  6
CONTINUOUS
 70
0
 71
3
 72
11
 73
7
 74
0
 42
0.0000001
 43
0.0000001
 44
0.0000000001
 40
0.0
 40
0.0
 40
0.0
 40
0.0
 40
0.2094668498
 40
0.4446559298
 40
0.7120302568
 40
1.0
 40
1.0
 40
1.0
 40
1.0
 10
100.7918358703
 20
70.820507939
 30
0.0
 10
100.7918358703
 20
70.7839648419
 30
0.0
 10
100.8155679722
 20
70.705472211
 30
0.0
 10
100.9064466223
 20
70.6155860775
 30
0.0
 10
101.0341033595
 20
70.5578708846
 30
0.0
 10
101.1315973417
 20
70.5447362944
 30
0.0
 10
101.1818358703
 20
70.5447362944
 30
0.0
  0
SPLINE
  5
513
100
AcDbEntity
  8
0
100
AcDbSpline
 62
7
  6
CONTINUOUS
 70
0
 71
3
 72
11
 73
7
 74
0
 42
0.0000001
 43
0.0000001
 44
0.0000000001
 40
0.0
 40
0.0
 40
0.0
 40
0.0
 40
0.2094668498
 40
0.4446559298
 40
0.7120302568
 40
1.0
 40
1.0
 40
1.0
 40
1.0
 10
100.7918358703
 20
68.0627914924
 30
0.0
 10
100.7918358703
 20
68.0262483952
 30
0.0
 10
100.8155679722
 20
67.9477557644
 30
0.0
 10
100.9064466223
 20
67.8578696309
 30
0.0
 10
101.0341033595
 20
67.800154438
 30
0.0
 10
101.1315973417
 20
67.7870198477
 30
0.0
 10
101.1818358703
 20
67.7870198477
 30
0.0
  0
SPLINE
  5
514
100
AcDbEntity
  8
0
100
AcDbSpline
 62
7
  6
CONTINUOUS
 70
0
 71
3
 72
9
 73
5
 74
0
 42
0.0000001
 43
0.0000001
 44
0.0000000001
 40
0.0
 40
0.0
 40
0.0
 40
0.0
 40
0.2432035461
 40
1.0
 40
1.0
 40
1.0
 40
1.0
 10
106.0568358703
 20
73.302452741
 30
0.0
 10
106.0568358703
 20
73.3240946426
 30
0.0
 10
106.0494361381
 20
73.4130845435
 30
0.0
 10
106.0111950084
 20
73.4982123599
 30
0.0
 10
105.9718223053
 20
73.5528486439
 30
0.0
  0
SPLINE
  5
515
100
AcDbEntity
  8
0
100
AcDbSpline
 62
7
  6
CONTINUOUS
 70
0
 71
3
 72
9
 73
5
 74
0
 42
0.0000001
 43
0.0000001
 44
0.0000000001
 40
0.0
 40
0.0
 40
0.0
 40
0.0
 40
0.4654299385
 40
1.0
 40
1.0
 40
1.0
 40
1.0
 10
105.9718223053
 20
73.5528486439
 30
0.0
 10
105.9013035809
 20
73.6507052998
 30
0.0
 10
105.6769906842
 20
73.807384904
 30
0.0
 10
105.4153723463
 20
73.8539960303
 30
0.0
 10
105.2768358703
 20
73.8539960303
 30
0.0
  0
SPLINE
  5
516
100
AcDbEntity
  8
RUNDUNGEN
100
AcDbSpline
 62
7
  6
CONTINUOUS
 70
0
 71
3
 72
11
 73
7
 74
0
 42
0.0000001
 43
0.0000001
 44
0.0000000001
 40
0.0
 40
0.0
 40
0.0
 40
0.0
 40
0.2256934588
 40
0.4632957354
 40
0.7206235605
 40
1.0
 40
1.0
 40
1.0
 40
1.0
 10
74.8305848261
 20
76.0627156541
 30
0.0
 10
74.8306546309
 20
76.1734823428
 30
0.0
 10
74.8709334697
 20
76.4024548418
 30
0.0
 10
75.0433987087
 20
76.7171974716
 30
0.0
 10
75.3135010748
 20
76.9902629594
 30
0.0
 10
75.5392183365
 20
77.1306029824
 30
0.0
 10
75.6620951806
 20
77.1914419495
 30
0.0
  0
SPLINE
  5
517
100
AcDbEntity
  8
RUNDUNGEN
100
AcDbSpline
 62
7
  6
CONTINUOUS
 70
0
 71
3
 72
9
 73
5
 74
0
 42
0.0000001
 43
0.0000001
 44
0.0000000001
 40
0.0
 40
0.0
 40
0.0
 40
0.0
 40
0.4805181646
 40
1.0
 40
1.0
 40
1.0
 40
1.0
 10
74.8305831458
 20
72.5271269043
 30
0.0
 10
74.8305031747
 20
72.3855744742
 30
0.0
 10
74.8977692173
 20
72.0882134409
 30
0.0
 10
75.0755456304
 20
71.8442709977
 30
0.0
 10
75.1832227452
 20
71.7355329252
 30
0.0
  0
SPLINE
  5
518
100
AcDbEntity
  8
RUNDUNGEN
100
AcDbSpline
 62
7
  6
CONTINUOUS
 70
0
 71
3
 72
11
 73
7
 74
0
 42
0.0000001
 43
0.0000001
 44
0.0000000001
 40
0.0
 40
0.0
 40
0.0
 40
0.0
 40
0.2256920307
 40
0.4632775486
 40
0.7205987639
 40
1.0
 40
1.0
 40
1.0
 40
1.0
 10
61.2787045836
 20
90.6495192405
 30
0.0
 10
61.2786382976
 20
90.9905709577
 30
0.0
 10
61.4019725519
 20
91.6956853931
 30
0.0
 10
61.9324512408
 20
92.6650976014
 30
0.0
 10
62.7638767134
 20
93.506129521
 30
0.0
 10
63.4588681297
 20
93.9383168218
 30
0.0
 10
63.8372430403
 20
94.1256583746
 30
0.0
  0
SPLINE
  5
519
100
AcDbEntity
  8
RUNDUNGEN
100
AcDbSpline
 62
7
  6
CONTINUOUS
 70
0
 71
3
 72
10
 73
6
 74
0
 42
0.0000001
 43
0.0000001
 44
0.0000000001
 40
0.0
 40
0.0
 40
0.0
 40
0.0
 40
0.2382861743
 40
0.4819054048
 40
1.0
 40
1.0
 40
1.0
 40
1.0
 10
61.2787045836
 20
87.1139853345
 30
0.0
 10
61.2787466294
 20
86.8976532723
 30
0.0
 10
61.3270357938
 20
86.4586402707
 30
0.0
 10
61.6155170633
 20
85.5924115149
 30
0.0
 10
62.0328285834
 20
85.0154997631
 30
0.0
 10
62.3637893927
 20
84.6812779506
 30
0.0
  0
SPLINE
  5
51A
100
AcDbEntity
  8
RUNDUNGEN
100
AcDbSpline
 62
7
  6
CONTINUOUS
 70
0
 71
3
 72
11
 73
7
 74
0
 42
0.0000001
 43
0.0000001
 44
0.0000000001
 40
0.0
 40
0.0
 40
0.0
 40
0.0
 40
0.2377805525
 40
0.4809056656
 40
0.7339193662
 40
1.0
 40
1.0
 40
1.0
 40
1.0
 10
137.5058453552
 20
45.3107149527
 30
0.0
 10
137.5058453803
 20
46.0320196402
 30
0.0
 10
137.6658583923
 20
47.4955002128
 30
0.0
 10
138.3753513502
 20
49.6218080379
 30
0.0
 10
139.5326129787
 20
51.6392895365
 30
0.0
 10
140.5548661875
 20
52.8487758605
 30
0.0
 10
141.1228044695
 20
53.422310118
 30
0.0
  0
SPLINE
  5
51B
100
AcDbEntity
  8
RUNDUNGEN
100
AcDbSpline
 62
7
  6
CONTINUOUS
 70
0
 71
3
 72
10
 73
6
 74
0
 42
0.0000001
 43
0.0000001
 44
0.0000000001
 40
0.0
 40
0.0
 40
0.0
 40
0.0
 40
0.2382962376
 40
0.4830925252
 40
1.0
 40
1.0
 40
1.0
 40
1.0
 10
137.6629367632
 20
47.0772558493
 30
0.0
 10
137.7649821598
 20
46.5048110066
 30
0.0
 10
138.0722199699
 20
45.3597796781
 30
0.0
 10
139.080054589
 20
43.1290875725
 30
0.0
 10
140.2353057155
 20
41.6308959205
 30
0.0
 10
141.1228044695
 20
40.734652517
 30
0.0
  0
SPLINE
  5
51C
100
AcDbEntity
  8
RUNDUNGEN
100
AcDbSpline
 62
7
  6
CONTINUOUS
 70
0
 71
3
 72
10
 73
6
 74
0
 42
0.0000001
 43
0.0000001
 44
0.0000000001
 40
0.0
 40
0.0
 40
0.0
 40
0.0
 40
0.2382825872
 40
0.4819247859
 40
1.0
 40
1.0
 40
1.0
 40
1.0
 10
73.2202839261
 20
19.1014503092
 30
0.0
 10
73.2202839261
 20
19.317840213
 30
0.0
 10
73.2684282393
 20
19.7570142217
 30
0.0
 10
73.5569404987
 20
20.6235178363
 30
0.0
 10
73.9743297675
 20
21.2006253402
 30
0.0
 10
74.3053716604
 20
21.5349290352
 30
0.0
  0
SPLINE
  5
51D
100
AcDbEntity
  8
BEZUGSACHSEN
100
AcDbSpline
 62
7
  6
CONTINUOUS
 70
0
 71
3
 72
9
 73
5
 74
0
 42
0.0000001
 43
0.0000001
 44
0.0000000001
 40
0.0
 40
0.0
 40
0.0
 40
0.0
 40
0.4742902326
 40
1.0
 40
1.0
 40
1.0
 40
1.0
 10
112.3231092654
 20
85.8464180723
 30
0.0
 10
112.5976924643
 20
85.4666976682
 30
0.0
 10
113.3330615746
 20
84.7760008229
 30
0.0
 10
114.2283313834
 20
84.3303494165
 30
0.0
 10
114.7168076758
 20
84.1538076076
 30
0.0
  0
SPLINE
  5
51E
100
AcDbEntity
  8
BEZUGSACHSEN
100
AcDbSpline
 62
7
  6
CONTINUOUS
 70
0
 71
3
 72
9
 73
5
 74
0
 42
0.0000001
 43
0.0000001
 44
0.0000000001
 40
0.0
 40
0.0
 40
0.0
 40
0.0
 40
0.5257097674
 40
1.0
 40
1.0
 40
1.0
 40
1.0
 10
119.7237601764
 20
84.1538076076
 30
0.0
 10
120.2122364688
 20
84.3303494165
 30
0.0
 10
121.1075062776
 20
84.7760008229
 30
0.0
 10
121.8428753879
 20
85.4666976682
 30
0.0
 10
122.1174585868
 20
85.8464180723
 30
0.0
  0
SPLINE
  5
51F
100
AcDbEntity
  8
BEZUGSACHSEN
100
AcDbSpline
 62
7
  6
CONTINUOUS
 70
0
 71
3
 72
11
 73
7
 74
0
 42
0.0000001
 43
0.0000001
 44
0.0000000001
 40
0.0
 40
0.0
 40
0.0
 40
0.0
 40
0.2211899434
 40
0.4572145773
 40
0.7166495597
 40
1.0
 40
1.0
 40
1.0
 40
1.0
 10
122.7202839261
 20
84.0811081332
 30
0.0
 10
122.7202839261
 20
84.4392431507
 30
0.0
 10
122.5691069322
 20
85.1860209818
 30
0.0
 10
121.9320147128
 20
86.180970832
 30
0.0
 10
120.954784309
 20
87.0021061344
 30
0.0
 10
120.1552266522
 20
87.3880048594
 30
0.0
 10
119.7237601764
 20
87.5439425646
 30
0.0
  0
SPLINE
  5
520
100
AcDbEntity
  8
BEZUGSACHSEN
100
AcDbSpline
 62
7
  6
CONTINUOUS
 70
0
 71
3
 72
11
 73
7
 74
0
 42
0.0000001
 43
0.0000001
 44
0.0000000001
 40
0.0
 40
0.0
 40
0.0
 40
0.0
 40
0.2833504403
 40
0.5427854227
 40
0.7788100566
 40
1.0
 40
1.0
 40
1.0
 40
1.0
 10
114.7168076758
 20
87.5439425646
 30
0.0
 10
114.2853412001
 20
87.3880048594
 30
0.0
 10
113.4857835432
 20
87.0021061344
 30
0.0
 10
112.5085531394
 20
86.180970832
 30
0.0
 10
111.8714609201
 20
85.1860209818
 30
0.0
 10
111.7202839261
 20
84.4392431507
 30
0.0
 10
111.7202839261
 20
84.0811081332
 30
0.0
  0
SPLINE
  5
521
100
AcDbEntity
  8
RUNDUNGEN
100
AcDbSpline
 62
7
  6
CONTINUOUS
 70
0
 71
3
 72
10
 73
6
 74
0
 42
0.0000001
 43
0.0000001
 44
0.0000000001
 40
0.0
 40
0.0
 40
0.0
 40
0.0
 40
0.518075049
 40
0.7617173212
 40
1.0
 40
1.0
 40
1.0
 40
1.0
 10
160.1351961918
 20
21.5349290352
 30
0.0
 10
160.4662379797
 20
21.2006254463
 30
0.0
 10
160.8836272257
 20
20.6235180474
 30
0.0
 10
161.172139566
 20
19.7570144558
 30
0.0
 10
161.2202839261
 20
19.3178402966
 30
0.0
 10
161.2202839261
 20
19.1014503092
 30
0.0
  0
SPLINE
  5
522
100
AcDbEntity
  8
RUNDUNGEN
100
AcDbSpline
 62
7
  6
CONTINUOUS
 70
0
 71
3
 72
11
 73
7
 74
0
 42
0.0000001
 43
0.0000001
 44
0.0000000001
 40
0.0
 40
0.0
 40
0.0
 40
0.0
 40
0.2793755178
 40
0.5367190517
 40
0.7743209251
 40
1.0
 40
1.0
 40
1.0
 40
1.0
 10
173.8799329891
 20
92.5033392239
 30
0.0
 10
174.005962276
 20
92.4409394145
 30
0.0
 10
174.2374765642
 20
92.2969933649
 30
0.0
 10
174.514513984
 20
92.0169141944
 30
0.0
 10
174.6913932025
 20
91.6940885342
 30
0.0
 10
174.732697918
 20
91.4592475631
 30
0.0
 10
174.7327656449
 20
91.3456459845
 30
0.0
  0
SPLINE
  5
523
100
AcDbEntity
  8
RUNDUNGEN
100
AcDbSpline
 62
7
  6
CONTINUOUS
 70
0
 71
3
 72
11
 73
7
 74
0
 42
0.0000001
 43
0.0000001
 44
0.0000000001
 40
0.0
 40
0.0
 40
0.0
 40
0.0
 40
0.2297148893
 40
0.4842569791
 40
0.747560889
 40
1.0
 40
1.0
 40
1.0
 40
1.0
 10
164.2135988557
 20
95.562913085
 30
0.0
 10
164.3732573777
 20
95.7241447448
 30
0.0
 10
164.7859026942
 20
95.9903778614
 30
0.0
 10
165.5091282808
 20
96.1802285008
 30
0.0
 10
166.278709283
 20
96.1694480209
 30
0.0
 10
166.7755935861
 20
96.020850395
 30
0.0
 10
166.999055817
 20
95.9102094403
 30
0.0
  0
SPLINE
  5
524
100
AcDbEntity
  8
0
100
AcDbSpline
 62
7
  6
CONTINUOUS
 70
0
 71
3
 72
9
 73
5
 74
0
 42
0.0000001
 43
0.0000001
 44
0.0000000001
 40
0.0
 40
0.0
 40
0.0
 40
0.0
 40
0.2415905642
 40
1.0
 40
1.0
 40
1.0
 40
1.0
 10
128.6918126531
 20
92.4836869246
 30
0.0
 10
128.0186895771
 20
92.8169646307
 30
0.0
 10
125.1614303503
 20
94.0509058671
 30
0.0
 10
122.071236324
 20
94.7205767403
 30
0.0
 10
119.7226488296
 20
94.9301065632
 30
0.0
  0
SPLINE
  5
525
100
AcDbEntity
  8
0
100
AcDbSpline
 62
7
  6
CONTINUOUS
 70
0
 71
3
 72
9
 73
5
 74
0
 42
0.0000001
 43
0.0000001
 44
0.0000000001
 40
0.0
 40
0.0
 40
0.0
 40
0.0
 40
0.2578604761
 40
1.0
 40
1.0
 40
1.0
 40
1.0
 10
114.7179190227
 20
94.9301065632
 30
0.0
 10
113.91950489
 20
94.8588758459
 30
0.0
 10
110.8377879012
 20
94.4505480847
 30
0.0
 10
107.8162312697
 20
93.5073387748
 30
0.0
 10
105.7487551991
 20
92.4836869246
 30
0.0
  0
SPLINE
  5
526
100
AcDbEntity
  8
RUNDUNGEN
100
AcDbSpline
 62
7
  6
CONTINUOUS
 70
0
 71
3
 72
11
 73
7
 74
0
 42
0.0000001
 43
0.0000001
 44
0.0000000001
 40
0.0
 40
0.0
 40
0.0
 40
0.0
 40
0.2406531541
 40
0.4918007366
 40
0.7471994329
 40
1.0
 40
1.0
 40
1.0
 40
1.0
 10
65.4755471289
 20
94.9368179499
 30
0.0
 10
66.65333754
 20
95.5199673032
 30
0.0
 10
69.1849421728
 20
96.4704970956
 30
0.0
 10
73.2144767797
 20
97.2213195712
 30
0.0
 10
77.3783471503
 20
97.3038457939
 30
0.0
 10
80.1402759004
 20
96.9035756978
 30
0.0
 10
81.4841570464
 20
96.587331492
 30
0.0
  0
SPLINE
  5
527
100
AcDbEntity
  8
0
100
AcDbSpline
 62
7
  6
CONTINUOUS
 70
0
 71
3
 72
11
 73
7
 74
0
 42
0.0000001
 43
0.0000001
 44
0.0000000001
 40
0.0
 40
0.0
 40
0.0
 40
0.0
 40
0.2880052506
 40
0.5553344723
 40
0.7905070702
 40
1.0
 40
1.0
 40
1.0
 40
1.0
 10
99.0368358703
 20
73.8539960303
 30
0.0
 10
98.936347128
 20
73.8539960303
 30
0.0
 10
98.7413524332
 20
73.827746886
 30
0.0
 10
98.4860933479
 20
73.7122483462
 30
0.0
 10
98.3042894133
 20
73.5325478583
 30
0.0
 10
98.2568358703
 20
73.3755475231
 30
0.0
 10
98.2568358703
 20
73.302452741
 30
0.0
  0
SPLINE
  5
528
100
AcDbEntity
  8
0
100
AcDbSpline
 62
7
  6
CONTINUOUS
 70
0
 71
3
 72
11
 73
7
 74
0
 42
0.0000001
 43
0.0000001
 44
0.0000000001
 40
0.0
 40
0.0
 40
0.0
 40
0.0
 40
0.2879697432
 40
0.5553440702
 40
0.7905331502
 40
1.0
 40
1.0
 40
1.0
 40
1.0
 10
103.1318358703
 20
70.5447362944
 30
0.0
 10
103.1820743988
 20
70.5447362944
 30
0.0
 10
103.279568381
 20
70.5578708846
 30
0.0
 10
103.4072251183
 20
70.6155860775
 30
0.0
 10
103.4981037684
 20
70.705472211
 30
0.0
 10
103.5218358703
 20
70.7839648419
 30
0.0
 10
103.5218358703
 20
70.820507939
 30
0.0
  0
SPLINE
  5
529
100
AcDbEntity
  8
0
100
AcDbSpline
 62
7
  6
CONTINUOUS
 70
0
 71
3
 72
11
 73
7
 74
0
 42
0.0000001
 43
0.0000001
 44
0.0000000001
 40
0.0
 40
0.0
 40
0.0
 40
0.0
 40
0.2879697432
 40
0.5553440702
 40
0.7905331502
 40
1.0
 40
1.0
 40
1.0
 40
1.0
 10
103.1318358703
 20
67.7870198477
 30
0.0
 10
103.1820743988
 20
67.7870198477
 30
0.0
 10
103.279568381
 20
67.800154438
 30
0.0
 10
103.4072251183
 20
67.8578696309
 30
0.0
 10
103.4981037684
 20
67.9477557644
 30
0.0
 10
103.5218358703
 20
68.0262483952
 30
0.0
 10
103.5218358703
 20
68.0627914924
 30
0.0
  0
SPLINE
  5
52A
100
AcDbEntity
  8
0
100
AcDbSpline
 62
7
  6
CONTINUOUS
 70
0
 71
3
 72
9
 73
5
 74
0
 42
0.0000001
 43
0.0000001
 44
0.0000000001
 40
0.0
 40
0.0
 40
0.0
 40
0.0
 40
0.5597866015
 40
1.0
 40
1.0
 40
1.0
 40
1.0
 10
101.5328358703
 20
72.3372519847
 30
0.0
 10
101.4945180058
 20
72.3372519847
 30
0.0
 10
101.4232429964
 20
72.3226944389
 30
0.0
 10
101.3768358703
 20
72.2570763048
 30
0.0
 10
101.3768358703
 20
72.2269433268
 30
0.0
  0
SPLINE
  5
52B
100
AcDbEntity
  8
0
100
AcDbSpline
 62
7
  6
CONTINUOUS
 70
0
 71
3
 72
9
 73
5
 74
0
 42
0.0000001
 43
0.0000001
 44
0.0000000001
 40
0.0
 40
0.0
 40
0.0
 40
0.0
 40
0.5597866015
 40
1.0
 40
1.0
 40
1.0
 40
1.0
 10
101.5328358703
 20
69.5795355381
 30
0.0
 10
101.4945180058
 20
69.5795355381
 30
0.0
 10
101.4232429964
 20
69.5649779923
 30
0.0
 10
101.3768358703
 20
69.4993598582
 30
0.0
 10
101.3768358703
 20
69.4692268802
 30
0.0
  0
SPLINE
  5
52C
100
AcDbEntity
  8
0
100
AcDbSpline
 62
7
  6
CONTINUOUS
 70
0
 71
3
 72
9
 73
5
 74
0
 42
0.0000001
 43
0.0000001
 44
0.0000000001
 40
0.0
 40
0.0
 40
0.0
 40
0.0
 40
0.5597866015
 40
1.0
 40
1.0
 40
1.0
 40
1.0
 10
102.2933358703
 20
69.3037638934
 30
0.0
 10
102.3316537347
 20
69.3037638934
 30
0.0
 10
102.4029287441
 20
69.3183214391
 30
0.0
 10
102.4493358703
 20
69.3839395733
 30
0.0
 10
102.4493358703
 20
69.4140725513
 30
0.0
  0
SPLINE
  5
52D
100
AcDbEntity
  8
0
100
AcDbSpline
 62
7
  6
CONTINUOUS
 70
0
 71
3
 72
11
 73
7
 74
0
 42
0.0000001
 43
0.0000001
 44
0.0000000001
 40
0.0
 40
0.0
 40
0.0
 40
0.0
 40
0.2880001164
 40
0.5553425139
 40
0.7905343079
 40
1.0
 40
1.0
 40
1.0
 40
1.0
 10
113.4743775622
 20
71.0261109472
 30
0.0
 10
113.6557843001
 20
71.0261109472
 30
0.0
 10
114.0077946827
 20
71.0735284731
 30
0.0
 10
114.4686761271
 20
71.2819510276
 30
0.0
 10
114.7968138905
 20
71.6064485773
 30
0.0
 10
114.8824699743
 20
71.8898606869
 30
0.0
 10
114.8824699743
 20
72.0217998277
 30
0.0
  0
SPLINE
  5
52E
100
AcDbEntity
  8
0
100
AcDbSpline
 62
7
  6
CONTINUOUS
 70
0
 71
3
 72
9
 73
5
 74
0
 42
0.0000001
 43
0.0000001
 44
0.0000000001
 40
0.0
 40
0.0
 40
0.0
 40
0.0
 40
0.2457811574
 40
1.0
 40
1.0
 40
1.0
 40
1.0
 10
132.9118397679
 20
73.8080340896
 30
0.0
 10
132.8871184917
 20
73.8156553556
 30
0.0
 10
132.7853296074
 20
73.8426511089
 30
0.0
 10
132.6794950762
 20
73.8539960303
 30
0.0
 10
132.6001107188
 20
73.8539960303
 30
0.0
  0
SPLINE
  5
52F
100
AcDbEntity
  8
0
100
AcDbSpline
 62
7
  6
CONTINUOUS
 70
0
 71
3
 72
11
 73
7
 74
0
 42
0.0000001
 43
0.0000001
 44
0.0000000001
 40
0.0
 40
0.0
 40
0.0
 40
0.0
 40
0.2779817175
 40
0.5346952233
 40
0.772857858
 40
1.0
 40
1.0
 40
1.0
 40
1.0
 10
132.8645769338
 20
67.6599977569
 30
0.0
 10
133.1379733249
 20
67.8080420934
 30
0.0
 10
133.6388801408
 20
68.1441615543
 30
0.0
 10
134.2341301257
 20
68.7830403074
 30
0.0
 10
134.6117084621
 20
69.5094303248
 30
0.0
 10
134.6991280214
 20
70.033304239
 30
0.0
 10
134.6991280214
 20
70.287349426
 30
0.0
  0
SPLINE
  5
530
100
AcDbEntity
  8
0
100
AcDbSpline
 62
7
  6
CONTINUOUS
 70
0
 71
3
 72
9
 73
5
 74
0
 42
0.0000001
 43
0.0000001
 44
0.0000000001
 40
0.0
 40
0.0
 40
0.0
 40
0.0
 40
0.2591205677
 40
1.0
 40
1.0
 40
1.0
 40
1.0
 10
132.6274581401
 20
67.6031720846
 30
0.0
 10
132.6486348097
 20
67.6031720846
 30
0.0
 10
132.7302144737
 20
67.6078459354
 30
0.0
 10
132.8113334333
 20
67.6311663642
 30
0.0
 10
132.8645769338
 20
67.6599977569
 30
0.0
  0
SPLINE
  5
531
100
AcDbEntity
  8
RUNDUNGEN
100
AcDbSpline
 62
7
  6
CONTINUOUS
 70
0
 71
3
 72
11
 73
7
 74
0
 42
0.0000001
 43
0.0000001
 44
0.0000000001
 40
0.0
 40
0.0
 40
0.0
 40
0.0
 40
0.287975155
 40
0.5553539353
 40
0.7905396327
 40
1.0
 40
1.0
 40
1.0
 40
1.0
 10
82.7202839261
 20
2.7614802498
 30
0.0
 10
82.7846935204
 20
2.7614802498
 30
0.0
 10
82.9096880576
 20
2.7783203044
 30
0.0
 10
83.0733514152
 20
2.8523160821
 30
0.0
 10
83.1898603026
 20
2.96755545
 30
0.0
 10
83.2202839261
 20
3.0681849556
 30
0.0
 10
83.2202839261
 20
3.1150336404
 30
0.0
  0
SPLINE
  5
532
100
AcDbEntity
  8
RUNDUNGEN
100
AcDbSpline
 62
7
  6
CONTINUOUS
 70
0
 71
3
 72
13
 73
9
 74
0
 42
0.0000001
 43
0.0000001
 44
0.0000000001
 40
0.0
 40
0.0
 40
0.0
 40
0.0
 40
0.1034546064
 40
0.2106689685
 40
0.3244963058
 40
0.4464318167
 40
0.7129512659
 40
1.0
 40
1.0
 40
1.0
 40
1.0
 10
73.2202839261
 20
7.004120937
 30
0.0
 10
73.2202839261
 20
6.7255617612
 30
0.0
 10
73.3011226866
 20
6.1554267445
 30
0.0
 10
73.6548687654
 20
5.3464248296
 30
0.0
 10
74.2223146501
 20
4.6075617907
 30
0.0
 10
75.2594884787
 20
3.7267424056
 30
0.0
 10
76.9492573639
 20
2.9627330308
 30
0.0
 10
78.4473839895
 20
2.7614802498
 30
0.0
 10
79.2202839261
 20
2.7614802498
 30
0.0
  0
SPLINE
  5
533
100
AcDbEntity
  8
RUNDUNGEN
100
AcDbSpline
 62
7
  6
CONTINUOUS
 70
0
 71
3
 72
11
 73
7
 74
0
 42
0.0000001
 43
0.0000001
 44
0.0000000001
 40
0.0
 40
0.0
 40
0.0
 40
0.0
 40
0.2297023479
 40
0.4842340123
 40
0.7475494683
 40
1.0
 40
1.0
 40
1.0
 40
1.0
 10
65.8339268326
 20
81.1769487603
 30
0.0
 10
65.9895854003
 20
81.019756467
 30
0.0
 10
66.3918908413
 20
80.7601860917
 30
0.0
 10
67.0970216617
 20
80.5750725953
 30
0.0
 10
67.8473761275
 20
80.58556936
 30
0.0
 10
68.3318618273
 20
80.7304549975
 30
0.0
 10
68.5497473699
 20
80.8383348138
 30
0.0
  0
SPLINE
  5
534
100
AcDbEntity
  8
RUNDUNGEN
100
AcDbSpline
 62
7
  6
CONTINUOUS
 70
0
 71
3
 72
9
 73
5
 74
0
 42
0.0000001
 43
0.0000001
 44
0.0000000001
 40
0.0
 40
0.0
 40
0.0
 40
0.0
 40
0.5194816466
 40
1.0
 40
1.0
 40
1.0
 40
1.0
 10
174.3710842049
 20
86.9981898119
 30
0.0
 10
174.4815317214
 20
87.1097255832
 30
0.0
 10
174.6638802027
 20
87.3599478276
 30
0.0
 10
174.7328589775
 20
87.6649665468
 30
0.0
 10
174.7327639923
 20
87.8101610514
 30
0.0
  0
SPLINE
  5
535
100
AcDbEntity
  8
RUNDUNGEN
100
AcDbSpline
 62
7
  6
CONTINUOUS
 70
0
 71
3
 72
13
 73
9
 74
0
 42
0.0000001
 43
0.0000001
 44
0.0000000001
 40
0.0
 40
0.0
 40
0.0
 40
0.0
 40
0.2870489714
 40
0.5535683803
 40
0.6755038887
 40
0.7893312167
 40
0.8965454657
 40
1.0
 40
1.0
 40
1.0
 40
1.0
 10
155.2202839261
 20
2.7614802498
 30
0.0
 10
155.9931845012
 20
2.7614802498
 30
0.0
 10
157.4913116945
 20
2.9627332334
 30
0.0
 10
159.18108084
 20
3.7267433118
 30
0.0
 10
160.2182543144
 20
4.6075629141
 30
0.0
 10
160.7856996563
 20
5.3464259414
 30
0.0
 10
161.1394453423
 20
6.1554274319
 30
0.0
 10
161.2202839261
 20
6.7255619557
 30
0.0
 10
161.2202839261
 20
7.004120937
 30
0.0
  0
SPLINE
  5
536
100
AcDbEntity
  8
RUNDUNGEN
100
AcDbSpline
 62
7
  6
CONTINUOUS
 70
0
 71
3
 72
11
 73
7
 74
0
 42
0.0000001
 43
0.0000001
 44
0.0000000001
 40
0.0
 40
0.0
 40
0.0
 40
0.0
 40
0.2094711443
 40
0.4446658249
 40
0.7120384825
 40
1.0
 40
1.0
 40
1.0
 40
1.0
 10
151.2202839261
 20
3.1150336404
 30
0.0
 10
151.2202839261
 20
3.0681825613
 30
0.0
 10
151.250711364
 20
2.9675488487
 30
0.0
 10
151.3672251899
 20
2.8523103149
 30
0.0
 10
151.5308873651
 20
2.7783183604
 30
0.0
 10
151.6558774042
 20
2.7614802498
 30
0.0
 10
151.7202839261
 20
2.7614802498
 30
0.0
  0
SPLINE
  5
537
100
AcDbEntity
  8
RUNDUNGEN
100
AcDbSpline
 62
7
  6
CONTINUOUS
 70
0
 71
3
 72
10
 73
6
 74
0
 42
0.0000001
 43
0.0000001
 44
0.0000000001
 40
0.0
 40
0.0
 40
0.0
 40
0.0
 40
0.47201694
 40
0.7322443513
 40
1.0
 40
1.0
 40
1.0
 40
1.0
 10
131.0403798501
 20
15.3280074255
 30
0.0
 10
131.681515861
 20
14.6805542116
 30
0.0
 10
132.9554898119
 20
13.9428571686
 30
0.0
 10
134.8253137095
 20
13.4544780005
 30
0.0
 10
135.847992845
 20
13.3680819676
 30
0.0
 10
136.364868138
 20
13.3680819676
 30
0.0
  0
SPLINE
  5
538
100
AcDbEntity
  8
RUNDUNGEN
100
AcDbSpline
 62
7
  6
CONTINUOUS
 70
0
 71
3
 72
10
 73
6
 74
0
 42
0.0000001
 43
0.0000001
 44
0.0000000001
 40
0.0
 40
0.0
 40
0.0
 40
0.0
 40
0.2677558652
 40
0.5279833681
 40
1.0
 40
1.0
 40
1.0
 40
1.0
 10
98.0756997143
 20
13.3680819676
 30
0.0
 10
98.5925754278
 20
13.3680819676
 30
0.0
 10
99.6152551705
 20
13.4544781084
 30
0.0
 10
101.4850790016
 20
13.9428576385
 30
0.0
 10
102.7590524063
 20
14.6805546308
 30
0.0
 10
103.4001880022
 20
15.3280074255
 30
0.0
  0
SPLINE
  5
539
100
AcDbEntity
  8
RUNDUNGEN
100
AcDbSpline
 62
7
  6
CONTINUOUS
 70
0
 71
3
 72
13
 73
9
 74
0
 42
0.0000001
 43
0.0000001
 44
0.0000000001
 40
0.0
 40
0.0
 40
0.0
 40
0.0
 40
0.1034546064
 40
0.2106689685
 40
0.3244963058
 40
0.4464318167
 40
0.7129512659
 40
1.0
 40
1.0
 40
1.0
 40
1.0
 10
83.2202839261
 20
9.1254412805
 30
0.0
 10
83.2202839261
 20
9.4040004562
 30
0.0
 10
83.3011226866
 20
9.9741354729
 30
0.0
 10
83.6548687654
 20
10.7831373879
 30
0.0
 10
84.2223146501
 20
11.5220004268
 30
0.0
 10
85.2594884787
 20
12.4028198119
 30
0.0
 10
86.9492573639
 20
13.1668291867
 30
0.0
 10
88.4473839895
 20
13.3680819676
 30
0.0
 10
89.2202839261
 20
13.3680819676
 30
0.0
  0
SPLINE
  5
53A
100
AcDbEntity
  8
RUNDUNGEN
100
AcDbSpline
 62
7
  6
CONTINUOUS
 70
0
 71
3
 72
13
 73
9
 74
0
 42
0.0000001
 43
0.0000001
 44
0.0000000001
 40
0.0
 40
0.0
 40
0.0
 40
0.0
 40
0.2870489714
 40
0.5535683803
 40
0.6755038887
 40
0.7893312167
 40
0.8965454657
 40
1.0
 40
1.0
 40
1.0
 40
1.0
 10
145.2202839261
 20
13.3680819676
 30
0.0
 10
145.9931845012
 20
13.3680819676
 30
0.0
 10
147.4913116945
 20
13.166828984
 30
0.0
 10
149.18108084
 20
12.4028189056
 30
0.0
 10
150.2182543144
 20
11.5219993034
 30
0.0
 10
150.7856996563
 20
10.7831362761
 30
0.0
 10
151.1394453423
 20
9.9741347856
 30
0.0
 10
151.2202839261
 20
9.4040002618
 30
0.0
 10
151.2202839261
 20
9.1254412805
 30
0.0
  0
SPLINE
  5
53B
100
AcDbEntity
  8
RUNDUNGEN
100
AcDbSpline
 62
7
  6
CONTINUOUS
 70
0
 71
3
 72
13
 73
9
 74
0
 42
0.0000001
 43
0.0000001
 44
0.0000000001
 40
0.0
 40
0.0
 40
0.0
 40
0.0
 40
0.2360077347
 40
0.3661261322
 40
0.5000000765
 40
0.633874052
 40
0.7639924192
 40
1.0
 40
1.0
 40
1.0
 40
1.0
 10
110.6670675718
 20
22.6664885776
 30
0.0
 10
111.4561555635
 20
23.4633515639
 30
0.0
 10
113.0238360452
 20
24.3713207271
 30
0.0
 10
115.3260192392
 20
24.9723476039
 30
0.0
 10
117.2202852014
 20
25.1326396061
 30
0.0
 10
119.1145509872
 20
24.972347217
 30
0.0
 10
121.4167333608
 20
24.3713200263
 30
0.0
 10
122.9844128033
 20
23.4633510442
 30
0.0
 10
123.7735002804
 20
22.6664885776
 30
0.0
  0
SPLINE
  5
53C
100
AcDbEntity
  8
RUNDUNGEN
100
AcDbSpline
 62
7
  6
CONTINUOUS
 70
0
 71
3
 72
10
 73
6
 74
0
 42
0.0000001
 43
0.0000001
 44
0.0000000001
 40
0.0
 40
0.0
 40
0.0
 40
0.0
 40
0.5169074801
 40
0.7617037573
 40
1.0
 40
1.0
 40
1.0
 40
1.0
 10
93.3177633828
 20
40.734652517
 30
0.0
 10
94.2052665169
 20
41.6309003438
 30
0.0
 10
95.3605226316
 20
43.1291003739
 30
0.0
 10
96.3683577273
 20
45.3598056054
 30
0.0
 10
96.6755935903
 20
46.5048435741
 30
0.0
 10
96.7776374496
 20
47.0772916125
 30
0.0
  0
SPLINE
  5
53D
100
AcDbEntity
  8
RUNDUNGEN
100
AcDbSpline
 62
7
  6
CONTINUOUS
 70
0
 71
3
 72
11
 73
7
 74
0
 42
0.0000001
 43
0.0000001
 44
0.0000000001
 40
0.0
 40
0.0
 40
0.0
 40
0.0
 40
0.2660806569
 40
0.5190943725
 40
0.7622194677
 40
1.0
 40
1.0
 40
1.0
 40
1.0
 10
93.3177633828
 20
53.422310118
 30
0.0
 10
93.885701787
 20
52.8487757371
 30
0.0
 10
94.9079551681
 20
51.6392891358
 30
0.0
 10
96.0652168883
 20
49.6218072693
 30
0.0
 10
96.7747097094
 20
47.495499157
 30
0.0
 10
96.934722522
 20
46.0320184952
 30
0.0
 10
96.934722497
 20
45.3107137763
 30
0.0
  0
SPLINE
  5
53E
100
AcDbEntity
  8
RUNDUNGEN
100
AcDbSpline
 62
7
  6
CONTINUOUS
 70
0
 71
3
 72
11
 73
7
 74
0
 42
0.0000001
 43
0.0000001
 44
0.0000000001
 40
0.0
 40
0.0
 40
0.0
 40
0.0
 40
0.2524507309
 40
0.5157647478
 40
0.7702968692
 40
1.0
 40
1.0
 40
1.0
 40
1.0
 10
72.8912532046
 20
82.9879076885
 30
0.0
 10
73.2543960665
 20
83.1677075264
 30
0.0
 10
74.0618704268
 20
83.4091827283
 30
0.0
 10
75.3124596676
 20
83.4266782979
 30
0.0
 10
76.4876779291
 20
83.1181574391
 30
0.0
 10
77.1581889333
 20
82.6855391627
 30
0.0
 10
77.4176207667
 20
82.4235511111
 30
0.0
  0
SPLINE
  5
53F
100
AcDbEntity
  8
RUNDUNGEN
100
AcDbSpline
 62
7
  6
CONTINUOUS
 70
0
 71
3
 72
12
 73
8
 74
0
 42
0.0000001
 43
0.0000001
 44
0.0000000001
 40
0.0
 40
0.0
 40
0.0
 40
0.0
 40
0.229548752
 40
0.354824285
 40
0.4846199281
 40
0.7477427284
 40
1.0
 40
1.0
 40
1.0
 40
1.0
 10
91.6583200052
 20
90.6865174769
 30
0.0
 10
92.1372875003
 20
90.202830648
 30
0.0
 10
93.0471248093
 20
89.6157451494
 30
0.0
 10
94.4037786549
 20
89.1355821675
 30
0.0
 10
95.9172612767
 20
88.8391564827
 30
0.0
 10
97.8541025083
 20
88.8671387976
 30
0.0
 10
99.3443135452
 20
89.3127101758
 30
0.0
 10
100.0146908891
 20
89.6446284109
 30
0.0
  0
SPLINE
  5
540
100
AcDbEntity
  8
RUNDUNGEN
100
AcDbSpline
 62
7
  6
CONTINUOUS
 70
0
 71
3
 72
9
 73
5
 74
0
 42
0.0000001
 43
0.0000001
 44
0.0000000001
 40
0.0
 40
0.0
 40
0.0
 40
0.0
 40
0.5194813996
 40
1.0
 40
1.0
 40
1.0
 40
1.0
 10
80.8017217412
 20
79.0061061156
 30
0.0
 10
80.9811874282
 20
78.824872128
 30
0.0
 10
81.2774864506
 20
78.4182906467
 30
0.0
 10
81.3895928839
 20
77.9226755003
 30
0.0
 10
81.3894544658
 20
77.6867493408
 30
0.0
  0
SPLINE
  5
541
100
AcDbEntity
  8
RUNDUNGEN
100
AcDbSpline
 62
7
  6
CONTINUOUS
 70
0
 71
3
 72
12
 73
8
 74
0
 42
0.0000001
 43
0.0000001
 44
0.0000000001
 40
0.0
 40
0.0
 40
0.0
 40
0.0
 40
0.2522592557
 40
0.5153839514
 40
0.6451804355
 40
0.7704554139
 40
1.0
 40
1.0
 40
1.0
 40
1.0
 10
145.5663447655
 20
84.1287432986
 30
0.0
 10
146.2367273912
 20
83.7968224483
 30
0.0
 10
147.7269505455
 20
83.3512491885
 30
0.0
 10
149.6638063754
 20
83.3232730671
 30
0.0
 10
151.1772941761
 20
83.6197067864
 30
0.0
 10
152.5339342735
 20
84.0998744279
 30
0.0
 10
153.4437568403
 20
84.6869543073
 30
0.0
 10
153.9227156493
 20
85.1706323646
 30
0.0
  0
SPLINE
  5
542
100
AcDbEntity
  8
0
100
AcDbSpline
 62
7
  6
CONTINUOUS
 70
0
 71
3
 72
9
 73
5
 74
0
 42
0.0000001
 43
0.0000001
 44
0.0000000001
 40
0.0
 40
0.0
 40
0.0
 40
0.0
 40
0.4402133985
 40
1.0
 40
1.0
 40
1.0
 40
1.0
 10
102.4493358703
 20
71.1238567482
 30
0.0
 10
102.4493358703
 20
71.1539897261
 30
0.0
 10
102.4029287441
 20
71.2196078603
 30
0.0
 10
102.3316537347
 20
71.234165406
 30
0.0
 10
102.2933358703
 20
71.234165406
 30
0.0
  0
SPLINE
  5
543
100
AcDbEntity
  8
0
100
AcDbSpline
 62
7
  6
CONTINUOUS
 70
0
 71
3
 72
11
 73
7
 74
0
 42
0.0000001
 43
0.0000001
 44
0.0000000001
 40
0.0
 40
0.0
 40
0.0
 40
0.0
 40
0.2094656921
 40
0.4446574861
 40
0.7119998836
 40
1.0
 40
1.0
 40
1.0
 40
1.0
 10
114.8824699743
 20
72.0217998277
 30
0.0
 10
114.8824699743
 20
72.1537389685
 30
0.0
 10
114.7968138905
 20
72.4371510781
 30
0.0
 10
114.4686761271
 20
72.7616486278
 30
0.0
 10
114.0077946827
 20
72.9700711823
 30
0.0
 10
113.6557843001
 20
73.0174887082
 30
0.0
 10
113.4743775622
 20
73.0174887082
 30
0.0
  0
SPLINE
  5
544
100
AcDbEntity
  8
0
100
AcDbSpline
 62
7
  6
CONTINUOUS
 70
0
 71
3
 72
9
 73
5
 74
0
 42
0.0000001
 43
0.0000001
 44
0.0000000001
 40
0.0
 40
0.0
 40
0.0
 40
0.0
 40
0.4402133985
 40
1.0
 40
1.0
 40
1.0
 40
1.0
 10
101.3768358703
 20
71.0687024192
 30
0.0
 10
101.3768358703
 20
71.0385694413
 30
0.0
 10
101.4232429964
 20
70.9729513071
 30
0.0
 10
101.4945180058
 20
70.9583937614
 30
0.0
 10
101.5328358703
 20
70.9583937614
 30
0.0
  0
SPLINE
  5
545
100
AcDbEntity
  8
0
100
AcDbSpline
 62
7
  6
CONTINUOUS
 70
0
 71
3
 72
11
 73
7
 74
0
 42
0.0000001
 43
0.0000001
 44
0.0000000001
 40
0.0
 40
0.0
 40
0.0
 40
0.0
 40
0.2094929298
 40
0.4446655277
 40
0.7119947494
 40
1.0
 40
1.0
 40
1.0
 40
1.0
 10
98.2568358703
 20
67.2354765584
 30
0.0
 10
98.2568358703
 20
67.1623817763
 30
0.0
 10
98.3042894133
 20
67.0053814411
 30
0.0
 10
98.4860933479
 20
66.8256809532
 30
0.0
 10
98.7413524332
 20
66.7101824134
 30
0.0
 10
98.936347128
 20
66.6839332691
 30
0.0
 10
99.0368358703
 20
66.6839332691
 30
0.0
  0
SPLINE
  5
546
100
AcDbEntity
  8
0
100
AcDbSpline
 62
7
  6
CONTINUOUS
 70
0
 71
3
 72
11
 73
7
 74
0
 42
0.0000001
 43
0.0000001
 44
0.0000000001
 40
0.0
 40
0.0
 40
0.0
 40
0.0
 40
0.2094668498
 40
0.4446559298
 40
0.7120302568
 40
1.0
 40
1.0
 40
1.0
 40
1.0
 10
103.5218358703
 20
69.7174213604
 30
0.0
 10
103.5218358703
 20
69.7539644576
 30
0.0
 10
103.4981037684
 20
69.8324570884
 30
0.0
 10
103.4072251183
 20
69.9223432219
 30
0.0
 10
103.279568381
 20
69.9800584148
 30
0.0
 10
103.1820743988
 20
69.993193005
 30
0.0
 10
103.1318358703
 20
69.993193005
 30
0.0
  0
SPLINE
  5
547
100
AcDbEntity
  8
0
100
AcDbSpline
 62
7
  6
CONTINUOUS
 70
0
 71
3
 72
9
 73
5
 74
0
 42
0.0000001
 43
0.0000001
 44
0.0000000001
 40
0.0
 40
0.0
 40
0.0
 40
0.0
 40
0.2445376398
 40
1.0
 40
1.0
 40
1.0
 40
1.0
 10
98.2568358703
 20
67.6950959662
 30
0.0
 10
98.2568358703
 20
67.6771030266
 30
0.0
 10
98.2620038123
 20
67.6035480196
 30
0.0
 10
98.2881455884
 20
67.5320113143
 30
0.0
 10
98.3162098349
 20
67.4840294871
 30
0.0
  0
SPLINE
  5
548
100
AcDbEntity
  8
0
100
AcDbSpline
 62
7
  6
CONTINUOUS
 70
0
 71
3
 72
9
 73
5
 74
0
 42
0.0000001
 43
0.0000001
 44
0.0000000001
 40
0.0
 40
0.0
 40
0.0
 40
0.0
 40
0.461013727
 40
1.0
 40
1.0
 40
1.0
 40
1.0
 10
98.3162098349
 20
67.4840294871
 30
0.0
 10
98.3800157679
 20
67.3749396083
 30
0.0
 10
98.6118815924
 20
67.1954223357
 30
0.0
 10
98.8890813547
 20
67.1435526769
 30
0.0
 10
99.0368358703
 20
67.1435526769
 30
0.0
  0
SPLINE
  5
549
100
AcDbEntity
  8
0
100
AcDbSpline
 62
7
  6
CONTINUOUS
 70
0
 71
3
 72
11
 73
7
 74
0
 42
0.0000001
 43
0.0000001
 44
0.0000000001
 40
0.0
 40
0.0
 40
0.0
 40
0.0
 40
0.2880052506
 40
0.5553344723
 40
0.7905070702
 40
1.0
 40
1.0
 40
1.0
 40
1.0
 10
105.2768358703
 20
66.6839332691
 30
0.0
 10
105.3773246126
 20
66.6839332691
 30
0.0
 10
105.5723193073
 20
66.7101824134
 30
0.0
 10
105.8275783926
 20
66.8256809532
 30
0.0
 10
106.0093823272
 20
67.0053814411
 30
0.0
 10
106.0568358703
 20
67.1623817763
 30
0.0
 10
106.0568358703
 20
67.2354765584
 30
0.0
  0
SPLINE
  5
54A
100
AcDbEntity
  8
RUNDUNGEN
100
AcDbSpline
 62
7
  6
CONTINUOUS
 70
0
 71
3
 72
11
 73
7
 74
0
 42
0.0000001
 43
0.0000001
 44
0.0000000001
 40
0.0
 40
0.0
 40
0.0
 40
0.0
 40
0.2377805525
 40
0.4809056656
 40
0.7339193662
 40
1.0
 40
1.0
 40
1.0
 40
1.0
 10
96.934722497
 20
45.3107137763
 30
0.0
 10
96.934722472
 20
44.5894090888
 30
0.0
 10
96.7747094599
 20
43.1259285163
 30
0.0
 10
96.0652165021
 20
40.9996206911
 30
0.0
 10
94.9079548735
 20
38.9821391925
 30
0.0
 10
93.8857016648
 20
37.7726528685
 30
0.0
 10
93.3177633828
 20
37.1991186111
 30
0.0
  0
SPLINE
  5
54B
100
AcDbEntity
  8
0
100
AcDbSpline
 62
7
  6
CONTINUOUS
 70
0
 71
3
 72
11
 73
7
 74
0
 42
0.0000001
 43
0.0000001
 44
0.0000000001
 40
0.0
 40
0.0
 40
0.0
 40
0.0
 40
0.2879697432
 40
0.5553440702
 40
0.7905331502
 40
1.0
 40
1.0
 40
1.0
 40
1.0
 10
101.1818358703
 20
69.993193005
 30
0.0
 10
101.1315973417
 20
69.993193005
 30
0.0
 10
101.0341033595
 20
69.9800584148
 30
0.0
 10
100.9064466223
 20
69.9223432219
 30
0.0
 10
100.8155679722
 20
69.8324570884
 30
0.0
 10
100.7918358703
 20
69.7539644576
 30
0.0
 10
100.7918358703
 20
69.7174213604
 30
0.0
  0
SPLINE
  5
54C
100
AcDbEntity
  8
0
100
AcDbSpline
 62
7
  6
CONTINUOUS
 70
0
 71
3
 72
11
 73
7
 74
0
 42
0.0000001
 43
0.0000001
 44
0.0000000001
 40
0.0
 40
0.0
 40
0.0
 40
0.0
 40
0.2879697432
 40
0.5553440702
 40
0.7905331502
 40
1.0
 40
1.0
 40
1.0
 40
1.0
 10
101.1818358703
 20
72.7509094517
 30
0.0
 10
101.1315973417
 20
72.7509094517
 30
0.0
 10
101.0341033595
 20
72.7377748614
 30
0.0
 10
100.9064466223
 20
72.6800596685
 30
0.0
 10
100.8155679722
 20
72.590173535
 30
0.0
 10
100.7918358703
 20
72.5116809042
 30
0.0
 10
100.7918358703
 20
72.475137807
 30
0.0
  0
SPLINE
  5
54D
100
AcDbEntity
  8
0
100
AcDbSpline
 62
7
  6
CONTINUOUS
 70
0
 71
3
 72
9
 73
5
 74
0
 42
0.0000001
 43
0.0000001
 44
0.0000000001
 40
0.0
 40
0.0
 40
0.0
 40
0.0
 40
0.5597866015
 40
1.0
 40
1.0
 40
1.0
 40
1.0
 10
102.0203358703
 20
71.234165406
 30
0.0
 10
101.9820180058
 20
71.234165406
 30
0.0
 10
101.9107429964
 20
71.2196078603
 30
0.0
 10
101.8643358703
 20
71.1539897261
 30
0.0
 10
101.8643358703
 20
71.1238567482
 30
0.0
  0
SPLINE
  5
54E
100
AcDbEntity
  8
0
100
AcDbSpline
 62
7
  6
CONTINUOUS
 70
0
 71
3
 72
9
 73
5
 74
0
 42
0.0000001
 43
0.0000001
 44
0.0000000001
 40
0.0
 40
0.0
 40
0.0
 40
0.0
 40
0.5597866015
 40
1.0
 40
1.0
 40
1.0
 40
1.0
 10
102.7808358703
 20
70.9583937614
 30
0.0
 10
102.8191537347
 20
70.9583937614
 30
0.0
 10
102.8904287441
 20
70.9729513071
 30
0.0
 10
102.9368358703
 20
71.0385694413
 30
0.0
 10
102.9368358703
 20
71.0687024192
 30
0.0
  0
SPLINE
  5
54F
100
AcDbEntity
  8
0
100
AcDbSpline
 62
7
  6
CONTINUOUS
 70
0
 71
3
 72
9
 73
5
 74
0
 42
0.0000001
 43
0.0000001
 44
0.0000000001
 40
0.0
 40
0.0
 40
0.0
 40
0.0
 40
0.5597866015
 40
1.0
 40
1.0
 40
1.0
 40
1.0
 10
102.7808358703
 20
68.2006773147
 30
0.0
 10
102.8191537347
 20
68.2006773147
 30
0.0
 10
102.8904287441
 20
68.2152348605
 30
0.0
 10
102.9368358703
 20
68.2808529946
 30
0.0
 10
102.9368358703
 20
68.3109859726
 30
0.0
  0
SPLINE
  5
550
100
AcDbEntity
  8
RUNDUNGEN
100
AcDbSpline
 62
7
  6
CONTINUOUS
 70
0
 71
3
 72
10
 73
6
 74
0
 42
0.0000001
 43
0.0000001
 44
0.0000000001
 40
0.0
 40
0.0
 40
0.0
 40
0.0
 40
0.2382826788
 40
0.481924951
 40
1.0
 40
1.0
 40
1.0
 40
1.0
 10
161.2202839261
 20
15.5659164033
 30
0.0
 10
161.2202839261
 20
15.7823063906
 30
0.0
 10
161.172139566
 20
16.2214805499
 30
0.0
 10
160.8836272257
 20
17.0879841415
 30
0.0
 10
160.4662379797
 20
17.6650915403
 30
0.0
 10
160.1351961918
 20
17.9993951293
 30
0.0
  0
SPLINE
  5
551
100
AcDbEntity
  8
0
100
AcDbSpline
 62
7
  6
CONTINUOUS
 70
0
 71
3
 72
11
 73
7
 74
0
 42
0.0000001
 43
0.0000001
 44
0.0000000001
 40
0.0
 40
0.0
 40
0.0
 40
0.0
 40
0.2865059912
 40
0.5484241175
 40
0.7833822346
 40
1.0
 40
1.0
 40
1.0
 40
1.0
 10
114.2831706369
 20
70.2811477068
 30
0.0
 10
114.531709672
 20
70.3388894714
 30
0.0
 10
114.9976722846
 20
70.5031849047
 30
0.0
 10
115.5804128028
 20
70.9038497983
 30
0.0
 10
115.97056224
 20
71.4229434414
 30
0.0
 10
116.0655176677
 20
71.8292946913
 30
0.0
 10
116.0654887276
 20
72.0222115032
 30
0.0
  0
SPLINE
  5
552
100
AcDbEntity
  8
0
100
AcDbSpline
 62
7
  6
CONTINUOUS
 70
0
 71
3
 72
9
 73
5
 74
0
 42
0.0000001
 43
0.0000001
 44
0.0000000001
 40
0.0
 40
0.0
 40
0.0
 40
0.0
 40
0.2536121958
 40
1.0
 40
1.0
 40
1.0
 40
1.0
 10
132.6001107188
 20
66.6839332691
 30
0.0
 10
132.6268031862
 20
66.6839332691
 30
0.0
 10
132.7320028695
 20
66.6877466534
 30
0.0
 10
132.836769517
 20
66.7067519729
 30
0.0
 10
132.9118397679
 20
66.7298952099
 30
0.0
  0
SPLINE
  5
553
100
AcDbEntity
  8
0
100
AcDbSpline
 62
7
  6
CONTINUOUS
 70
0
 71
3
 72
12
 73
8
 74
0
 42
0.0000001
 43
0.0000001
 44
0.0000000001
 40
0.0
 40
0.0
 40
0.0
 40
0.0
 40
0.2844670851
 40
0.5445747
 40
0.7798379195
 40
0.8910272787
 40
1.0
 40
1.0
 40
1.0
 40
1.0
 10
132.9118397679
 20
66.7298952099
 30
0.0
 10
133.3780136485
 20
66.8736108957
 30
0.0
 10
134.2456042885
 20
67.2457377073
 30
0.0
 10
135.3159584224
 20
68.0742809371
 30
0.0
 10
135.9142155303
 20
68.9542414445
 30
0.0
 10
136.1504121431
 20
69.7034163006
 30
0.0
 10
136.18970886
 20
70.0820906142
 30
0.0
 10
136.18970886
 20
70.2689646497
 30
0.0
  0
SPLINE
  5
554
100
AcDbEntity
  8
0
100
AcDbSpline
 62
7
  6
CONTINUOUS
 70
0
 71
3
 72
9
 73
5
 74
0
 42
0.0000001
 43
0.0000001
 44
0.0000000001
 40
0.0
 40
0.0
 40
0.0
 40
0.0
 40
0.239729366
 40
1.0
 40
1.0
 40
1.0
 40
1.0
 10
132.8645769338
 20
72.9147010952
 30
0.0
 10
132.847343604
 20
72.9240329553
 30
0.0
 10
132.7726822634
 20
72.9577448721
 30
0.0
 10
132.6896098228
 20
72.9715267674
 30
0.0
 10
132.6274581401
 20
72.9715267674
 30
0.0
  0
SPLINE
  5
555
100
AcDbEntity
  8
RUNDUNGEN
100
AcDbSpline
 62
7
  6
CONTINUOUS
 70
0
 71
3
 72
11
 73
7
 74
0
 42
0.0000001
 43
0.0000001
 44
0.0000000001
 40
0.0
 40
0.0
 40
0.0
 40
0.0
 40
0.2256941123
 40
0.4632959297
 40
0.7206237644
 40
1.0
 40
1.0
 40
1.0
 40
1.0
 10
174.7327639923
 20
87.8101610514
 30
0.0
 10
174.7326896724
 20
87.9237664722
 30
0.0
 10
174.6913737208
 20
88.158605423
 30
0.0
 10
174.5144850233
 20
88.4814109254
 30
0.0
 10
174.2374597853
 20
88.7614715703
 30
0.0
 10
174.0059584697
 20
88.9054073931
 30
0.0
 10
173.8799329891
 20
88.967805318
 30
0.0
  0
SPLINE
  5
556
100
AcDbEntity
  8
RUNDUNGEN
100
AcDbSpline
 62
7
  6
CONTINUOUS
 70
0
 71
3
 72
10
 73
6
 74
0
 42
0.0000001
 43
0.0000001
 44
0.0000000001
 40
0.0
 40
0.0
 40
0.0
 40
0.0
 40
0.5180752141
 40
0.7617174128
 40
1.0
 40
1.0
 40
1.0
 40
1.0
 10
74.3053716604
 20
17.9993951293
 30
0.0
 10
73.9743297675
 20
17.6650914343
 30
0.0
 10
73.5569404987
 20
17.0879839304
 30
0.0
 10
73.2684282393
 20
16.2214803157
 30
0.0
 10
73.2202839261
 20
15.7823063071
 30
0.0
 10
73.2202839261
 20
15.5659164033
 30
0.0
  0
SPLINE
  5
557
100
AcDbEntity
  8
RUNDUNGEN
100
AcDbSpline
 62
7
  6
CONTINUOUS
 70
0
 71
3
 72
11
 73
7
 74
0
 42
0.0000001
 43
0.0000001
 44
0.0000000001
 40
0.0
 40
0.0
 40
0.0
 40
0.0
 40
0.2793752682
 40
0.5367194959
 40
0.7743217448
 40
1.0
 40
1.0
 40
1.0
 40
1.0
 10
75.6620951806
 20
73.6559080436
 30
0.0
 10
75.539214238
 20
73.5950670472
 30
0.0
 10
75.3134832297
 20
73.4547161908
 30
0.0
 10
75.0433678883
 20
73.1816308902
 30
0.0
 10
74.870912416
 20
72.8668660175
 30
0.0
 10
74.8306457224
 20
72.6378902943
 30
0.0
 10
74.8305831458
 20
72.5271269043
 30
0.0
  0
SPLINE
  5
558
100
AcDbEntity
  8
0
100
AcDbSpline
 62
7
  6
CONTINUOUS
 70
0
 71
3
 72
9
 73
5
 74
0
 42
0.0000001
 43
0.0000001
 44
0.0000000001
 40
0.0
 40
0.0
 40
0.0
 40
0.0
 40
0.4402133985
 40
1.0
 40
1.0
 40
1.0
 40
1.0
 10
101.3768358703
 20
71.528321827
 30
0.0
 10
101.3768358703
 20
71.498188849
 30
0.0
 10
101.4232429964
 20
71.4325707149
 30
0.0
 10
101.4945180058
 20
71.4180131691
 30
0.0
 10
101.5328358703
 20
71.4180131691
 30
0.0
  0
SPLINE
  5
559
100
AcDbEntity
  8
0
100
AcDbSpline
 62
7
  6
CONTINUOUS
 70
0
 71
3
 72
11
 73
7
 74
0
 42
0.0000001
 43
0.0000001
 44
0.0000000001
 40
0.0
 40
0.0
 40
0.0
 40
0.0
 40
0.2094668498
 40
0.4446559298
 40
0.7120302568
 40
1.0
 40
1.0
 40
1.0
 40
1.0
 10
103.5218358703
 20
72.475137807
 30
0.0
 10
103.5218358703
 20
72.5116809042
 30
0.0
 10
103.4981037684
 20
72.590173535
 30
0.0
 10
103.4072251183
 20
72.6800596685
 30
0.0
 10
103.279568381
 20
72.7377748614
 30
0.0
 10
103.1820743988
 20
72.7509094517
 30
0.0
 10
103.1318358703
 20
72.7509094517
 30
0.0
  0
SPLINE
  5
55A
100
AcDbEntity
  8
BEZUGSACHSEN
100
AcDbSpline
 62
7
  6
CONTINUOUS
 70
0
 71
3
 72
19
 73
15
 74
0
 42
0.0000001
 43
0.0000001
 44
0.0000000001
 40
0.0
 40
0.0
 40
0.0
 40
0.0
 40
0.0517263209
 40
0.1053355973
 40
0.1622490903
 40
0.223216447
 40
0.356475981
 40
0.5
 40
0.643524019
 40
0.776783553
 40
0.8377509097
 40
0.8946644027
 40
0.9482736791
 40
1.0
 40
1.0
 40
1.0
 40
1.0
 10
111.7202839261
 20
84.0811081332
 30
0.0
 10
111.7202839261
 20
83.8257676073
 30
0.0
 10
111.7944050812
 20
83.3031441652
 30
0.0
 10
112.1186379798
 20
82.5615420226
 30
0.0
 10
112.6388537749
 20
81.8842691029
 30
0.0
 10
113.589461242
 20
81.0768445569
 30
0.0
 10
115.1394362672
 20
80.3765231239
 30
0.0
 10
117.2202839261
 20
80.0963784177
 30
0.0
 10
119.3011315851
 20
80.3765231239
 30
0.0
 10
120.8511066103
 20
81.0768445569
 30
0.0
 10
121.8017140773
 20
81.8842691029
 30
0.0
 10
122.3219298724
 20
82.5615420226
 30
0.0
 10
122.6461627711
 20
83.3031441652
 30
0.0
 10
122.7202839261
 20
83.8257676073
 30
0.0
 10
122.7202839261
 20
84.0811081332
 30
0.0
  0
SPLINE
  5
55B
100
AcDbEntity
  8
RUNDUNGEN
100
AcDbSpline
 62
7
  6
CONTINUOUS
 70
0
 71
3
 72
11
 73
7
 74
0
 42
0.0000001
 43
0.0000001
 44
0.0000000001
 40
0.0
 40
0.0
 40
0.0
 40
0.0
 40
0.2794012361
 40
0.5367224514
 40
0.7743079693
 40
1.0
 40
1.0
 40
1.0
 40
1.0
 10
63.8372430403
 20
90.5901244686
 30
0.0
 10
63.4588681297
 20
90.4027829159
 30
0.0
 10
62.7638767134
 20
89.9705956151
 30
0.0
 10
61.9324512408
 20
89.1295636954
 30
0.0
 10
61.4019725519
 20
88.1601514871
 30
0.0
 10
61.2786382976
 20
87.4550370518
 30
0.0
 10
61.2787045836
 20
87.1139853345
 30
0.0
  0
SPLINE
  5
55C
100
AcDbEntity
  8
RUNDUNGEN
100
AcDbSpline
 62
7
  6
CONTINUOUS
 70
0
 71
3
 72
13
 73
9
 74
0
 42
0.0000001
 43
0.0000001
 44
0.0000000001
 40
0.0
 40
0.0
 40
0.0
 40
0.0
 40
0.229402447
 40
0.3545997007
 40
0.4843111918
 40
0.6162488567
 40
0.7479039473
 40
1.0
 40
1.0
 40
1.0
 40
1.0
 10
90.5446597804
 20
88.275616846
 30
0.0
 10
89.1077583774
 20
89.7266762398
 30
0.0
 10
86.37809234
 20
91.4880051937
 30
0.0
 10
82.3084852559
 20
92.9282155984
 30
0.0
 10
78.9156721322
 20
93.5935481431
 30
0.0
 10
75.4074611893
 20
93.780789055
 30
0.0
 10
70.8255545801
 20
93.3948873349
 30
0.0
 10
67.4866741326
 20
92.3970362597
 30
0.0
 10
65.4755471289
 20
91.401284044
 30
0.0
  0
SPLINE
  5
55D
100
AcDbEntity
  8
0
100
AcDbSpline
 62
7
  6
CONTINUOUS
 70
0
 71
3
 72
9
 73
5
 74
0
 42
0.0000001
 43
0.0000001
 44
0.0000000001
 40
0.0
 40
0.0
 40
0.0
 40
0.0
 40
0.2415905642
 40
1.0
 40
1.0
 40
1.0
 40
1.0
 10
128.6918126531
 20
88.9481530187
 30
0.0
 10
128.0186895771
 20
89.2814307248
 30
0.0
 10
125.1614303503
 20
90.5153719611
 30
0.0
 10
122.071236324
 20
91.1850428343
 30
0.0
 10
119.7226488296
 20
91.3945726573
 30
0.0
  0
SPLINE
  5
55E
100
AcDbEntity
  8
0
100
AcDbSpline
 62
7
  6
CONTINUOUS
 70
0
 71
3
 72
9
 73
5
 74
0
 42
0.0000001
 43
0.0000001
 44
0.0000000001
 40
0.0
 40
0.0
 40
0.0
 40
0.0
 40
0.2578604761
 40
1.0
 40
1.0
 40
1.0
 40
1.0
 10
114.7179190227
 20
91.3945726573
 30
0.0
 10
113.91950489
 20
91.32334194
 30
0.0
 10
110.8377879012
 20
90.9150141787
 30
0.0
 10
107.8162312697
 20
89.9718048689
 30
0.0
 10
105.7487551991
 20
88.9481530187
 30
0.0
  0
SPLINE
  5
55F
100
AcDbEntity
  8
RUNDUNGEN
100
AcDbSpline
 62
7
  6
CONTINUOUS
 70
0
 71
3
 72
11
 73
7
 74
0
 42
0.0000001
 43
0.0000001
 44
0.0000000001
 40
0.0
 40
0.0
 40
0.0
 40
0.0
 40
0.2524504617
 40
0.5157648241
 40
0.7702974184
 40
1.0
 40
1.0
 40
1.0
 40
1.0
 10
166.999055817
 20
92.3746755344
 30
0.0
 10
166.7755835256
 20
92.4853214702
 30
0.0
 10
166.2786762447
 20
92.6339218702
 30
0.0
 10
165.5090822628
 20
92.6446882113
 30
0.0
 10
164.7858708206
 20
92.4548288654
 30
0.0
 10
164.3732488326
 20
92.1886022095
 30
0.0
 10
164.2135988557
 20
92.0273791791
 30
0.0
  0
SPLINE
  5
560
100
AcDbEntity
  8
0
100
AcDbSpline
 62
7
  6
CONTINUOUS
 70
0
 71
3
 72
11
 73
7
 74
0
 42
0.0000001
 43
0.0000001
 44
0.0000000001
 40
0.0
 40
0.0
 40
0.0
 40
0.0
 40
0.227142142
 40
0.4653047767
 40
0.7220182825
 40
1.0
 40
1.0
 40
1.0
 40
1.0
 10
134.6991280214
 20
70.287349426
 30
0.0
 10
134.6991280214
 20
70.541394613
 30
0.0
 10
134.6117084621
 20
71.0652685272
 30
0.0
 10
134.2341301257
 20
71.7916585446
 30
0.0
 10
133.6388801408
 20
72.4305372978
 30
0.0
 10
133.1379733249
 20
72.7666567587
 30
0.0
 10
132.8645769338
 20
72.9147010952
 30
0.0
  0
SPLINE
  5
561
100
AcDbEntity
  8
0
100
AcDbSpline
 62
7
  6
CONTINUOUS
 70
0
 71
3
 72
9
 73
5
 74
0
 42
0.0000001
 43
0.0000001
 44
0.0000000001
 40
0.0
 40
0.0
 40
0.0
 40
0.0
 40
0.2536121958
 40
1.0
 40
1.0
 40
1.0
 40
1.0
 10
132.6001107188
 20
67.1435526769
 30
0.0
 10
132.6268031862
 20
67.1435526769
 30
0.0
 10
132.7320028695
 20
67.1473660611
 30
0.0
 10
132.836769517
 20
67.1663713807
 30
0.0
 10
132.9118397679
 20
67.1895146176
 30
0.0
  0
SPLINE
  5
562
100
AcDbEntity
  8
0
100
AcDbSpline
 62
7
  6
CONTINUOUS
 70
0
 71
3
 72
19
 73
15
 74
0
 42
0.0000001
 43
0.0000001
 44
0.0000000001
 40
0.0
 40
0.0
 40
0.0
 40
0.0
 40
0.0517234907
 40
0.1053372095
 40
0.1622487312
 40
0.2232163938
 40
0.3564752704
 40
0.5
 40
0.6435247296
 40
0.7767836062
 40
0.8377512688
 40
0.8946627905
 40
0.9482765093
 40
1.0
 40
1.0
 40
1.0
 40
1.0
 10
117.9463775622
 20
69.3174011799
 30
0.0
 10
117.9463775622
 20
69.1455811427
 30
0.0
 10
117.9962766968
 20
68.7938855578
 30
0.0
 10
118.2144353483
 20
68.2948164351
 30
0.0
 10
118.5645489515
 20
67.8390666868
 30
0.0
 10
119.2042265289
 20
67.295703381
 30
0.0
 10
120.2472754694
 20
66.8244266375
 30
0.0
 10
121.6475655466
 20
66.6358832213
 30
0.0
 10
123.0478556238
 20
66.8244266375
 30
0.0
 10
124.0909045643
 20
67.295703381
 30
0.0
 10
124.7305821417
 20
67.8390666868
 30
0.0
 10
125.0806957448
 20
68.2948164351
 30
0.0
 10
125.2988543964
 20
68.7938855578
 30
0.0
 10
125.348753531
 20
69.1455811427
 30
0.0
 10
125.348753531
 20
69.3174011799
 30
0.0
  0
SPLINE
  5
563
100
AcDbEntity
  8
0
100
AcDbSpline
 62
7
  6
CONTINUOUS
 70
0
 71
3
 72
9
 73
5
 74
0
 42
0.0000001
 43
0.0000001
 44
0.0000000001
 40
0.0
 40
0.0
 40
0.0
 40
0.0
 40
0.4402133985
 40
1.0
 40
1.0
 40
1.0
 40
1.0
 10
101.3768358703
 20
68.3109859726
 30
0.0
 10
101.3768358703
 20
68.2808529946
 30
0.0
 10
101.4232429964
 20
68.2152348605
 30
0.0
 10
101.4945180058
 20
68.2006773147
 30
0.0
 10
101.5328358703
 20
68.2006773147
 30
0.0
  0
SPLINE
  5
564
100
AcDbEntity
  8
0
100
AcDbSpline
 62
7
  6
CONTINUOUS
 70
0
 71
3
 72
11
 73
7
 74
0
 42
0.0000001
 43
0.0000001
 44
0.0000000001
 40
0.0
 40
0.0
 40
0.0
 40
0.0
 40
0.2816347582
 40
0.5420479832
 40
0.7798483853
 40
1.0
 40
1.0
 40
1.0
 40
1.0
 10
132.9118397679
 20
67.1895146176
 30
0.0
 10
133.332877466
 20
67.3193153724
 30
0.0
 10
134.1223498
 20
67.6482791312
 30
0.0
 10
135.1245480883
 20
68.3648427128
 30
0.0
 10
135.842484636
 20
69.2498668317
 30
0.0
 10
136.0959910446
 20
69.9384926382
 30
0.0
 10
136.1524219944
 20
70.2782450027
 30
0.0
  0
SPLINE
  5
565
100
AcDbEntity
  8
0
100
AcDbSpline
 62
7
  6
CONTINUOUS
 70
0
 71
3
 72
9
 73
5
 74
0
 42
0.0000001
 43
0.0000001
 44
0.0000000001
 40
0.0
 40
0.0
 40
0.0
 40
0.0
 40
0.2591205677
 40
1.0
 40
1.0
 40
1.0
 40
1.0
 10
132.6274581401
 20
73.4311461752
 30
0.0
 10
132.6486348097
 20
73.4311461752
 30
0.0
 10
132.7302144737
 20
73.4264723244
 30
0.0
 10
132.8113334333
 20
73.4031518956
 30
0.0
 10
132.8645769338
 20
73.3743205029
 30
0.0
  0
SPLINE
  5
566
100
AcDbEntity
  8
0
100
AcDbSpline
 62
7
  6
CONTINUOUS
 70
0
 71
3
 72
11
 73
7
 74
0
 42
0.0000001
 43
0.0000001
 44
0.0000000001
 40
0.0
 40
0.0
 40
0.0
 40
0.0
 40
0.2779697373
 40
0.5346991835
 40
0.7728568778
 40
1.0
 40
1.0
 40
1.0
 40
1.0
 10
132.8645769338
 20
73.3743205029
 30
0.0
 10
133.1379625218
 20
73.2262820163
 30
0.0
 10
133.6388633414
 20
72.8901483181
 30
0.0
 10
134.2341528705
 20
72.2512998531
 30
0.0
 10
134.6117168127
 20
71.5248832243
 30
0.0
 10
134.6991514097
 20
71.0010160273
 30
0.0
 10
134.6991514097
 20
70.7469688338
 30
0.0
  0
SPLINE
  5
567
100
AcDbEntity
  8
0
100
AcDbSpline
 62
7
  6
CONTINUOUS
 70
0
 71
3
 72
9
 73
5
 74
0
 42
0.0000001
 43
0.0000001
 44
0.0000000001
 40
0.0
 40
0.0
 40
0.0
 40
0.0
 40
0.4402133985
 40
1.0
 40
1.0
 40
1.0
 40
1.0
 10
101.3768358703
 20
68.7706053804
 30
0.0
 10
101.3768358703
 20
68.7404724024
 30
0.0
 10
101.4232429964
 20
68.6748542683
 30
0.0
 10
101.4945180058
 20
68.6602967225
 30
0.0
 10
101.5328358703
 20
68.6602967225
 30
0.0
  0
SPLINE
  5
568
100
AcDbEntity
  8
0
100
AcDbSpline
 62
7
  6
CONTINUOUS
 70
0
 71
3
 72
19
 73
15
 74
0
 42
0.0000001
 43
0.0000001
 44
0.0000000001
 40
0.0
 40
0.0
 40
0.0
 40
0.0
 40
0.051855061
 40
0.1061589371
 40
0.1638754827
 40
0.2253669227
 40
0.3583203672
 40
0.5
 40
0.6416796328
 40
0.7746330773
 40
0.8361245173
 40
0.8938410629
 40
0.948144939
 40
1.0
 40
1.0
 40
1.0
 40
1.0
 10
117.9738296204
 20
69.4592911858
 30
0.0
 10
118.001338791
 20
69.3002988373
 30
0.0
 10
118.1000681363
 20
68.9809008854
 30
0.0
 10
118.3632619519
 20
68.539449905
 30
0.0
 10
118.7328489311
 20
68.1409464574
 30
0.0
 10
119.3659689774
 20
67.6713454142
 30
0.0
 10
120.3489011527
 20
67.2668274943
 30
0.0
 10
121.6475655466
 20
67.1047514881
 30
0.0
 10
122.9462299405
 20
67.2668274943
 30
0.0
 10
123.9291621158
 20
67.6713454142
 30
0.0
 10
124.562282162
 20
68.1409464574
 30
0.0
 10
124.9318691413
 20
68.539449905
 30
0.0
 10
125.1950629568
 20
68.9809008854
 30
0.0
 10
125.2937923021
 20
69.3002988373
 30
0.0
 10
125.3213014728
 20
69.4592911858
 30
0.0
  0
SPLINE
  5
569
100
AcDbEntity
  8
0
100
AcDbSpline
 62
7
  6
CONTINUOUS
 70
0
 71
3
 72
11
 73
7
 74
0
 42
0.0000001
 43
0.0000001
 44
0.0000000001
 40
0.0
 40
0.0
 40
0.0
 40
0.0
 40
0.2782911642
 40
0.539206302
 40
0.7792454761
 40
1.0
 40
1.0
 40
1.0
 40
1.0
 10
114.2831706369
 20
70.7407671145
 30
0.0
 10
114.480836949
 20
70.7866898875
 30
0.0
 10
114.8570593416
 20
70.9101322955
 30
0.0
 10
115.3544325044
 20
71.1938275268
 30
0.0
 10
115.7425962592
 20
71.5571607244
 30
0.0
 10
115.9174194999
 20
71.8514402708
 30
0.0
 10
115.975076713
 20
72.0017351155
 30
0.0
  0
SPLINE
  5
56A
100
AcDbEntity
  8
0
100
AcDbSpline
 62
7
  6
CONTINUOUS
 70
0
 71
3
 72
8
 73
4
 74
0
 42
0.0000001
 43
0.0000001
 44
0.0000000001
 40
0.0
 40
0.0
 40
0.0
 40
0.0
 40
1.0
 40
1.0
 40
1.0
 40
1.0
 10
115.975076713
 20
72.0017351155
 30
0.0
 10
116.0049065492
 20
72.0794924393
 30
0.0
 10
116.028034692
 20
72.1602173885
 30
0.0
 10
116.0432933727
 20
72.2420904194
 30
0.0
  0
SPLINE
  5
56B
100
AcDbEntity
  8
0
100
AcDbSpline
 62
7
  6
CONTINUOUS
 70
0
 71
3
 72
11
 73
7
 74
0
 42
0.0000001
 43
0.0000001
 44
0.0000000001
 40
0.0
 40
0.0
 40
0.0
 40
0.0
 40
0.2880066977
 40
0.5553334191
 40
0.790532629
 40
1.0
 40
1.0
 40
1.0
 40
1.0
 10
113.4743775622
 20
73.477108116
 30
0.0
 10
113.6557877547
 20
73.477108116
 30
0.0
 10
114.0077972147
 20
73.4297090761
 30
0.0
 10
114.4686544924
 20
73.2212371654
 30
0.0
 10
114.7967911913
 20
72.8967670441
 30
0.0
 10
114.8824942809
 20
72.6133589313
 30
0.0
 10
114.8824942809
 20
72.4814192355
 30
0.0
  0
SPLINE
  5
56C
100
AcDbEntity
  8
0
100
AcDbSpline
 62
7
  6
CONTINUOUS
 70
0
 71
3
 72
9
 73
5
 74
0
 42
0.0000001
 43
0.0000001
 44
0.0000000001
 40
0.0
 40
0.0
 40
0.0
 40
0.0
 40
0.5597866015
 40
1.0
 40
1.0
 40
1.0
 40
1.0
 10
102.7808358703
 20
68.6602967225
 30
0.0
 10
102.8191537347
 20
68.6602967225
 30
0.0
 10
102.8904287441
 20
68.6748542683
 30
0.0
 10
102.9368358703
 20
68.7404724024
 30
0.0
 10
102.9368358703
 20
68.7706053804
 30
0.0
  0
SPLINE
  5
56D
100
AcDbEntity
  8
0
100
AcDbSpline
 62
7
  6
CONTINUOUS
 70
0
 71
3
 72
9
 73
5
 74
0
 42
0.0000001
 43
0.0000001
 44
0.0000000001
 40
0.0
 40
0.0
 40
0.0
 40
0.0
 40
0.4402133985
 40
1.0
 40
1.0
 40
1.0
 40
1.0
 10
101.8643358703
 20
71.5834761559
 30
0.0
 10
101.8643358703
 20
71.6136091339
 30
0.0
 10
101.9107429964
 20
71.6792272681
 30
0.0
 10
101.9820180058
 20
71.6937848138
 30
0.0
 10
102.0203358703
 20
71.6937848138
 30
0.0
  0
SPLINE
  5
56E
100
AcDbEntity
  8
RUNDUNGEN
100
AcDbSpline
 62
7
  6
CONTINUOUS
 70
0
 71
3
 72
11
 73
7
 74
0
 42
0.0000001
 43
0.0000001
 44
0.0000000001
 40
0.0
 40
0.0
 40
0.0
 40
0.0
 40
0.2256778953
 40
0.4632795617
 40
0.7206246471
 40
1.0
 40
1.0
 40
1.0
 40
1.0
 10
81.3894544658
 20
77.6867493408
 30
0.0
 10
81.3893461591
 20
77.5021464729
 30
0.0
 10
81.322229295
 20
77.1205278018
 30
0.0
 10
81.0348026876
 20
76.5959298381
 30
0.0
 10
80.5846139051
 20
76.1407961885
 30
0.0
 10
80.2083998911
 20
75.9068812445
 30
0.0
 10
80.0036010154
 20
75.8054809183
 30
0.0
  0
SPLINE
  5
56F
100
AcDbEntity
  8
0
100
AcDbSpline
 62
7
  6
CONTINUOUS
 70
0
 71
3
 72
9
 73
5
 74
0
 42
0.0000001
 43
0.0000001
 44
0.0000000001
 40
0.0
 40
0.0
 40
0.0
 40
0.0
 40
0.5597866015
 40
1.0
 40
1.0
 40
1.0
 40
1.0
 10
102.2933358703
 20
71.6937848138
 30
0.0
 10
102.3316537347
 20
71.6937848138
 30
0.0
 10
102.4029287441
 20
71.6792272681
 30
0.0
 10
102.4493358703
 20
71.6136091339
 30
0.0
 10
102.4493358703
 20
71.5834761559
 30
0.0
  0
SPLINE
  5
570
100
AcDbEntity
  8
0
100
AcDbSpline
 62
7
  6
CONTINUOUS
 70
0
 71
3
 72
9
 73
5
 74
0
 42
0.0000001
 43
0.0000001
 44
0.0000000001
 40
0.0
 40
0.0
 40
0.0
 40
0.0
 40
0.5597866015
 40
1.0
 40
1.0
 40
1.0
 40
1.0
 10
102.7808358703
 20
71.4180131691
 30
0.0
 10
102.8191537347
 20
71.4180131691
 30
0.0
 10
102.8904287441
 20
71.4325707149
 30
0.0
 10
102.9368358703
 20
71.498188849
 30
0.0
 10
102.9368358703
 20
71.528321827
 30
0.0
  0
SPLINE
  5
571
100
AcDbEntity
  8
0
100
AcDbSpline
 62
7
  6
CONTINUOUS
 70
0
 71
3
 72
11
 73
7
 74
0
 42
0.0000001
 43
0.0000001
 44
0.0000000001
 40
0.0
 40
0.0
 40
0.0
 40
0.0
 40
0.2876567391
 40
0.555407049
 40
0.7907201247
 40
1.0
 40
1.0
 40
1.0
 40
1.0
 10
103.1318358703
 20
73.2105288594
 30
0.0
 10
103.182012523
 20
73.2105288594
 30
0.0
 10
103.2794308976
 20
73.1971951104
 30
0.0
 10
103.4073261168
 20
73.1398478673
 30
0.0
 10
103.4979022354
 20
73.0496300071
 30
0.0
 10
103.5218358703
 20
72.9712624038
 30
0.0
 10
103.5218358703
 20
72.9347572148
 30
0.0
  0
SPLINE
  5
572
100
AcDbEntity
  8
0
100
AcDbSpline
 62
7
  6
CONTINUOUS
 70
0
 71
3
 72
8
 73
4
 74
0
 42
0.0000001
 43
0.0000001
 44
0.0000000001
 40
0.0
 40
0.0
 40
0.0
 40
0.0
 40
1.0
 40
1.0
 40
1.0
 40
1.0
 10
103.2359912702
 20
70.4426545684
 30
0.0
 10
103.2669708137
 20
70.4365738271
 30
0.0
 10
103.2975870116
 20
70.4277492752
 30
0.0
 10
103.3268358703
 20
70.4158660181
 30
0.0
  0
SPLINE
  5
573
100
AcDbEntity
  8
0
100
AcDbSpline
 62
7
  6
CONTINUOUS
 70
0
 71
3
 72
9
 73
5
 74
0
 42
0.0000001
 43
0.0000001
 44
0.0000000001
 40
0.0
 40
0.0
 40
0.0
 40
0.0
 40
0.5424756321
 40
1.0
 40
1.0
 40
1.0
 40
1.0
 10
103.3268358703
 20
70.4158660181
 30
0.0
 10
103.3808273542
 20
70.3939303011
 30
0.0
 10
103.4760394007
 20
70.3342159429
 30
0.0
 10
103.5218358703
 20
70.2261919772
 30
0.0
 10
103.5218358703
 20
70.1770407682
 30
0.0
  0
SPLINE
  5
574
100
AcDbEntity
  8
0
100
AcDbSpline
 62
7
  6
CONTINUOUS
 70
0
 71
3
 72
9
 73
5
 74
0
 42
0.0000001
 43
0.0000001
 44
0.0000000001
 40
0.0
 40
0.0
 40
0.0
 40
0.0
 40
0.4575243679
 40
1.0
 40
1.0
 40
1.0
 40
1.0
 10
100.7918358703
 20
70.1770407682
 30
0.0
 10
100.7918358703
 20
70.2261919772
 30
0.0
 10
100.8376323399
 20
70.3342159429
 30
0.0
 10
100.9328443864
 20
70.3939303011
 30
0.0
 10
100.9868358703
 20
70.4158660181
 30
0.0
  0
SPLINE
  5
575
100
AcDbEntity
  8
0
100
AcDbSpline
 62
7
  6
CONTINUOUS
 70
0
 71
3
 72
9
 73
5
 74
0
 42
0.0000001
 43
0.0000001
 44
0.0000000001
 40
0.0
 40
0.0
 40
0.0
 40
0.0
 40
0.2441493338
 40
1.0
 40
1.0
 40
1.0
 40
1.0
 10
100.9868358703
 20
70.4158660181
 30
0.0
 10
101.0018515945
 20
70.4219666223
 30
0.0
 10
101.0646949965
 20
70.4435528442
 30
0.0
 10
101.1316592175
 20
70.4528124128
 30
0.0
 10
101.1818358703
 20
70.4528124128
 30
0.0
  0
SPLINE
  5
576
100
AcDbEntity
  8
0
100
AcDbSpline
 62
7
  6
CONTINUOUS
 70
0
 71
3
 72
11
 73
7
 74
0
 42
0.0000001
 43
0.0000001
 44
0.0000000001
 40
0.0
 40
0.0
 40
0.0
 40
0.0
 40
0.2092798753
 40
0.444592951
 40
0.7123432609
 40
1.0
 40
1.0
 40
1.0
 40
1.0
 10
100.7918358703
 20
72.9347572148
 30
0.0
 10
100.7918358703
 20
72.9712624038
 30
0.0
 10
100.8157695052
 20
73.0496300071
 30
0.0
 10
100.9063456237
 20
73.1398478673
 30
0.0
 10
101.0342408429
 20
73.1971951104
 30
0.0
 10
101.1316592175
 20
73.2105288594
 30
0.0
 10
101.1818358703
 20
73.2105288594
 30
0.0
  0
SPLINE
  5
577
100
AcDbEntity
  8
0
100
AcDbSpline
 62
7
  6
CONTINUOUS
 70
0
 71
3
 72
9
 73
5
 74
0
 42
0.0000001
 43
0.0000001
 44
0.0000000001
 40
0.0
 40
0.0
 40
0.0
 40
0.0
 40
0.538986273
 40
1.0
 40
1.0
 40
1.0
 40
1.0
 10
105.2768358703
 20
67.1435526769
 30
0.0
 10
105.4245903858
 20
67.1435526769
 30
0.0
 10
105.7017901482
 20
67.1954223357
 30
0.0
 10
105.9336559727
 20
67.3749396083
 30
0.0
 10
105.9974619056
 20
67.4840294871
 30
0.0
  0
SPLINE
  5
578
100
AcDbEntity
  8
0
100
AcDbSpline
 62
7
  6
CONTINUOUS
 70
0
 71
3
 72
9
 73
5
 74
0
 42
0.0000001
 43
0.0000001
 44
0.0000000001
 40
0.0
 40
0.0
 40
0.0
 40
0.0
 40
0.2592261758
 40
1.0
 40
1.0
 40
1.0
 40
1.0
 10
105.9974619056
 20
67.4840294871
 30
0.0
 10
106.0070895802
 20
67.5004900543
 30
0.0
 10
106.0403999165
 20
67.5661125044
 30
0.0
 10
106.0568358703
 20
67.6406025511
 30
0.0
 10
106.0568358703
 20
67.6950959662
 30
0.0
  0
SPLINE
  5
579
100
AcDbEntity
  8
RUNDUNGEN
100
AcDbSpline
 62
7
  6
CONTINUOUS
 70
0
 71
3
 72
12
 73
8
 74
0
 42
0.0000001
 43
0.0000001
 44
0.0000000001
 40
0.0
 40
0.0
 40
0.0
 40
0.0
 40
0.2522592557
 40
0.5153839514
 40
0.6451804355
 40
0.7704554139
 40
1.0
 40
1.0
 40
1.0
 40
1.0
 10
100.0146908891
 20
86.109094505
 30
0.0
 10
99.3443082633
 20
85.7771736547
 30
0.0
 10
97.8540851091
 20
85.3316003949
 30
0.0
 10
95.9172292792
 20
85.3036242735
 30
0.0
 10
94.4037414785
 20
85.6000579928
 30
0.0
 10
93.0471013811
 20
86.0802256343
 30
0.0
 10
92.1372788142
 20
86.6673055137
 30
0.0
 10
91.6583200052
 20
87.150983571
 30
0.0
  0
SPLINE
  5
57A
100
AcDbEntity
  8
RUNDUNGEN
100
AcDbSpline
 62
7
  6
CONTINUOUS
 70
0
 71
3
 72
11
 73
7
 74
0
 42
0.0000001
 43
0.0000001
 44
0.0000000001
 40
0.0
 40
0.0
 40
0.0
 40
0.0
 40
0.2660806569
 40
0.5190943725
 40
0.7622194677
 40
1.0
 40
1.0
 40
1.0
 40
1.0
 10
141.1228044695
 20
37.1991186111
 30
0.0
 10
140.5548660652
 20
37.772652992
 30
0.0
 10
139.5326126842
 20
38.9821395932
 30
0.0
 10
138.3753509639
 20
40.9996214598
 30
0.0
 10
137.6658581428
 20
43.1259295721
 30
0.0
 10
137.5058453302
 20
44.5894102338
 30
0.0
 10
137.5058453552
 20
45.3107149527
 30
0.0
  0
SPLINE
  5
57B
100
AcDbEntity
  8
RUNDUNGEN
100
AcDbSpline
 62
7
  6
CONTINUOUS
 70
0
 71
3
 72
12
 73
8
 74
0
 42
0.0000001
 43
0.0000001
 44
0.0000000001
 40
0.0
 40
0.0
 40
0.0
 40
0.0
 40
0.229548752
 40
0.354824285
 40
0.4846199281
 40
0.7477427284
 40
1.0
 40
1.0
 40
1.0
 40
1.0
 10
153.9227156493
 20
81.6350984586
 30
0.0
 10
153.4437481543
 20
81.1514116297
 30
0.0
 10
152.5339108453
 20
80.5643261311
 30
0.0
 10
151.1772569996
 20
80.0841631492
 30
0.0
 10
149.6637743779
 20
79.7877374644
 30
0.0
 10
147.7269331462
 20
79.8157197793
 30
0.0
 10
146.2367221094
 20
80.2612911576
 30
0.0
 10
145.5663447655
 20
80.5932093926
 30
0.0
  0
SPLINE
  5
57C
100
AcDbEntity
  8
0
100
AcDbSpline
 62
7
  6
CONTINUOUS
 70
0
 71
3
 72
17
 73
13
 74
0
 42
0.0000001
 43
0.0000001
 44
0.0000000001
 40
0.0
 40
0.0
 40
0.0
 40
0.0
 40
0.052772865
 40
0.1285329
 40
0.231589692
 40
0.3649613986
 40
0.5302910969
 40
0.7221619844
 40
0.8177367522
 40
0.8992922349
 40
0.9591802617
 40
1.0
 40
1.0
 40
1.0
 40
1.0
 10
85.5179007216
 20
92.3632915999
 30
0.0
 10
85.3570088271
 20
92.3828360319
 30
0.0
 10
84.9821895364
 20
92.5363200731
 30
0.0
 10
84.4031368096
 20
92.9508538692
 30
0.0
 10
83.7043979168
 20
93.6116393746
 30
0.0
 10
82.8932768229
 20
94.5429250595
 30
0.0
 10
81.9942142768
 20
95.7535902091
 30
0.0
 10
81.2503821838
 20
96.9309247494
 30
0.0
 10
80.7212615987
 20
97.9337983358
 30
0.0
 10
80.4297739142
 20
98.6019644482
 30
0.0
 10
80.2623909932
 20
99.1375642157
 30
0.0
 10
80.2202839261
 20
99.4465372264
 30
0.0
 10
80.2202839261
 20
99.5719017312
 30
0.0
  0
SPLINE
  5
57D
100
AcDbEntity
  8
BEZUGSACHSEN
100
AcDbSpline
 62
7
  6
CONTINUOUS
 70
0
 71
3
 72
15
 73
11
 74
0
 42
0.0000001
 43
0.0000001
 44
0.0000000001
 40
0.0
 40
0.0
 40
0.0
 40
0.0
 40
0.1213952628
 40
0.2449248391
 40
0.3714323782
 40
0.5
 40
0.6285676218
 40
0.7550751609
 40
0.8786047372
 40
1.0
 40
1.0
 40
1.0
 40
1.0
 10
89.6202839261
 20
120.643068423
 30
0.0
 10
89.6202839261
 20
120.2754779723
 30
0.0
 10
89.7800910202
 20
119.5250692258
 30
0.0
 10
90.454374668
 20
118.5882896248
 30
0.0
 10
91.4518888449
 20
117.967709738
 30
0.0
 10
92.6202839261
 20
117.7515891077
 30
0.0
 10
93.7886790074
 20
117.967709738
 30
0.0
 10
94.7861931843
 20
118.5882896248
 30
0.0
 10
95.460476832
 20
119.5250692258
 30
0.0
 10
95.6202839261
 20
120.2754779723
 30
0.0
 10
95.6202839261
 20
120.643068423
 30
0.0
  0
SPLINE
  5
57E
100
AcDbEntity
  8
RUNDUNGEN
100
AcDbSpline
 62
7
  6
CONTINUOUS
 70
0
 71
3
 72
15
 73
11
 74
0
 42
0.0000001
 43
0.0000001
 44
0.0000000001
 40
0.0
 40
0.0
 40
0.0
 40
0.0
 40
0.1252277562
 40
0.2504161587
 40
0.3755308785
 40
0.500559858
 40
0.6255037456
 40
0.7503772326
 40
0.8752004012
 40
1.0
 40
1.0
 40
1.0
 40
1.0
 10
146.2202839261
 20
153.8136625228
 30
0.0
 10
146.740077063
 20
153.8136625133
 30
0.0
 10
147.7822637398
 20
153.7133713743
 30
0.0
 10
149.2854314764
 20
153.2672055256
 30
0.0
 10
150.6747944142
 20
152.5407170513
 30
0.0
 10
151.8964461986
 20
151.5596127796
 30
0.0
 10
152.9026500184
 20
150.3596449642
 30
0.0
 10
153.6527827157
 20
148.985637474
 30
0.0
 10
154.1158925002
 20
147.4914097543
 30
0.0
 10
154.2202839261
 20
146.45229323
 30
0.0
 10
154.2202839261
 20
145.9342772812
 30
0.0
  0
SPLINE
  5
57F
100
AcDbEntity
  8
RUNDUNGEN
100
AcDbSpline
 62
7
  6
CONTINUOUS
 70
0
 71
3
 72
15
 73
11
 74
0
 42
0.0000001
 43
0.0000001
 44
0.0000000001
 40
0.0
 40
0.0
 40
0.0
 40
0.0
 40
0.1252277528
 40
0.2504161566
 40
0.3755308766
 40
0.5005598565
 40
0.6255037444
 40
0.7503772318
 40
0.8752004008
 40
1.0
 40
1.0
 40
1.0
 40
1.0
 10
88.2202839261
 20
153.8136625228
 30
0.0
 10
87.7004908033
 20
153.8136625228
 30
0.0
 10
86.6583041363
 20
153.7133713697
 30
0.0
 10
85.1551364036
 20
153.2672055409
 30
0.0
 10
83.7657734579
 20
152.5407170627
 30
0.0
 10
82.544121667
 20
151.5596127933
 30
0.0
 10
81.5379178413
 20
150.3596449759
 30
0.0
 10
80.7877851405
 20
148.9856374827
 30
0.0
 10
80.3246753522
 20
147.4914097592
 30
0.0
 10
80.2202839261
 20
146.4522932318
 30
0.0
 10
80.2202839261
 20
145.9342772812
 30
0.0
  0
SPLINE
  5
580
100
AcDbEntity
  8
0
100
AcDbSpline
 62
7
  6
CONTINUOUS
 70
0
 71
3
 72
17
 73
13
 74
0
 42
0.0000001
 43
0.0000001
 44
0.0000000001
 40
0.0
 40
0.0
 40
0.0
 40
0.0
 40
0.0408294663
 40
0.1007405578
 40
0.182334829
 40
0.27794154
 40
0.4698344575
 40
0.6351616557
 40
0.7685120321
 40
0.8715376796
 40
0.9472618329
 40
1.0
 40
1.0
 40
1.0
 40
1.0
 10
154.2202839261
 20
99.5719017312
 30
0.0
 10
154.2202839261
 20
99.4464948954
 30
0.0
 10
154.1781460099
 20
99.1373910761
 30
0.0
 10
154.0106397246
 20
98.6015404754
 30
0.0
 10
153.7189624337
 20
97.9330633046
 30
0.0
 10
153.1895781177
 20
96.9298791466
 30
0.0
 10
152.4455127048
 20
95.7523414177
 30
0.0
 10
151.5462609346
 20
94.5416356452
 30
0.0
 10
150.7350717471
 20
93.6104702546
 30
0.0
 10
150.0363344695
 20
92.949930726
 30
0.0
 10
149.4573528365
 20
92.5357159393
 30
0.0
 10
149.0825701052
 20
92.3825312731
 30
0.0
 10
148.9217458813
 20
92.3631809256
 30
0.0
  0
SPLINE
  5
581
100
AcDbEntity
  8
BEZUGSACHSEN
100
AcDbSpline
 62
7
  6
CONTINUOUS
 70
0
 71
3
 72
15
 73
11
 74
0
 42
0.0000001
 43
0.0000001
 44
0.0000000001
 40
0.0
 40
0.0
 40
0.0
 40
0.0
 40
0.133491584
 40
0.2632772603
 40
0.3893481803
 40
0.5123021744
 40
0.6332972321
 40
0.7538700471
 40
0.8756429015
 40
1.0
 40
1.0
 40
1.0
 40
1.0
 10
107.4897154633
 20
153.8080927615
 30
0.0
 10
106.4651387137
 20
154.38496865
 30
0.0
 10
104.5452524129
 20
155.7151876188
 30
0.0
 10
102.1405386633
 20
158.1898666093
 30
0.0
 10
100.3220245163
 20
161.0147184915
 30
0.0
 10
99.1427103561
 20
164.0779366891
 30
0.0
 10
98.6301750342
 20
167.2713385986
 30
0.0
 10
98.7952229832
 20
170.4913368477
 30
0.0
 10
99.6337157088
 20
173.6337791803
 30
0.0
 10
100.6189808226
 20
175.5848965365
 30
0.0
 10
101.2074398473
 20
176.5087607157
 30
0.0
  0
SPLINE
  5
582
100
AcDbEntity
  8
BEZUGSACHSEN
100
AcDbSpline
 62
7
  6
CONTINUOUS
 70
0
 71
3
 72
15
 73
11
 74
0
 42
0.0000001
 43
0.0000001
 44
0.0000000001
 40
0.0
 40
0.0
 40
0.0
 40
0.0
 40
0.1243579747
 40
0.2461312902
 40
0.3667041833
 40
0.4876991314
 40
0.6106529223
 40
0.7367235147
 40
0.8665087629
 40
1.0
 40
1.0
 40
1.0
 40
1.0
 10
133.2330189196
 20
176.5089288175
 30
0.0
 10
133.821513486
 20
175.5850303833
 30
0.0
 10
134.806838644
 20
173.6338387548
 30
0.0
 10
135.6453658495
 20
170.4912666362
 30
0.0
 10
135.8103913273
 20
167.2711428593
 30
0.0
 10
135.2977832287
 20
164.0776326121
 30
0.0
 10
134.1183542235
 20
161.0143338979
 30
0.0
 10
132.299694604
 20
158.1894376969
 30
0.0
 10
129.8948163139
 20
155.7147540546
 30
0.0
 10
127.9748126028
 20
154.384563881
 30
0.0
 10
126.9501765591
 20
153.8077114309
 30
0.0
  0
SPLINE
  5
583
100
AcDbEntity
  8
0
100
AcDbSpline
 62
7
  6
CONTINUOUS
 70
0
 71
3
 72
15
 73
11
 74
0
 42
0.0000001
 43
0.0000001
 44
0.0000000001
 40
0.0
 40
0.0
 40
0.0
 40
0.0
 40
0.1229637708
 40
0.2475446398
 40
0.3734201295
 40
0.5
 40
0.6265798705
 40
0.7524553602
 40
0.8770362292
 40
1.0
 40
1.0
 40
1.0
 40
1.0
 10
122.9729099595
 20
130.2860166733
 30
0.0
 10
122.6257969733
 20
130.6891238084
 30
0.0
 10
121.8321780184
 20
131.4236648214
 30
0.0
 10
120.4259782336
 20
132.2429354632
 30
0.0
 10
118.8630363685
 20
132.7510867321
 30
0.0
 10
117.2202839261
 20
132.9230415533
 30
0.0
 10
115.5775314837
 20
132.7510867321
 30
0.0
 10
114.0145896187
 20
132.2429354632
 30
0.0
 10
112.6083898339
 20
131.4236648214
 30
0.0
 10
111.8147708789
 20
130.6891238084
 30
0.0
 10
111.4676578927
 20
130.2860166733
 30
0.0
  0
SPLINE
  5
584
100
AcDbEntity
  8
0
100
AcDbSpline
 62
7
  6
CONTINUOUS
 70
0
 71
3
 72
11
 73
7
 74
0
 42
0.0000001
 43
0.0000001
 44
0.0000000001
 40
0.0
 40
0.0
 40
0.0
 40
0.0
 40
0.0612385602
 40
0.2473307763
 40
0.5602877493
 40
1.0
 40
1.0
 40
1.0
 40
1.0
 10
91.177196583
 20
92.3220615507
 30
0.0
 10
91.1747824533
 20
92.3219912225
 30
0.0
 10
91.1785756221
 20
92.337768545
 30
0.0
 10
91.1791561331
 20
92.3536934118
 30
0.0
 10
91.1882128119
 20
92.3934601142
 30
0.0
 10
91.1939848049
 20
92.4213103022
 30
0.0
 10
91.1977761694
 20
92.4382323467
 30
0.0
  0
SPLINE
  5
585
100
AcDbEntity
  8
0
100
AcDbSpline
 62
7
  6
CONTINUOUS
 70
0
 71
3
 72
9
 73
5
 74
0
 42
0.0000001
 43
0.0000001
 44
0.0000000001
 40
0.0
 40
0.0
 40
0.0
 40
0.0
 40
0.3741977123
 40
1.0
 40
1.0
 40
1.0
 40
1.0
 10
91.1977761694
 20
92.4382323467
 30
0.0
 10
91.2253674286
 20
92.5613807576
 30
0.0
 10
91.3065518327
 20
92.8887694154
 30
0.0
 10
91.3903847778
 20
93.215429104
 30
0.0
 10
91.4437538871
 20
93.419627357
 30
0.0
  0
SPLINE
  5
586
100
AcDbEntity
  8
0
100
AcDbSpline
 62
7
  6
CONTINUOUS
 70
0
 71
3
 72
13
 73
9
 74
0
 42
0.0000001
 43
0.0000001
 44
0.0000000001
 40
0.0
 40
0.0
 40
0.0
 40
0.0
 40
0.2132645261
 40
0.3119781672
 40
0.4164954915
 40
0.533855587
 40
0.6686793078
 40
1.0
 40
1.0
 40
1.0
 40
1.0
 10
148.9217458813
 20
92.3631809256
 30
0.0
 10
148.8188890623
 20
92.3508052079
 30
0.0
 10
148.6572709681
 20
92.3637028418
 30
0.0
 10
148.4856866003
 20
92.4769982561
 30
0.0
 10
148.3855347276
 20
92.5987533433
 30
0.0
 10
148.3099831557
 20
92.7560713378
 30
0.0
 10
148.2344643671
 20
93.030328828
 30
0.0
 10
148.2202839261
 20
93.2586799066
 30
0.0
 10
148.2202839261
 20
93.419627357
 30
0.0
  0
SPLINE
  5
587
100
AcDbEntity
  8
BEZUGSACHSEN
100
AcDbSpline
 62
7
  6
CONTINUOUS
 70
0
 71
3
 72
15
 73
11
 74
0
 42
0.0000001
 43
0.0000001
 44
0.0000000001
 40
0.0
 40
0.0
 40
0.0
 40
0.0
 40
0.1215406594
 40
0.2453669307
 40
0.3718306227
 40
0.5
 40
0.6281693773
 40
0.7546330693
 40
0.8784593406
 40
1.0
 40
1.0
 40
1.0
 40
1.0
 10
95.5839868848
 20
120.6351470935
 30
0.0
 10
95.5291867831
 20
120.9637460242
 30
0.0
 10
95.2896115848
 20
121.6119066684
 30
0.0
 10
94.6023581238
 20
122.3927126167
 30
0.0
 10
93.6744072578
 20
122.9006595062
 30
0.0
 10
92.6202839261
 20
123.0763417967
 30
0.0
 10
91.5661605945
 20
122.9006595062
 30
0.0
 10
90.6382097284
 20
122.3927126167
 30
0.0
 10
89.9509562674
 20
121.6119066684
 30
0.0
 10
89.7113810691
 20
120.9637460242
 30
0.0
 10
89.6565809674
 20
120.6351470935
 30
0.0
  0
SPLINE
  5
588
100
AcDbEntity
  8
KONSTRUKTIONSELEMENTE
100
AcDbSpline
 62
7
  6
CONTINUOUS
 70
0
 71
3
 72
17
 73
13
 74
0
 42
0.0000001
 43
0.0000001
 44
0.0000000001
 40
0.0
 40
0.0
 40
0.0
 40
0.0
 40
0.0601290943
 40
0.1205969755
 40
0.1815656288
 40
0.2430377653
 40
0.3670842449
 40
0.4923845741
 40
0.618529943
 40
0.7452786166
 40
0.8724730832
 40
1.0
 40
1.0
 40
1.0
 40
1.0
 10
95.7801346729
 20
123.5561155474
 30
0.0
 10
95.7801346729
 20
123.9262661226
 30
0.0
 10
95.8683577147
 20
124.6712308353
 30
0.0
 10
96.2400770287
 20
125.7328271558
 30
0.0
 10
96.7991263858
 20
126.7158935674
 30
0.0
 10
97.7313917016
 20
127.9178632475
 30
0.0
 10
99.148010001
 20
129.2221746194
 30
0.0
 10
101.0647053621
 20
130.5234019787
 30
0.0
 10
103.1279441305
 20
131.610686215
 30
0.0
 10
105.2915270247
 20
132.5087303448
 30
0.0
 10
107.5274825718
 20
133.2334872996
 30
0.0
 10
109.0518777841
 20
133.6073329942
 30
0.0
 10
109.8202839261
 20
133.768114529
 30
0.0
  0
SPLINE
  5
589
100
AcDbEntity
  8
KONSTRUKTIONSELEMENTE
100
AcDbSpline
 62
7
  6
CONTINUOUS
 70
0
 71
3
 72
9
 73
5
 74
0
 42
0.0000001
 43
0.0000001
 44
0.0000000001
 40
0.0
 40
0.0
 40
0.0
 40
0.0
 40
0.5010964101
 40
1.0
 40
1.0
 40
1.0
 40
1.0
 10
95.0829003242
 20
117.6360520365
 30
0.0
 10
95.2992443905
 20
118.2066820202
 30
0.0
 10
95.651790167
 20
119.3785635236
 30
0.0
 10
95.7801346729
 20
120.5992895724
 30
0.0
 10
95.7801346729
 20
121.2068839955
 30
0.0
  0
SPLINE
  5
58A
100
AcDbEntity
  8
KONSTRUKTIONSELEMENTE
100
AcDbSpline
 62
7
  6
CONTINUOUS
 70
0
 71
3
 72
9
 73
5
 74
0
 42
0.0000001
 43
0.0000001
 44
0.0000000001
 40
0.0
 40
0.0
 40
0.0
 40
0.0
 40
0.4989035899
 40
1.0
 40
1.0
 40
1.0
 40
1.0
 10
138.6604331793
 20
121.2068839955
 30
0.0
 10
138.6604331793
 20
120.5992895724
 30
0.0
 10
138.7887776852
 20
119.3785635236
 30
0.0
 10
139.1413234618
 20
118.2066820202
 30
0.0
 10
139.357667528
 20
117.6360520365
 30
0.0
  0
SPLINE
  5
58B
100
AcDbEntity
  8
KONSTRUKTIONSELEMENTE
100
AcDbSpline
 62
7
  6
CONTINUOUS
 70
0
 71
3
 72
17
 73
13
 74
0
 42
0.0000001
 43
0.0000001
 44
0.0000000001
 40
0.0
 40
0.0
 40
0.0
 40
0.0
 40
0.1275284704
 40
0.2547250388
 40
0.3814761515
 40
0.5076242837
 40
0.6329264135
 40
0.7569702157
 40
0.8184409988
 40
0.879408362
 40
0.9398739028
 40
1.0
 40
1.0
 40
1.0
 40
1.0
 10
124.6202839261
 20
133.768114529
 30
0.0
 10
125.3886994645
 20
133.6073310281
 30
0.0
 10
126.9131166004
 20
133.233479307
 30
0.0
 10
129.1491059047
 20
132.5087048684
 30
0.0
 10
131.3127312388
 20
131.610644701
 30
0.0
 10
133.3759992224
 20
130.523321661
 30
0.0
 10
135.2926906603
 20
129.2220680926
 30
0.0
 10
136.7092856832
 20
127.9177503297
 30
0.0
 10
137.6415076021
 20
126.7157886545
 30
0.0
 10
138.2005309364
 20
125.7327428818
 30
0.0
 10
138.5722194172
 20
124.6711791358
 30
0.0
 10
138.6604331793
 20
123.9262476895
 30
0.0
 10
138.6604331793
 20
123.5561155474
 30
0.0
  0
SPLINE
  5
58C
100
AcDbEntity
  8
RUNDUNGEN
100
AcDbSpline
 62
7
  6
CONTINUOUS
 70
0
 71
3
 72
14
 73
10
 74
0
 42
0.0000001
 43
0.0000001
 44
0.0000000001
 40
0.0
 40
0.0
 40
0.0
 40
0.0
 40
0.0947362651
 40
0.194544581
 40
0.3033425993
 40
0.4233209362
 40
0.5548951723
 40
0.6968669039
 40
1.0
 40
1.0
 40
1.0
 40
1.0
 10
154.2202839261
 20
130.532756155
 30
0.0
 10
154.2202839261
 20
130.7789824317
 30
0.0
 10
154.1416381494
 20
131.2875095329
 30
0.0
 10
153.7984925058
 20
132.0076207501
 30
0.0
 10
153.2459843344
 20
132.6688621622
 30
0.0
 10
152.5037223509
 20
133.249353783
 30
0.0
 10
151.5950332713
 20
133.7292926601
 30
0.0
 10
150.1741831159
 20
134.218921469
 30
0.0
 10
149.0081483576
 20
134.3625806865
 30
0.0
 10
148.2202839261
 20
134.3625806865
 30
0.0
  0
SPLINE
  5
58D
100
AcDbEntity
  8
RUNDUNGEN
100
AcDbSpline
 62
7
  6
CONTINUOUS
 70
0
 71
3
 72
14
 73
10
 74
0
 42
0.0000001
 43
0.0000001
 44
0.0000000001
 40
0.0
 40
0.0
 40
0.0
 40
0.0
 40
0.0947362651
 40
0.194544581
 40
0.3033425993
 40
0.4233209362
 40
0.5548951723
 40
0.6968669039
 40
1.0
 40
1.0
 40
1.0
 40
1.0
 10
154.2202839261
 20
136.032756155
 30
0.0
 10
154.2202839261
 20
136.2789824317
 30
0.0
 10
154.1416381494
 20
136.7875095329
 30
0.0
 10
153.7984925058
 20
137.5076207501
 30
0.0
 10
153.2459843344
 20
138.1688621622
 30
0.0
 10
152.5037223509
 20
138.749353783
 30
0.0
 10
151.5950332713
 20
139.2292926601
 30
0.0
 10
150.1741831159
 20
139.718921469
 30
0.0
 10
149.0081483576
 20
139.8625806865
 30
0.0
 10
148.2202839261
 20
139.8625806865
 30
0.0
  0
SPLINE
  5
58E
100
AcDbEntity
  8
KONSTRUKTIONSELEMENTE
100
AcDbSpline
 62
7
  6
CONTINUOUS
 70
0
 71
3
 72
17
 73
13
 74
0
 42
0.0000001
 43
0.0000001
 44
0.0000000001
 40
0.0
 40
0.0
 40
0.0
 40
0.0
 40
0.1478723886
 40
0.2998556069
 40
0.4508732976
 40
0.5952602903
 40
0.7272465968
 40
0.8414379753
 40
0.890412272
 40
0.933346785
 40
0.9699326605
 40
1.0
 40
1.0
 40
1.0
 40
1.0
 10
95.0829003242
 20
117.6360520365
 30
0.0
 10
94.6669388485
 20
116.5389103663
 30
0.0
 10
93.9116204027
 20
114.2801969205
 30
0.0
 10
92.9885373858
 20
110.8219691964
 30
0.0
 10
92.2516809017
 20
107.3478618146
 30
0.0
 10
91.7023680555
 20
104.0001294843
 30
0.0
 10
91.3411288391
 20
100.9211770462
 30
0.0
 10
91.1869285003
 20
98.5825791348
 30
0.0
 10
91.1696857376
 20
96.9469094007
 30
0.0
 10
91.2052552698
 20
95.927415988
 30
0.0
 10
91.2880923632
 20
95.0613052349
 30
0.0
 10
91.383425178
 20
94.5397064598
 30
0.0
 10
91.4437538871
 20
94.3088797296
 30
0.0
  0
SPLINE
  5
58F
100
AcDbEntity
  8
KONSTRUKTIONSELEMENTE
100
AcDbSpline
 62
7
  6
CONTINUOUS
 70
0
 71
3
 72
17
 73
13
 74
0
 42
0.0000001
 43
0.0000001
 44
0.0000000001
 40
0.0
 40
0.0
 40
0.0
 40
0.0
 40
0.0300673395
 40
0.066653215
 40
0.109587728
 40
0.1585620247
 40
0.2727534032
 40
0.4047397097
 40
0.5491267024
 40
0.7001443931
 40
0.8521276114
 40
1.0
 40
1.0
 40
1.0
 40
1.0
 10
142.9968139651
 20
94.3088797296
 30
0.0
 10
143.0571426742
 20
94.5397064598
 30
0.0
 10
143.152475489
 20
95.0613052349
 30
0.0
 10
143.2353125824
 20
95.927415988
 30
0.0
 10
143.2708821146
 20
96.9469094007
 30
0.0
 10
143.2536393519
 20
98.5825791348
 30
0.0
 10
143.0994390131
 20
100.9211770462
 30
0.0
 10
142.7381997967
 20
104.0001294843
 30
0.0
 10
142.1888869506
 20
107.3478618146
 30
0.0
 10
141.4520304664
 20
110.8219691964
 30
0.0
 10
140.5289474495
 20
114.2801969205
 30
0.0
 10
139.7736290038
 20
116.5389103663
 30
0.0
 10
139.357667528
 20
117.6360520365
 30
0.0
  0
SPLINE
  5
590
100
AcDbEntity
  8
0
100
AcDbSpline
 62
7
  6
CONTINUOUS
 70
0
 71
3
 72
13
 73
9
 74
0
 42
0.0000001
 43
0.0000001
 44
0.0000000001
 40
0.0
 40
0.0
 40
0.0
 40
0.0
 40
0.331300329
 40
0.4661008089
 40
0.5834318137
 40
0.6879223104
 40
0.7866277736
 40
1.0
 40
1.0
 40
1.0
 40
1.0
 10
86.2202839261
 20
93.4196283189
 30
0.0
 10
86.2202839709
 20
93.2585890118
 30
0.0
 10
86.2060900457
 20
93.0301109764
 30
0.0
 10
86.1304646722
 20
92.7557304363
 30
0.0
 10
86.0548098054
 20
92.5983799649
 30
0.0
 10
85.9545188612
 20
92.4766425418
 30
0.0
 10
85.7826476855
 20
92.3634682458
 30
0.0
 10
85.6208603662
 20
92.35078452
 30
0.0
 10
85.5179007216
 20
92.3632915999
 30
0.0
  0
SPLINE
  5
591
100
AcDbEntity
  8
RUNDUNGEN
100
AcDbSpline
 62
7
  6
CONTINUOUS
 70
0
 71
3
 72
32
 73
28
 74
0
 42
0.0000001
 43
0.0000001
 44
0.0000000001
 40
0.0
 40
0.0
 40
0.0
 40
0.0
 40
0.0342109387
 40
0.0747795709
 40
0.1750584759
 40
0.2347527776
 40
0.3006767117
 40
0.372640877
 40
0.4503418867
 40
0.5332852588
 40
0.6206421746
 40
0.7109454493
 40
0.7563962666
 40
0.8013159644
 40
0.8447792501
 40
0.8853685092
 40
0.9209836856
 40
0.9360960205
 40
0.9489800811
 40
0.9593977216
 40
0.9673500386
 40
0.9730998439
 40
0.9774336782
 40
0.9816031815
 40
0.9866008787
 40
0.9927411465
 40
1.0
 40
1.0
 40
1.0
 40
1.0
 10
86.2202839261
 20
94.3088787678
 30
0.0
 10
86.2202839717
 20
94.4729714482
 30
0.0
 10
86.1957391344
 20
94.8316563947
 30
0.0
 10
86.0652672377
 20
95.661732027
 30
0.0
 10
85.8197400813
 20
96.5941561131
 30
0.0
 10
85.4845668289
 20
97.6244745752
 30
0.0
 10
85.1581023675
 20
98.5144593638
 30
0.0
 10
84.7707776093
 20
99.4734027706
 30
0.0
 10
84.3220223073
 20
100.4950631487
 30
0.0
 10
83.812433473
 20
101.5701018041
 30
0.0
 10
83.244330041
 20
102.6837251252
 30
0.0
 10
82.728438993
 20
103.6215810179
 30
0.0
 10
82.2896834692
 20
104.3689658728
 30
0.0
 10
81.9527009693
 20
104.9154029296
 30
0.0
 10
81.6141684772
 20
105.4332955625
 30
0.0
 10
81.2835968359
 20
105.9026530475
 30
0.0
 10
81.0142951033
 20
106.2485626841
 30
0.0
 10
80.8113703851
 20
106.4765823513
 30
0.0
 10
80.6809260024
 20
106.606898631
 30
0.0
 10
80.5657629605
 20
106.7033823785
 30
0.0
 10
80.4674205311
 20
106.7651267287
 30
0.0
 10
80.3842134251
 20
106.793839065
 30
0.0
 10
80.3125468505
 20
106.7844123863
 30
0.0
 10
80.2640980914
 20
106.7364282244
 30
0.0
 10
80.237094029
 20
106.6671557562
 30
0.0
 10
80.2225941903
 20
106.5797858681
 30
0.0
 10
80.2202839261
 20
106.5154285334
 30
0.0
 10
80.2202839261
 20
106.4806114608
 30
0.0
  0
SPLINE
  5
592
100
AcDbEntity
  8
RUNDUNGEN
100
AcDbSpline
 62
7
  6
CONTINUOUS
 70
0
 71
3
 72
32
 73
28
 74
0
 42
0.0000001
 43
0.0000001
 44
0.0000000001
 40
0.0
 40
0.0
 40
0.0
 40
0.0
 40
0.0072588992
 40
0.013399209
 40
0.018396936
 40
0.0225665206
 40
0.0269007098
 40
0.0326510827
 40
0.040605757
 40
0.0510254957
 40
0.0639106555
 40
0.0790269522
 40
0.1146435364
 40
0.1552339776
 40
0.1987004688
 40
0.2436218252
 40
0.2890721864
 40
0.3793757747
 40
0.4667312892
 40
0.5496723614
 40
0.6273718627
 40
0.6993346464
 40
0.7652566164
 40
0.8249497088
 40
0.925225323
 40
0.965790411
 40
1.0
 40
1.0
 40
1.0
 40
1.0
 10
154.2202839261
 20
106.4806114608
 30
0.0
 10
154.2202839261
 20
106.5154287469
 30
0.0
 10
154.217973649
 20
106.5797864259
 30
0.0
 10
154.203473776
 20
106.6671571078
 30
0.0
 10
154.1764690072
 20
106.7364295224
 30
0.0
 10
154.1280182818
 20
106.7844168009
 30
0.0
 10
154.0563452417
 20
106.793834336
 30
0.0
 10
153.9731224488
 20
106.7651212927
 30
0.0
 10
153.8747715237
 20
106.7033422611
 30
0.0
 10
153.759584653
 20
106.6068483386
 30
0.0
 10
153.6291190067
 20
106.4765031629
 30
0.0
 10
153.42619001
 20
106.2484464252
 30
0.0
 10
153.1568672441
 20
105.9025139794
 30
0.0
 10
152.8262847069
 20
105.433129894
 30
0.0
 10
152.4877436971
 20
104.9152083773
 30
0.0
 10
152.1507567365
 20
104.3687493782
 30
0.0
 10
151.7119984853
 20
103.6213578699
 30
0.0
 10
151.1961200451
 20
102.6835036004
 30
0.0
 10
150.6280303947
 20
101.5698917852
 30
0.0
 10
150.1184582221
 20
100.4948730873
 30
0.0
 10
149.6697183357
 20
99.4732333145
 30
0.0
 10
149.2824085401
 20
98.5143091568
 30
0.0
 10
148.9559558137
 20
97.6243435165
 30
0.0
 10
148.6207973743
 20
96.594053009
 30
0.0
 10
148.3752860115
 20
95.6616648621
 30
0.0
 10
148.244825272
 20
94.8316273899
 30
0.0
 10
148.2202839261
 20
94.4729659104
 30
0.0
 10
148.2202839261
 20
94.3088797296
 30
0.0
  0
SPLINE
  5
593
100
AcDbEntity
  8
0
100
AcDbSpline
 62
7
  6
CONTINUOUS
 70
0
 71
3
 72
9
 73
5
 74
0
 42
0.0000001
 43
0.0000001
 44
0.0000000001
 40
0.0
 40
0.0
 40
0.0
 40
0.0
 40
0.5
 40
1.0
 40
1.0
 40
1.0
 40
1.0
 10
142.9968139651
 20
94.3088797296
 30
0.0
 10
142.959016895
 20
94.1642624449
 30
0.0
 10
142.9181197899
 20
93.8642535433
 30
0.0
 10
142.959016895
 20
93.5642446418
 30
0.0
 10
142.9968139651
 20
93.419627357
 30
0.0
  0
SPLINE
  5
594
100
AcDbEntity
  8
0
100
AcDbSpline
 62
7
  6
CONTINUOUS
 70
0
 71
3
 72
9
 73
5
 74
0
 42
0.0000001
 43
0.0000001
 44
0.0000000001
 40
0.0
 40
0.0
 40
0.0
 40
0.0
 40
0.5
 40
1.0
 40
1.0
 40
1.0
 40
1.0
 10
91.4437538871
 20
93.419627357
 30
0.0
 10
91.4815509572
 20
93.5642446418
 30
0.0
 10
91.5224480623
 20
93.8642535433
 30
0.0
 10
91.4815509572
 20
94.1642624449
 30
0.0
 10
91.4437538871
 20
94.3088797296
 30
0.0
  0
SPLINE
  5
595
100
AcDbEntity
  8
RUNDUNGEN
100
AcDbSpline
 62
7
  6
CONTINUOUS
 70
0
 71
3
 72
14
 73
10
 74
0
 42
0.0000001
 43
0.0000001
 44
0.0000000001
 40
0.0
 40
0.0
 40
0.0
 40
0.0
 40
0.3031330961
 40
0.4451048277
 40
0.5766790638
 40
0.6966574007
 40
0.805455419
 40
0.9052637349
 40
1.0
 40
1.0
 40
1.0
 40
1.0
 10
86.2202839261
 20
134.3625806865
 30
0.0
 10
85.4324194946
 20
134.3625806865
 30
0.0
 10
84.2663847363
 20
134.218921469
 30
0.0
 10
82.845534581
 20
133.7292926601
 30
0.0
 10
81.9368455013
 20
133.249353783
 30
0.0
 10
81.1945835178
 20
132.6688621622
 30
0.0
 10
80.6420753464
 20
132.0076207501
 30
0.0
 10
80.2989297029
 20
131.2875095329
 30
0.0
 10
80.2202839261
 20
130.7789824317
 30
0.0
 10
80.2202839261
 20
130.532756155
 30
0.0
  0
SPLINE
  5
596
100
AcDbEntity
  8
RUNDUNGEN
100
AcDbSpline
 62
7
  6
CONTINUOUS
 70
0
 71
3
 72
14
 73
10
 74
0
 42
0.0000001
 43
0.0000001
 44
0.0000000001
 40
0.0
 40
0.0
 40
0.0
 40
0.0
 40
0.0947362651
 40
0.194544581
 40
0.3033425993
 40
0.4233209362
 40
0.5548951723
 40
0.6968669039
 40
1.0
 40
1.0
 40
1.0
 40
1.0
 10
80.2202839261
 20
136.032756155
 30
0.0
 10
80.2202839261
 20
136.2789824317
 30
0.0
 10
80.2989297029
 20
136.7875095329
 30
0.0
 10
80.6420753464
 20
137.5076207501
 30
0.0
 10
81.1945835178
 20
138.1688621622
 30
0.0
 10
81.9368455013
 20
138.749353783
 30
0.0
 10
82.845534581
 20
139.2292926601
 30
0.0
 10
84.2663847363
 20
139.718921469
 30
0.0
 10
85.4324194946
 20
139.8625806865
 30
0.0
 10
86.2202839261
 20
139.8625806865
 30
0.0
  0
SPLINE
  5
597
100
AcDbEntity
  8
BEZUGSACHSEN
100
AcDbSpline
 62
7
  6
CONTINUOUS
 70
0
 71
3
 72
15
 73
11
 74
0
 42
0.0000001
 43
0.0000001
 44
0.0000000001
 40
0.0
 40
0.0
 40
0.0
 40
0.0
 40
0.1213952628
 40
0.2449248391
 40
0.3714323782
 40
0.5
 40
0.6285676218
 40
0.7550751609
 40
0.8786047372
 40
1.0
 40
1.0
 40
1.0
 40
1.0
 10
95.6202839261
 20
120.643068423
 30
0.0
 10
95.6202839261
 20
121.0106588737
 30
0.0
 10
95.460476832
 20
121.7610676201
 30
0.0
 10
94.7861931843
 20
122.6978472212
 30
0.0
 10
93.7886790074
 20
123.318427108
 30
0.0
 10
92.6202839261
 20
123.5345477382
 30
0.0
 10
91.4518888449
 20
123.318427108
 30
0.0
 10
90.454374668
 20
122.6978472212
 30
0.0
 10
89.7800910202
 20
121.7610676201
 30
0.0
 10
89.6202839261
 20
121.0106588737
 30
0.0
 10
89.6202839261
 20
120.643068423
 30
0.0
  0
SPLINE
  5
598
100
AcDbEntity
  8
0
100
AcDbSpline
 62
7
  6
CONTINUOUS
 70
0
 71
3
 72
9
 73
5
 74
0
 42
0.0000001
 43
0.0000001
 44
0.0000000001
 40
0.0
 40
0.0
 40
0.0
 40
0.0
 40
0.6258022877
 40
1.0
 40
1.0
 40
1.0
 40
1.0
 10
142.9968139651
 20
93.419627357
 30
0.0
 10
143.0501830745
 20
93.215429104
 30
0.0
 10
143.1340160195
 20
92.8887694154
 30
0.0
 10
143.2152004237
 20
92.5613807576
 30
0.0
 10
143.2427916828
 20
92.4382323467
 30
0.0
  0
SPLINE
  5
599
100
AcDbEntity
  8
0
100
AcDbSpline
 62
7
  6
CONTINUOUS
 70
0
 71
3
 72
11
 73
7
 74
0
 42
0.0000001
 43
0.0000001
 44
0.0000000001
 40
0.0
 40
0.0
 40
0.0
 40
0.0
 40
0.4397122507
 40
0.7526692237
 40
0.9387614398
 40
1.0
 40
1.0
 40
1.0
 40
1.0
 10
143.2427916828
 20
92.4382323467
 30
0.0
 10
143.2465830473
 20
92.4213103022
 30
0.0
 10
143.2523550403
 20
92.3934601142
 30
0.0
 10
143.2614117191
 20
92.3536934118
 30
0.0
 10
143.2619922301
 20
92.337768545
 30
0.0
 10
143.265785399
 20
92.3219912225
 30
0.0
 10
143.2633712693
 20
92.3220615507
 30
0.0
  0
SPLINE
  5
59A
100
AcDbEntity
  8
KONSTRUKTIONSELEMENTE
100
AcDbSpline
 62
7
  6
CONTINUOUS
 70
0
 71
3
 72
15
 73
11
 74
0
 42
0.0000001
 43
0.0000001
 44
0.0000000001
 40
0.0
 40
0.0
 40
0.0
 40
0.0
 40
0.1229637708
 40
0.2475446398
 40
0.3734201295
 40
0.5
 40
0.6265798705
 40
0.7524553602
 40
0.8770362292
 40
1.0
 40
1.0
 40
1.0
 40
1.0
 10
122.9729099595
 20
139.8625806865
 30
0.0
 10
122.6257969733
 20
140.2656878215
 30
0.0
 10
121.8321780184
 20
141.0002288345
 30
0.0
 10
120.4259782336
 20
141.8194994763
 30
0.0
 10
118.8630363685
 20
142.3276507452
 30
0.0
 10
117.2202839261
 20
142.4996055664
 30
0.0
 10
115.5775314837
 20
142.3276507452
 30
0.0
 10
114.0145896187
 20
141.8194994763
 30
0.0
 10
112.6083898339
 20
141.0002288345
 30
0.0
 10
111.8147708789
 20
140.2656878215
 30
0.0
 10
111.4676578927
 20
139.8625806865
 30
0.0
  0
ELLIPSE
  5
59B
100
AcDbEntity
  8
0
100
AcDbEllipse
 62
7
  6
CONTINUOUS
 10
510.460936751
 20
140.4201569872
 30
0.0
 11
-3.4159464179
 21
7.2639319066
 31
0.0
 40
0.4203155586
 41
-1.6089244346
 42
-0.2482200958
  0
ELLIPSE
  5
59C
100
AcDbEntity
  8
RUNDUNGEN
100
AcDbEllipse
 62
7
  6
CONTINUOUS
 10
525.7256968103
 20
145.976075282
 30
0.0
 11
-2.0523986558
 21
7.7602227051
 31
0.0
 40
0.4203155586
 41
0.2482200958
 42
1.6089244346
  0
ELLIPSE
  5
59D
100
AcDbEntity
  8
0
100
AcDbEllipse
 62
7
  6
CONTINUOUS
 10
457.3216681451
 20
140.4201569872
 30
0.0
 11
3.4159464179
 21
7.2639319066
 31
0.0
 40
0.4203155586
 41
0.2482200958
 42
1.6089244346
  0
ELLIPSE
  5
59E
100
AcDbEntity
  8
RUNDUNGEN
100
AcDbEllipse
 62
7
  6
CONTINUOUS
 10
442.0569080859
 20
145.976075282
 30
0.0
 11
2.0523986558
 21
7.7602227051
 31
0.0
 40
0.4203155586
 41
-1.6089244346
 42
-0.2482200958
  0
ELLIPSE
  5
59F
100
AcDbEntity
  8
0
100
AcDbEllipse
 62
7
  6
CONTINUOUS
 10
117.2202839261
 20
124.7971637475
 30
0.0
 11
0.0
 21
8.7259150049
 31
0.0
 40
0.8480485996
 41
-1.5707963105
 42
-0.8904929097
  0
ELLIPSE
  5
5A0
100
AcDbEntity
  8
0
100
AcDbEllipse
 62
7
  6
CONTINUOUS
 10
117.2202839261
 20
124.7971637475
 30
0.0
 11
-0.0
 21
8.7259150049
 31
0.0
 40
0.8480485996
 41
0.8904929097
 42
1.5707963268
  0
ELLIPSE
  5
5A1
100
AcDbEntity
  8
KONSTRUKTIONSELEMENTE
100
AcDbEllipse
 62
7
  6
CONTINUOUS
 10
117.2202839261
 20
136.6032448087
 30
0.0
 11
7.4
 21
0.0
 31
0.0
 40
0.7002075382
 41
0.0000000163
 42
0.6803034171
  0
ELLIPSE
  5
5A2
100
AcDbEntity
  8
KONSTRUKTIONSELEMENTE
100
AcDbEllipse
 62
7
  6
CONTINUOUS
 10
117.2202839261
 20
136.6032448087
 30
0.0
 11
7.4
 21
-0.0
 31
0.0
 40
0.7002075382
 41
2.4612892365
 42
3.1415926536
  0
ENDSEC
  0
SECTION
  2
OBJECTS
  0
DICTIONARY
  5
C
100
AcDbDictionary
280
0
281
1
  3
ACAD_GROUP
350
D
  3
ACAD_MLINESTYLE
350
17
  3
ACAD_LAYOUT
350
1A
  3
ACAD_PLOTSETTINGS
350
19
  3
ACAD_PLOTSTYLENAME
350
E
  0
DICTIONARY
  5
D
102
{ACAD_REACTORS
330
C
102
}
100
AcDbDictionary
280
0
281
1
  0
ACDBDICTIONARYWDFLT
  5
E
102
{ACAD_REACTORS
330
C
102
}
100
AcDbDictionary
281
1
  3
Normal
350
F
100
AcDbDictionaryWithDefault
340
F
  0
DICTIONARY
  5
17
102
{ACAD_REACTORS
330
C
102
}
100
AcDbDictionary
280
0
281
1
  3
Standard
350
18
  0
DICTIONARY
  5
19
102
{ACAD_REACTORS
330
C
102
}
100
AcDbDictionary
281
1
  0
DICTIONARY
  5
1A
102
{ACAD_REACTORS
330
C
102
}
100
AcDbDictionary
281
1
  3
Model
350
5A3
  3
Layout1
350
5A4
  0
ACDBPLACEHOLDER
  5
F
102
{ACAD_REACTORS
330
E
102
}
  0
MLINESTYLE
  5
18
102
{ACAD_REACTORS
330
17
102
}
100
AcDbMlineStyle
  2
STANDARD
 70
0
  3

 62
256
 51
90.0
 52
90.0
 71
2
 49
0.5
 62
256
  6
BYLAYER
 49
-0.5
 62
256
  6
BYLAYER
  0
LAYOUT
  5
5A3
102
{ACAD_REACTORS
330
1A
102
}
100
AcDbPlotSettings
  1

  2
none_device
  4
ISO_A2_(594.00_x_420.00_MM)
  6

 40
0.0
 41
0.0
 42
0.0
 43
0.0
 44
594.0
 45
420.0
 46
0.0
 47
0.0
 48
0.0
 49
0.0
140
0.0
141
0.0
142
1.0
143
1.0
 70
1024
 72
1
 73
0
 74
0
  7

 75
0
147
1.0
148
0.0
149
0.0
100
AcDbLayout
  1
Model
 70
0
 71
0
 10
0.0
 20
0.0
 11
594.0
 21
420.0
 12
0.0
 22
0.0
 32
0.0
 14
0.0
 24
0.0
 34
0.0
 15
0.0
 25
0.0
 35
0.0
146
0.0
 13
0.0
 23
0.0
 33
0.0
 16
1.0
 26
0.0
 36
0.0
 17
0.0
 27
1.0
 37
0.0
 76
0
330
20A
345
0
346
0
  0
LAYOUT
  5
5A4
102
{ACAD_REACTORS
330
1A
102
}
100
AcDbPlotSettings
  1

  2
none_device
  4
ISO_A2_(594.00_x_420.00_MM)
  6

 40
0.0
 41
0.0
 42
0.0
 43
0.0
 44
594.0
 45
420.0
 46
0.0
 47
0.0
 48
0.0
 49
0.0
140
0.0
141
0.0
142
1.0
143
1.0
 70
0
 72
1
 73
0
 74
0
  7

 75
0
147
1.0
148
0.0
149
0.0
100
AcDbLayout
  1
Layout1
 70
0
 71
1
 10
0.0
 20
0.0
 11
594.0
 21
420.0
 12
0.0
 22
0.0
 32
0.0
 14
0.0
 24
0.0
 34
0.0
 15
0.0
 25
0.0
 35
0.0
146
0.0
 13
0.0
 23
0.0
 33
0.0
 16
1.0
 26
0.0
 36
0.0
 17
0.0
 27
1.0
 37
0.0
 76
0
330
20B
345
0
346
0
  0
ENDSEC
  0
EOF
