999
DXF file: IVH-16_7900138_M33782-P-10.dxf
999
Pro/ENGINEER 2010140 by Parametric Technology Corporation
  0
SECTION
  2
HEADER
  9
$ACADVER
  1
AC1015
  9
$DWGCODEPAGE
  3
ANSI_1252
  9
$EXTMAX
 10
420.0
 20
297.0
 30
0.0
  9
$EXTMIN
 10
0.0
 20
0.0
 30
0.0
  9
$LIMMIN
 10
0.0
 20
0.0
  9
$LIMMAX
 10
420.0
 20
297.0
  9
$VIEWCTR
 10
210.0
 20
148.5
  9
$VIEWSIZE
 40
297.0
  9
$CLAYER
  8
0
  9
$LTSCALE
 40
23.1
  9
$CELTYPE
  6
BYLAYER
  9
$DIMSCALE
 40
1.0
  9
$DIMASZ
 40
3.5
  9
$DIMEXO
 40
2.625
  9
$DIMDLI
 40
15.96
  9
$DIMEXE
 40
7.56
  9
$DIMCEN
 40
3.78
  9
$DIMLFAC
 40
1.0
  9
$DIMBLK
  1
_FILLED
  9
$DIMTXT
 40
3.5
  9
$DIMTOL
 70
1
  9
$DIMLIM
 70
0
  9
$DIMTFAC
 40
1.0
  9
$DIMTP
 40
0.005
  9
$DIMTM
 40
0.005
  9
$PDMODE
 70
3
  9
$PDSIZE
 40
0.3125
  9
$HANDSEED
  5
383
  9
$TILEMODE
 70
1
  9
$MEASUREMENT
 70
1
  9
$INSUNITS
 70
4
  0
ENDSEC
  0
SECTION
  2
CLASSES
  0
CLASS
  1
ACDBDICTIONARYWDFLT
  2
AcDbDictionaryWithDefault
  3
AutoCAD 2000
 90
0
280
0
281
0
  0
CLASS
  1
ACDBPLACEHOLDER
  2
AcDbPlaceHolder
  3
AutoCAD 2000
 90
0
280
0
281
0
  0
CLASS
  1
LAYOUT
  2
AcDbLayout
  3
AutoCAD 2000
 90
0
280
0
281
0
  0
ENDSEC
  0
SECTION
  2
TABLES
  0
TABLE
  2
VPORT
  5
8
100
AcDbSymbolTable
 70
2
  0
VPORT
  5
1F4
100
AcDbSymbolTableRecord
100
AcDbViewportTableRecord
  2
*ACTIVE
 70
0
 10
0.0
 20
0.0
 11
1.0
 21
1.0
 12
210.0
 22
148.5
 13
0.0
 23
0.0
 14
1.0
 24
1.0
 15
0.0
 25
0.0
 16
0.0
 26
0.0
 36
1.0
 17
0.0
 27
0.0
 37
0.0
 40
297.0
 41
1.4141414141
 42
50.0
 43
0.0
 44
0.0
 50
0.0
 51
0.0
 71
0
 72
100
 73
1
 74
1
 75
0
 76
0
 77
0
 78
0
  0
ENDTAB
  0
TABLE
  2
LTYPE
  5
5
100
AcDbSymbolTable
 70
6
  0
LTYPE
  5
14
100
AcDbSymbolTableRecord
100
AcDbLinetypeTableRecord
  2
BYBLOCK
 70
0
  3

 72
65
 73
0
 40
0.0
  0
LTYPE
  5
15
100
AcDbSymbolTableRecord
100
AcDbLinetypeTableRecord
  2
BYLAYER
 70
0
  3

 72
65
 73
0
 40
0.0
  0
LTYPE
  5
16
100
AcDbSymbolTableRecord
100
AcDbLinetypeTableRecord
  2
CONTINUOUS
 70
64
  3
Solid line
 72
65
 73
0
 40
0.0
  0
LTYPE
  5
1F5
100
AcDbSymbolTableRecord
100
AcDbLinetypeTableRecord
  2
CENTER
 70
64
  3
____ _ ____ _ ____ _ ____ _ ____ _ ____ _ ____
 72
65
 73
4
 40
0.6
 49
0.375
 74
0
 49
-0.075
 74
0
 49
0.075
 74
0
 49
-0.075
 74
0
  0
LTYPE
  5
1F6
100
AcDbSymbolTableRecord
100
AcDbLinetypeTableRecord
  2
HIDDEN
 70
64
  3
- - - - - - - - - - - - - - - - - - - -
 72
65
 73
2
 40
0.2
 49
0.1
 74
0
 49
-0.1
 74
0
  0
LTYPE
  5
1F7
100
AcDbSymbolTableRecord
100
AcDbLinetypeTableRecord
  2
PHANTOM
 70
64
  3
_____ _ _ _____ _ _ _____ _ _ _____
 72
65
 73
6
 40
0.8
 49
0.45
 74
0
 49
-0.05
 74
0
 49
0.1
 74
0
 49
-0.05
 74
0
 49
0.1
 74
0
 49
-0.05
 74
0
  0
LTYPE
  5
1F8
100
AcDbSymbolTableRecord
100
AcDbLinetypeTableRecord
  2
DOT
 70
64
  3
. . . . . . . . . . . . . . . . . . . .
 72
65
 73
2
 40
0.2
 49
0.1
 74
0
 49
-0.1
 74
0
  0
LTYPE
  5
1F9
100
AcDbSymbolTableRecord
100
AcDbLinetypeTableRecord
  2
DASHED
 70
64
  3
- - - - - - - - - - - - - - - - - - - -
 72
65
 73
2
 40
0.2
 49
0.1
 74
0
 49
-0.1
 74
0
  0
ENDTAB
  0
TABLE
  2
LAYER
  5
2
100
AcDbSymbolTable
 70
36
  0
LAYER
  5
10
100
AcDbSymbolTableRecord
100
AcDbLayerTableRecord
  2
0
 70
0
 62
7
  6
CONTINUOUS
370
-3
390
F
  0
LAYER
  5
1FA
100
AcDbSymbolTableRecord
100
AcDbLayerTableRecord
  2
DEFAULT_1
 70
0
 62
7
  6
CENTER
370
-3
390
F
  0
LAYER
  5
1FB
100
AcDbSymbolTableRecord
100
AcDbLayerTableRecord
  2
DEFAULT_2
 70
0
 62
8
  6
HIDDEN
370
-3
390
F
  0
LAYER
  5
1FC
100
AcDbSymbolTableRecord
100
AcDbLayerTableRecord
  2
DEFAULT_3
 70
0
 62
7
  6
PHANTOM
370
-3
390
F
  0
LAYER
  5
1FD
100
AcDbSymbolTableRecord
100
AcDbLayerTableRecord
  2
AUSFORMSCHRAEGEN
 70
0
 62
7
  6
CONTINUOUS
370
-3
390
F
  0
LAYER
  5
1FE
100
AcDbSymbolTableRecord
100
AcDbLayerTableRecord
  2
BEZUGSACHSEN
 70
0
 62
7
  6
CONTINUOUS
370
-3
390
F
  0
LAYER
  5
1FF
100
AcDbSymbolTableRecord
100
AcDbLayerTableRecord
  2
BEZUGSEBENEN
 70
0
 62
7
  6
CONTINUOUS
370
-3
390
F
  0
LAYER
  5
200
100
AcDbSymbolTableRecord
100
AcDbLayerTableRecord
  2
FASEN
 70
0
 62
7
  6
CONTINUOUS
370
-3
390
F
  0
LAYER
  5
201
100
AcDbSymbolTableRecord
100
AcDbLayerTableRecord
  2
HILFEN
 70
0
 62
7
  6
CONTINUOUS
370
-3
390
F
  0
LAYER
  5
202
100
AcDbSymbolTableRecord
100
AcDbLayerTableRecord
  2
KONSTRUKTIONSELEMENTE
 70
0
 62
7
  6
CONTINUOUS
370
-3
390
F
  0
LAYER
  5
203
100
AcDbSymbolTableRecord
100
AcDbLayerTableRecord
  2
PLATZIERUNG
 70
0
 62
7
  6
CONTINUOUS
370
-3
390
F
  0
LAYER
  5
204
100
AcDbSymbolTableRecord
100
AcDbLayerTableRecord
  2
RUNDUNGEN
 70
0
 62
7
  6
CONTINUOUS
370
-3
390
F
  0
LAYER
  5
205
100
AcDbSymbolTableRecord
100
AcDbLayerTableRecord
  2
TEIL_STARTBEZUEGE
 70
0
 62
7
  6
CONTINUOUS
370
-3
390
F
  0
LAYER
  5
206
100
AcDbSymbolTableRecord
100
AcDbLayerTableRecord
  2
ZEICHNUNGSBEMASSUNGEN
 70
0
 62
7
  6
CONTINUOUS
370
-3
390
F
  0
ENDTAB
  0
TABLE
  2
STYLE
  5
3
100
AcDbSymbolTable
 70
1
  0
STYLE
  5
11
100
AcDbSymbolTableRecord
100
AcDbTextStyleTableRecord
  2
STANDARD
 70
0
 40
0.0
 41
0.7
 50
0.0
 71
0
 42
0.2
  3
txt
  4

  0
STYLE
  5
207
100
AcDbSymbolTableRecord
100
AcDbTextStyleTableRecord
  2
TEXTSTYLE_1
 70
0
 40
0.0
 41
0.8
 50
0.0
 71
0
 42
0.2
  3
gdt
  4

  0
ENDTAB
  0
TABLE
  2
VIEW
  5
6
100
AcDbSymbolTable
 70
0
  0
ENDTAB
  0
TABLE
  2
UCS
  5
7
100
AcDbSymbolTable
 70
0
  0
ENDTAB
  0
TABLE
  2
APPID
  5
9
100
AcDbSymbolTable
 70
1
  0
APPID
  5
208
100
AcDbSymbolTableRecord
100
AcDbRegAppTableRecord
  2
ACAD
 70
0
  0
ENDTAB
  0
TABLE
  2
BLOCK_RECORD
  5
1
100
AcDbSymbolTable
 70
0
  0
BLOCK_RECORD
  5
209
100
AcDbSymbolTableRecord
100
AcDbBlockTableRecord
  2
*Model_Space
  0
BLOCK_RECORD
  5
20A
100
AcDbSymbolTableRecord
100
AcDbBlockTableRecord
  2
*Paper_Space
  0
ENDTAB
  0
TABLE
  2
DIMSTYLE
  5
A
100
AcDbSymbolTable
 70
1
100
AcDbDimStyleTable
 71
0
  0
DIMSTYLE
105
20B
100
AcDbSymbolTableRecord
100
AcDbDimStyleTableRecord
  2
STANDARD
 70
0
  3

  4

 40
1.0
 41
3.5
 42
0.0625
 43
0.38
 44
0.18
 45
0.0
 46
0.0
 47
0.005
 48
0.005
140
3.5
141
0.09
142
0.0
143
25.4
144
1.0
145
0.0
146
1.0
147
0.09
 71
1.0
 72
0.0
 73
0
 74
0
 75
0
 76
0
 77
1
 78
8
170
0
171
2
172
0
173
0
174
0
175
0
176
0
177
0
178
5
270
2
271
3
272
3
273
2
274
2
275
0
280
0
281
0
282
0
283
1
284
8
285
0
286
0
287
3
288
0
340
11
  0
ENDTAB
  0
ENDSEC
  0
SECTION
  2
BLOCKS
  0
BLOCK
  5
20
100
AcDbEntity
  8
0
100
AcDbBlockBegin
  2
*Model_Space
 70
0
 10
0.0
 20
0.0
 30
0.0
  3
*Model_Space
  1

  0
ENDBLK
  5
21
100
AcDbEntity
  8
0
100
AcDbBlockEnd
  0
BLOCK
  5
1C
100
AcDbEntity
  8
0
100
AcDbBlockBegin
  2
*Paper_Space
 70
0
 10
0.0
 20
0.0
 30
0.0
  3
*Paper_Space
  1

  0
ENDBLK
  5
1D
100
AcDbEntity
  8
0
100
AcDbBlockEnd
  0
ENDSEC
  0
SECTION
  2
ENTITIES
  0
MTEXT
  5
20C
100
AcDbEntity
  8
0
100
AcDbMText
 62
5
  6
CONTINUOUS
  7
STANDARD
 71
1
 72
1
 10
275.0927446773
 20
63.7851737267
 30
0.0
 11
0.0
 21
1.0
 31
0.0
 44
0.9
  1
RUD
 40
6.0
 41
16.0
  0
MTEXT
  5
20D
100
AcDbEntity
  8
0
100
AcDbMText
 62
5
  6
CONTINUOUS
  7
STANDARD
 71
1
 72
1
 10
296.1624454864
 20
57.2400850685
 30
0.0
 11
0.0
 21
1.0
 31
0.0
 44
0.9
  1
IVH-16
 40
6.0
 41
27.1428571429
  0
LINE
  5
20E
100
AcDbEntity
  8
0
100
AcDbLine
 62
7
  6
CONTINUOUS
 10
0.0
 20
0.0
 11
0.0
 21
297.0
  0
LINE
  5
20F
100
AcDbEntity
  8
0
100
AcDbLine
 62
7
  6
CONTINUOUS
 10
0.0
 20
0.0
 11
420.0
 21
0.0
  0
LINE
  5
210
100
AcDbEntity
  8
0
100
AcDbLine
 62
7
  6
CONTINUOUS
 10
0.0
 20
297.0
 11
420.0
 21
297.0
  0
LINE
  5
211
100
AcDbEntity
  8
0
100
AcDbLine
 62
7
  6
CONTINUOUS
 10
420.0
 20
0.0
 11
420.0
 21
297.0
  0
LINE
  5
212
100
AcDbEntity
  8
0
100
AcDbLine
 62
7
  6
CONTINUOUS
 10
79.0937840925
 20
255.4071156499
 11
89.5825294822
 21
267.9071156499
  0
LINE
  5
213
100
AcDbEntity
  8
KONSTRUKTIONSELEMENTE
100
AcDbLine
 62
7
  6
CONTINUOUS
 10
150.9737836596
 20
55.7853523984
 11
160.7600606638
 21
55.7853523984
  0
LINE
  5
214
100
AcDbEntity
  8
KONSTRUKTIONSELEMENTE
100
AcDbLine
 62
7
  6
CONTINUOUS
 10
162.4937840925
 20
99.3404489037
 11
172.4937840925
 21
102.0071156499
  0
LINE
  5
215
100
AcDbEntity
  8
AUSFORMSCHRAEGEN
100
AcDbLine
 62
7
  6
CONTINUOUS
 10
131.6324940295
 20
91.5867044979
 11
128.3737840925
 21
91.5867044979
  0
LINE
  5
216
100
AcDbEntity
  8
AUSFORMSCHRAEGEN
100
AcDbLine
 62
7
  6
CONTINUOUS
 10
112.5550741554
 20
91.5867044979
 11
115.8137840925
 21
91.5867044979
  0
LINE
  5
217
100
AcDbEntity
  8
KONSTRUKTIONSELEMENTE
100
AcDbLine
 62
7
  6
CONTINUOUS
 10
171.217188351
 20
102.6737821576
 11
162.4937840925
 21
100.3404489037
  0
LINE
  5
218
100
AcDbEntity
  8
KONSTRUKTIONSELEMENTE
100
AcDbLine
 62
7
  6
CONTINUOUS
 10
162.4937840925
 20
97.0071156499
 11
172.4937840925
 21
97.0071156499
  0
LINE
  5
219
100
AcDbEntity
  8
KONSTRUKTIONSELEMENTE
100
AcDbLine
 62
7
  6
CONTINUOUS
 10
172.4937840925
 20
98.0071156499
 11
162.4937840925
 21
98.0071156499
  0
LINE
  5
21A
100
AcDbEntity
  8
KONSTRUKTIONSELEMENTE
100
AcDbLine
 62
7
  6
CONTINUOUS
 10
115.8137840925
 20
100.7930349576
 11
128.3737840925
 21
100.7930349576
  0
LINE
  5
21B
100
AcDbEntity
  8
KONSTRUKTIONSELEMENTE
100
AcDbLine
 62
7
  6
CONTINUOUS
 10
79.0937840925
 20
255.4071156499
 11
79.0937840925
 21
222.2982387887
  0
LINE
  5
21C
100
AcDbEntity
  8
KONSTRUKTIONSELEMENTE
100
AcDbLine
 62
7
  6
CONTINUOUS
 10
162.4937840925
 20
107.3404486653
 11
172.4937840925
 21
107.3404486653
  0
LINE
  5
21D
100
AcDbEntity
  8
KONSTRUKTIONSELEMENTE
100
AcDbLine
 62
7
  6
CONTINUOUS
 10
172.4937840925
 20
108.3404486653
 11
167.8129329906
 21
108.3404486653
  0
LINE
  5
21E
100
AcDbEntity
  8
KONSTRUKTIONSELEMENTE
100
AcDbLine
 62
7
  6
CONTINUOUS
 10
166.5363373981
 20
108.3404486653
 11
162.4937840925
 21
108.3404486653
  0
LINE
  5
21F
100
AcDbEntity
  8
KONSTRUKTIONSELEMENTE
100
AcDbLine
 62
7
  6
CONTINUOUS
 10
115.8137840925
 20
108.7415943671
 11
128.3737840925
 21
108.7415943671
  0
LINE
  5
220
100
AcDbEntity
  8
KONSTRUKTIONSELEMENTE
100
AcDbLine
 62
7
  6
CONTINUOUS
 10
102.4855109661
 20
109.4281209482
 11
82.5937840925
 21
109.4281209482
  0
LINE
  5
221
100
AcDbEntity
  8
AUSFORMSCHRAEGEN
100
AcDbLine
 62
7
  6
CONTINUOUS
 10
111.9989452116
 20
52.6865360824
 11
109.0382838557
 21
60.8208863043
  0
LINE
  5
222
100
AcDbEntity
  8
KONSTRUKTIONSELEMENTE
100
AcDbLine
 62
7
  6
CONTINUOUS
 10
82.5937840925
 20
98.8571156499
 11
82.5937840925
 21
132.8358369057
  0
LINE
  5
223
100
AcDbEntity
  8
KONSTRUKTIONSELEMENTE
100
AcDbLine
 62
7
  6
CONTINUOUS
 10
82.0211876847
 20
170.6066288611
 11
77.6031172186
 21
165.3413775107
  0
LINE
  5
224
100
AcDbEntity
  8
KONSTRUKTIONSELEMENTE
100
AcDbLine
 62
7
  6
CONTINUOUS
 10
170.1533585415
 20
123.5071156499
 11
169.5150607453
 21
123.340449619
  0
LINE
  5
225
100
AcDbEntity
  8
KONSTRUKTIONSELEMENTE
100
AcDbLine
 62
7
  6
CONTINUOUS
 10
162.4937840925
 20
113.0071156499
 11
166.5363373981
 21
113.0071156499
  0
LINE
  5
226
100
AcDbEntity
  8
KONSTRUKTIONSELEMENTE
100
AcDbLine
 62
7
  6
CONTINUOUS
 10
167.8129329906
 20
113.0071156499
 11
172.4937840925
 21
113.0071156499
  0
LINE
  5
227
100
AcDbEntity
  8
KONSTRUKTIONSELEMENTE
100
AcDbLine
 62
7
  6
CONTINUOUS
 10
172.4937840925
 20
114.0071156499
 11
162.4937840925
 21
114.0071156499
  0
LINE
  5
228
100
AcDbEntity
  8
KONSTRUKTIONSELEMENTE
100
AcDbLine
 62
7
  6
CONTINUOUS
 10
167.8129329906
 20
115.340449619
 11
168.876762949
 21
115.340449619
  0
LINE
  5
229
100
AcDbEntity
  8
KONSTRUKTIONSELEMENTE
100
AcDbLine
 62
7
  6
CONTINUOUS
 10
168.876762949
 20
117.6737816807
 11
167.8129329906
 21
117.6737816807
  0
LINE
  5
22A
100
AcDbEntity
  8
KONSTRUKTIONSELEMENTE
100
AcDbLine
 62
7
  6
CONTINUOUS
 10
172.4937840925
 20
103.3404491421
 11
162.4937840925
 21
106.0071156499
  0
LINE
  5
22B
100
AcDbEntity
  8
KONSTRUKTIONSELEMENTE
100
AcDbLine
 62
7
  6
CONTINUOUS
 10
162.4937840925
 20
105.0071156499
 11
171.217188351
 21
102.6737821576
  0
LINE
  5
22C
100
AcDbEntity
  8
AUSFORMSCHRAEGEN
100
AcDbLine
 62
7
  6
CONTINUOUS
 10
112.6460401567
 20
91.4117037043
 11
112.5550741554
 21
91.5867044979
  0
LINE
  5
22D
100
AcDbEntity
  8
KONSTRUKTIONSELEMENTE
100
AcDbLine
 62
7
  6
CONTINUOUS
 10
168.2384648548
 20
127.340449619
 11
168.876762949
 21
127.5071156499
  0
LINE
  5
22E
100
AcDbEntity
  8
KONSTRUKTIONSELEMENTE
100
AcDbLine
 62
7
  6
CONTINUOUS
 10
164.8342093454
 20
128.0071156499
 11
164.1959115491
 21
127.840449619
  0
LINE
  5
22F
100
AcDbEntity
  8
KONSTRUKTIONSELEMENTE
100
AcDbLine
 62
7
  6
CONTINUOUS
 10
168.2384648548
 20
122.340449619
 11
169.7278266774
 21
122.5071156499
  0
LINE
  5
230
100
AcDbEntity
  8
KONSTRUKTIONSELEMENTE
100
AcDbLine
 62
7
  6
CONTINUOUS
 10
163.983145617
 20
119.0071156499
 11
165.6852736698
 21
119.0071156499
  0
LINE
  5
231
100
AcDbEntity
  8
KONSTRUKTIONSELEMENTE
100
AcDbLine
 62
7
  6
CONTINUOUS
 10
164.1959115491
 20
120.0071156499
 11
172.4937840925
 21
120.0071156499
  0
LINE
  5
232
100
AcDbEntity
  8
KONSTRUKTIONSELEMENTE
100
AcDbLine
 62
7
  6
CONTINUOUS
 10
172.4937840925
 20
121.0071156499
 11
162.4937840925
 21
121.0071156499
  0
LINE
  5
233
100
AcDbEntity
  8
KONSTRUKTIONSELEMENTE
100
AcDbLine
 62
7
  6
CONTINUOUS
 10
166.7491033302
 20
122.340449619
 11
168.2384648548
 21
122.340449619
  0
LINE
  5
234
100
AcDbEntity
  8
KONSTRUKTIONSELEMENTE
100
AcDbLine
 62
7
  6
CONTINUOUS
 10
167.1746351943
 20
123.1737816807
 11
166.7491033302
 21
123.1737816807
  0
LINE
  5
235
100
AcDbEntity
  8
KONSTRUKTIONSELEMENTE
100
AcDbLine
 62
7
  6
CONTINUOUS
 10
169.5150607453
 20
123.340449619
 11
168.876762949
 21
123.340449619
  0
LINE
  5
236
100
AcDbEntity
  8
KONSTRUKTIONSELEMENTE
100
AcDbLine
 62
7
  6
CONTINUOUS
 10
99.4147876749
 20
241.9071156499
 11
99.4147876749
 21
237.0071156499
  0
LINE
  5
237
100
AcDbEntity
  8
KONSTRUKTIONSELEMENTE
100
AcDbLine
 62
7
  6
CONTINUOUS
 10
102.4855109661
 20
109.4281209482
 11
102.4855109661
 21
124.3190195166
  0
LINE
  5
238
100
AcDbEntity
  8
KONSTRUKTIONSELEMENTE
100
AcDbLine
 62
7
  6
CONTINUOUS
 10
164.1959115491
 20
142.6737835881
 11
164.8342093454
 21
142.8404477116
  0
LINE
  5
239
100
AcDbEntity
  8
KONSTRUKTIONSELEMENTE
100
AcDbLine
 62
7
  6
CONTINUOUS
 10
168.876762949
 20
127.5071156499
 11
169.5150607453
 21
127.5071156499
  0
LINE
  5
23A
100
AcDbEntity
  8
KONSTRUKTIONSELEMENTE
100
AcDbLine
 62
7
  6
CONTINUOUS
 10
169.7278266774
 20
128.340449619
 11
168.6639967189
 21
128.340449619
  0
LINE
  5
23B
100
AcDbEntity
  8
KONSTRUKTIONSELEMENTE
100
AcDbLine
 62
7
  6
CONTINUOUS
 10
165.2597418056
 20
122.5071156499
 11
166.7491033302
 21
122.340449619
  0
LINE
  5
23C
100
AcDbEntity
  8
KONSTRUKTIONSELEMENTE
100
AcDbLine
 62
7
  6
CONTINUOUS
 10
166.7491033302
 20
123.1737816807
 11
165.4725077377
 21
123.340449619
  0
LINE
  5
23D
100
AcDbEntity
  8
KONSTRUKTIONSELEMENTE
100
AcDbLine
 62
7
  6
CONTINUOUS
 10
165.4725077377
 20
123.340449619
 11
164.8342093454
 21
123.5071156499
  0
LINE
  5
23E
100
AcDbEntity
  8
KONSTRUKTIONSELEMENTE
100
AcDbLine
 62
7
  6
CONTINUOUS
 10
79.4312514301
 20
158.412160811
 11
75.391268326
 21
161.8021091435
  0
LINE
  5
23F
100
AcDbEntity
  8
0
100
AcDbLine
 62
7
  6
CONTINUOUS
 10
112.6437840925
 20
264.5531156499
 11
112.6437840925
 21
245.5071156499
  0
LINE
  5
240
100
AcDbEntity
  8
KONSTRUKTIONSELEMENTE
100
AcDbLine
 62
7
  6
CONTINUOUS
 10
112.6437840925
 20
245.5071156499
 11
112.6437840925
 21
220.7571156499
  0
LINE
  5
241
100
AcDbEntity
  8
KONSTRUKTIONSELEMENTE
100
AcDbLine
 62
7
  6
CONTINUOUS
 10
112.6937840925
 20
111.6071156499
 11
112.6937840925
 21
147.0125008865
  0
LINE
  5
242
100
AcDbEntity
  8
KONSTRUKTIONSELEMENTE
100
AcDbLine
 62
7
  6
CONTINUOUS
 10
164.8342093454
 20
143.8404477116
 11
164.1959115491
 21
143.6737835881
  0
LINE
  5
243
100
AcDbEntity
  8
KONSTRUKTIONSELEMENTE
100
AcDbLine
 62
7
  6
CONTINUOUS
 10
169.9405926094
 20
146.5071156499
 11
169.0895288811
 21
146.3404477116
  0
LINE
  5
244
100
AcDbEntity
  8
KONSTRUKTIONSELEMENTE
100
AcDbLine
 62
7
  6
CONTINUOUS
 10
169.0895288811
 20
145.3404477116
 11
170.1533585415
 21
145.5071156499
  0
LINE
  5
245
100
AcDbEntity
  8
KONSTRUKTIONSELEMENTE
100
AcDbLine
 62
7
  6
CONTINUOUS
 10
162.4937840925
 20
137.6737835881
 11
172.4937840925
 21
137.6737835881
  0
LINE
  5
246
100
AcDbEntity
  8
KONSTRUKTIONSELEMENTE
100
AcDbLine
 62
7
  6
CONTINUOUS
 10
172.4937840925
 20
138.6737835881
 11
168.0256989227
 21
138.6737835881
  0
LINE
  5
247
100
AcDbEntity
  8
KONSTRUKTIONSELEMENTE
100
AcDbLine
 62
7
  6
CONTINUOUS
 10
166.7491033302
 20
138.6737835881
 11
163.5576137529
 21
138.6737835881
  0
LINE
  5
248
100
AcDbEntity
  8
KONSTRUKTIONSELEMENTE
100
AcDbLine
 62
7
  6
CONTINUOUS
 10
168.876762949
 20
123.340449619
 11
168.2384648548
 21
123.5071156499
  0
LINE
  5
249
100
AcDbEntity
  8
KONSTRUKTIONSELEMENTE
100
AcDbLine
 62
7
  6
CONTINUOUS
 10
169.5150607453
 20
127.5071156499
 11
170.1533585415
 21
127.340449619
  0
LINE
  5
24A
100
AcDbEntity
  8
KONSTRUKTIONSELEMENTE
100
AcDbLine
 62
7
  6
CONTINUOUS
 10
164.1959115491
 20
122.840449619
 11
165.2597418056
 21
122.5071156499
  0
LINE
  5
24B
100
AcDbEntity
  8
KONSTRUKTIONSELEMENTE
100
AcDbLine
 62
7
  6
CONTINUOUS
 10
170.7916564868
 20
128.0071156499
 11
169.7278266774
 21
128.340449619
  0
LINE
  5
24C
100
AcDbEntity
  8
KONSTRUKTIONSELEMENTE
100
AcDbLine
 62
7
  6
CONTINUOUS
 10
115.8137840925
 20
108.7415943671
 11
115.8137840925
 21
100.7930349576
  0
LINE
  5
24D
100
AcDbEntity
  8
AUSFORMSCHRAEGEN
100
AcDbLine
 62
7
  6
CONTINUOUS
 10
115.8137840925
 20
100.7930349576
 11
115.8137840925
 21
91.5867044979
  0
LINE
  5
24E
100
AcDbEntity
  8
AUSFORMSCHRAEGEN
100
AcDbLine
 62
7
  6
CONTINUOUS
 10
115.8137840925
 20
51.0915464603
 11
115.8137840925
 21
74.6928104803
  0
LINE
  5
24F
100
AcDbEntity
  8
BEZUGSACHSEN
100
AcDbLine
 62
2
  6
CENTER
 10
122.0937840925
 20
44.9071156499
 11
122.0937840925
 21
271.1237098555
  0
LINE
  5
250
100
AcDbEntity
  8
KONSTRUKTIONSELEMENTE
100
AcDbLine
 62
7
  6
CONTINUOUS
 10
164.8342093454
 20
142.8404477116
 11
165.4725077377
 21
142.8404477116
  0
LINE
  5
251
100
AcDbEntity
  8
KONSTRUKTIONSELEMENTE
100
AcDbLine
 62
7
  6
CONTINUOUS
 10
165.6852736698
 20
143.8404477116
 11
164.8342093454
 21
143.8404477116
  0
LINE
  5
252
100
AcDbEntity
  8
KONSTRUKTIONSELEMENTE
100
AcDbLine
 62
7
  6
CONTINUOUS
 10
162.4937840925
 20
145.3404477116
 11
169.0895288811
 21
145.3404477116
  0
LINE
  5
253
100
AcDbEntity
  8
KONSTRUKTIONSELEMENTE
100
AcDbLine
 62
7
  6
CONTINUOUS
 10
169.0895288811
 20
146.3404477116
 11
162.4937840925
 21
146.3404477116
  0
LINE
  5
254
100
AcDbEntity
  8
KONSTRUKTIONSELEMENTE
100
AcDbLine
 62
7
  6
CONTINUOUS
 10
162.4937840925
 20
150.3404477116
 11
169.0895288811
 21
150.3404477116
  0
LINE
  5
255
100
AcDbEntity
  8
KONSTRUKTIONSELEMENTE
100
AcDbLine
 62
7
  6
CONTINUOUS
 10
164.8342093454
 20
123.5071156499
 11
164.1959115491
 21
123.840449619
  0
LINE
  5
256
100
AcDbEntity
  8
KONSTRUKTIONSELEMENTE
100
AcDbLine
 62
7
  6
CONTINUOUS
 10
170.1533585415
 20
127.340449619
 11
170.7916564868
 21
127.0071156499
  0
LINE
  5
257
100
AcDbEntity
  8
KONSTRUKTIONSELEMENTE
100
AcDbLine
 62
7
  6
CONTINUOUS
 10
163.3448478208
 20
123.340449619
 11
164.1959115491
 21
122.840449619
  0
LINE
  5
258
100
AcDbEntity
  8
KONSTRUKTIONSELEMENTE
100
AcDbLine
 62
7
  6
CONTINUOUS
 10
162.4937840925
 20
120.0071156499
 11
163.983145617
 21
119.0071156499
  0
LINE
  5
259
100
AcDbEntity
  8
KONSTRUKTIONSELEMENTE
100
AcDbLine
 62
7
  6
CONTINUOUS
 10
165.6852736698
 20
119.0071156499
 11
164.1959115491
 21
120.0071156499
  0
LINE
  5
25A
100
AcDbEntity
  8
KONSTRUKTIONSELEMENTE
100
AcDbLine
 62
7
  6
CONTINUOUS
 10
107.3355979781
 20
158.5031676422
 11
91.8830121019
 21
171.4694267517
  0
LINE
  5
25B
100
AcDbEntity
  8
AUSFORMSCHRAEGEN
100
AcDbLine
 62
7
  6
CONTINUOUS
 10
135.537637061
 20
66.3100758527
 11
131.6324940295
 21
91.5867044979
  0
LINE
  5
25C
100
AcDbEntity
  8
KONSTRUKTIONSELEMENTE
100
AcDbLine
 62
7
  6
CONTINUOUS
 10
128.3737840925
 20
108.7415943671
 11
128.3737840925
 21
100.7930349576
  0
LINE
  5
25D
100
AcDbEntity
  8
AUSFORMSCHRAEGEN
100
AcDbLine
 62
7
  6
CONTINUOUS
 10
128.3737840925
 20
100.7930349576
 11
128.3737840925
 21
91.5867044979
  0
LINE
  5
25E
100
AcDbEntity
  8
AUSFORMSCHRAEGEN
100
AcDbLine
 62
7
  6
CONTINUOUS
 10
128.3737840925
 20
48.1700995609
 11
128.3737840925
 21
74.6928104803
  0
LINE
  5
25F
100
AcDbEntity
  8
AUSFORMSCHRAEGEN
100
AcDbLine
 62
7
  6
CONTINUOUS
 10
108.649931124
 20
66.3100758527
 11
112.5550741554
 21
91.5867044979
  0
LINE
  5
260
100
AcDbEntity
  8
KONSTRUKTIONSELEMENTE
100
AcDbLine
 62
7
  6
CONTINUOUS
 10
165.0469758735
 20
158.1737835881
 11
165.8980396018
 21
158.3404477116
  0
LINE
  5
261
100
AcDbEntity
  8
KONSTRUKTIONSELEMENTE
100
AcDbLine
 62
7
  6
CONTINUOUS
 10
165.8980396018
 20
159.3404477116
 11
164.8342093454
 21
159.1737835881
  0
LINE
  5
262
100
AcDbEntity
  8
KONSTRUKTIONSELEMENTE
100
AcDbLine
 62
7
  6
CONTINUOUS
 10
169.0895288811
 20
151.3404477116
 11
162.4937840925
 21
151.3404477116
  0
LINE
  5
263
100
AcDbEntity
  8
KONSTRUKTIONSELEMENTE
100
AcDbLine
 62
7
  6
CONTINUOUS
 10
162.4937840925
 20
152.6737835881
 11
172.4937840925
 21
152.6737835881
  0
LINE
  5
264
100
AcDbEntity
  8
KONSTRUKTIONSELEMENTE
100
AcDbLine
 62
7
  6
CONTINUOUS
 10
171.217188351
 20
153.6737835881
 11
163.770379685
 21
153.6737835881
  0
LINE
  5
265
100
AcDbEntity
  8
KONSTRUKTIONSELEMENTE
100
AcDbLine
 62
7
  6
CONTINUOUS
 10
165.8980396018
 20
158.3404477116
 11
169.0895288811
 21
158.3404477116
  0
LINE
  5
266
100
AcDbEntity
  8
KONSTRUKTIONSELEMENTE
100
AcDbLine
 62
7
  6
CONTINUOUS
 10
74.3410956403
 20
158.412160811
 11
79.4312514301
 21
158.412160811
  0
LINE
  5
267
100
AcDbEntity
  8
KONSTRUKTIONSELEMENTE
100
AcDbLine
 62
7
  6
CONTINUOUS
 10
170.1533585415
 20
151.1737835881
 11
169.0895288811
 21
151.3404477116
  0
LINE
  5
268
100
AcDbEntity
  8
KONSTRUKTIONSELEMENTE
100
AcDbLine
 62
7
  6
CONTINUOUS
 10
169.0895288811
 20
150.3404477116
 11
169.9405926094
 21
150.1737835881
  0
LINE
  5
269
100
AcDbEntity
  8
KONSTRUKTIONSELEMENTE
100
AcDbLine
 62
7
  6
CONTINUOUS
 10
165.4725077377
 20
142.8404477116
 11
166.1108055339
 21
142.6737835881
  0
LINE
  5
26A
100
AcDbEntity
  8
KONSTRUKTIONSELEMENTE
100
AcDbLine
 62
7
  6
CONTINUOUS
 10
166.323571466
 20
143.6737835881
 11
165.6852736698
 21
143.8404477116
  0
LINE
  5
26B
100
AcDbEntity
  8
KONSTRUKTIONSELEMENTE
100
AcDbLine
 62
7
  6
CONTINUOUS
 10
171.6427202896
 20
127.5071156499
 11
170.7916564868
 21
128.0071156499
  0
LINE
  5
26C
100
AcDbEntity
  8
KONSTRUKTIONSELEMENTE
100
AcDbLine
 62
7
  6
CONTINUOUS
 10
168.2384648548
 20
123.5071156499
 11
167.8129329906
 21
123.840449619
  0
LINE
  5
26D
100
AcDbEntity
  8
KONSTRUKTIONSELEMENTE
100
AcDbLine
 62
7
  6
CONTINUOUS
 10
131.4937840925
 20
111.6071156499
 11
131.4937840925
 21
155.0140352073
  0
LINE
  5
26E
100
AcDbEntity
  8
KONSTRUKTIONSELEMENTE
100
AcDbLine
 62
7
  6
CONTINUOUS
 10
131.5437840925
 20
245.5071156499
 11
131.5437840925
 21
220.7571156499
  0
LINE
  5
26F
100
AcDbEntity
  8
0
100
AcDbLine
 62
7
  6
CONTINUOUS
 10
131.5437840925
 20
245.5071156499
 11
131.5437840925
 21
264.5531156499
  0
LINE
  5
270
100
AcDbEntity
  8
KONSTRUKTIONSELEMENTE
100
AcDbLine
 62
7
  6
CONTINUOUS
 10
169.0895288811
 20
159.3404477116
 11
165.8980396018
 21
159.3404477116
  0
LINE
  5
271
100
AcDbEntity
  8
KONSTRUKTIONSELEMENTE
100
AcDbLine
 62
7
  6
CONTINUOUS
 10
170.1533585415
 20
159.1737835881
 11
169.0895288811
 21
159.3404477116
  0
LINE
  5
272
100
AcDbEntity
  8
KONSTRUKTIONSELEMENTE
100
AcDbLine
 62
7
  6
CONTINUOUS
 10
169.0895288811
 20
158.3404477116
 11
169.9405926094
 21
158.1737835881
  0
LINE
  5
273
100
AcDbEntity
  8
KONSTRUKTIONSELEMENTE
100
AcDbLine
 62
7
  6
CONTINUOUS
 10
171.0044224189
 20
150.8404477116
 11
170.1533585415
 21
151.1737835881
  0
LINE
  5
274
100
AcDbEntity
  8
KONSTRUKTIONSELEMENTE
100
AcDbLine
 62
7
  6
CONTINUOUS
 10
167.1746351943
 20
143.1737835881
 11
166.323571466
 21
143.6737835881
  0
LINE
  5
275
100
AcDbEntity
  8
KONSTRUKTIONSELEMENTE
100
AcDbLine
 62
7
  6
CONTINUOUS
 10
124.3495362862
 20
170.3349240697
 11
89.8101558019
 21
199.3169054951
  0
LINE
  5
276
100
AcDbEntity
  8
KONSTRUKTIONSELEMENTE
100
AcDbLine
 62
7
  6
CONTINUOUS
 10
164.1959115491
 20
123.840449619
 11
163.770379685
 21
124.340449619
  0
LINE
  5
277
100
AcDbEntity
  8
KONSTRUKTIONSELEMENTE
100
AcDbLine
 62
7
  6
CONTINUOUS
 10
166.323571466
 20
124.1737816807
 11
167.1746351943
 21
123.1737816807
  0
LINE
  5
278
100
AcDbEntity
  8
KONSTRUKTIONSELEMENTE
100
AcDbLine
 62
7
  6
CONTINUOUS
 10
167.8129329906
 20
123.840449619
 11
167.3874011264
 21
124.340449619
  0
LINE
  5
279
100
AcDbEntity
  8
KONSTRUKTIONSELEMENTE
100
AcDbLine
 62
7
  6
CONTINUOUS
 10
162.7065500245
 20
124.1737816807
 11
163.3448478208
 21
123.340449619
  0
LINE
  5
27A
100
AcDbEntity
  8
KONSTRUKTIONSELEMENTE
100
AcDbLine
 62
7
  6
CONTINUOUS
 10
144.77278051
 20
241.9071156499
 11
144.77278051
 21
237.0071156499
  0
LINE
  5
27B
100
AcDbEntity
  8
KONSTRUKTIONSELEMENTE
100
AcDbLine
 62
7
  6
CONTINUOUS
 10
164.4086774812
 20
157.8404477116
 11
165.0469758735
 21
158.1737835881
  0
LINE
  5
27C
100
AcDbEntity
  8
KONSTRUKTIONSELEMENTE
100
AcDbLine
 62
7
  6
CONTINUOUS
 10
164.8342093454
 20
159.1737835881
 11
163.983145617
 21
158.8404477116
  0
LINE
  5
27D
100
AcDbEntity
  8
KONSTRUKTIONSELEMENTE
100
AcDbLine
 62
7
  6
CONTINUOUS
 10
171.0044224189
 20
158.8404477116
 11
170.1533585415
 21
159.1737835881
  0
LINE
  5
27E
100
AcDbEntity
  8
KONSTRUKTIONSELEMENTE
100
AcDbLine
 62
7
  6
CONTINUOUS
 10
169.9405926094
 20
150.1737835881
 11
170.5788904057
 21
149.8404477116
  0
LINE
  5
27F
100
AcDbEntity
  8
KONSTRUKTIONSELEMENTE
100
AcDbLine
 62
7
  6
CONTINUOUS
 10
166.1108055339
 20
142.6737835881
 11
166.5363373981
 21
142.3404477116
  0
LINE
  5
280
100
AcDbEntity
  8
KONSTRUKTIONSELEMENTE
100
AcDbLine
 62
7
  6
CONTINUOUS
 10
170.7916564868
 20
127.0071156499
 11
171.217188351
 21
126.5071156499
  0
LINE
  5
281
100
AcDbEntity
  8
KONSTRUKTIONSELEMENTE
100
AcDbLine
 62
7
  6
CONTINUOUS
 10
172.2810181418
 20
126.6737816807
 11
171.6427202896
 21
127.5071156499
  0
LINE
  5
282
100
AcDbEntity
  8
KONSTRUKTIONSELEMENTE
100
AcDbLine
 62
7
  6
CONTINUOUS
 10
150.9737836596
 20
55.7853523984
 11
150.9737836596
 21
155.0140352073
  0
LINE
  5
283
100
AcDbEntity
  8
KONSTRUKTIONSELEMENTE
100
AcDbLine
 62
7
  6
CONTINUOUS
 10
163.983145617
 20
158.8404477116
 11
163.1320818887
 21
158.1737835881
  0
LINE
  5
284
100
AcDbEntity
  8
KONSTRUKTIONSELEMENTE
100
AcDbLine
 62
7
  6
CONTINUOUS
 10
169.9405926094
 20
158.1737835881
 11
170.5788904057
 21
157.8404477116
  0
LINE
  5
285
100
AcDbEntity
  8
KONSTRUKTIONSELEMENTE
100
AcDbLine
 62
7
  6
CONTINUOUS
 10
171.8554862217
 20
150.1737835881
 11
171.0044224189
 21
150.8404477116
  0
LINE
  5
286
100
AcDbEntity
  8
KONSTRUKTIONSELEMENTE
100
AcDbLine
 62
7
  6
CONTINUOUS
 10
167.6001670585
 20
142.5071156499
 11
167.1746351943
 21
143.1737835881
  0
LINE
  5
287
100
AcDbEntity
  8
KONSTRUKTIONSELEMENTE
100
AcDbLine
 62
7
  6
CONTINUOUS
 10
163.770379685
 20
124.340449619
 11
163.5576137529
 21
124.840449619
  0
LINE
  5
288
100
AcDbEntity
  8
KONSTRUKTIONSELEMENTE
100
AcDbLine
 62
7
  6
CONTINUOUS
 10
167.3874011264
 20
124.340449619
 11
167.1746351943
 21
124.840449619
  0
LINE
  5
289
100
AcDbEntity
  8
KONSTRUKTIONSELEMENTE
100
AcDbLine
 62
7
  6
CONTINUOUS
 10
162.4937840925
 20
125.0071156499
 11
162.7065500245
 21
124.1737816807
  0
LINE
  5
28A
100
AcDbEntity
  8
KONSTRUKTIONSELEMENTE
100
AcDbLine
 62
7
  6
CONTINUOUS
 10
162.4937840925
 20
156.6737835881
 11
162.4937840925
 21
152.6737835881
  0
LINE
  5
28B
100
AcDbEntity
  8
KONSTRUKTIONSELEMENTE
100
AcDbLine
 62
7
  6
CONTINUOUS
 10
162.4937840925
 20
151.3404477116
 11
162.4937840925
 21
150.3404477116
  0
LINE
  5
28C
100
AcDbEntity
  8
KONSTRUKTIONSELEMENTE
100
AcDbLine
 62
7
  6
CONTINUOUS
 10
162.4937840925
 20
146.3404477116
 11
162.4937840925
 21
145.3404477116
  0
LINE
  5
28D
100
AcDbEntity
  8
KONSTRUKTIONSELEMENTE
100
AcDbLine
 62
7
  6
CONTINUOUS
 10
162.4937840925
 20
141.6737835881
 11
162.4937840925
 21
137.6737835881
  0
LINE
  5
28E
100
AcDbEntity
  8
KONSTRUKTIONSELEMENTE
100
AcDbLine
 62
7
  6
CONTINUOUS
 10
162.4937840925
 20
125.6737816807
 11
162.4937840925
 21
125.0071156499
  0
LINE
  5
28F
100
AcDbEntity
  8
KONSTRUKTIONSELEMENTE
100
AcDbLine
 62
7
  6
CONTINUOUS
 10
162.4937840925
 20
121.0071156499
 11
162.4937840925
 21
120.0071156499
  0
LINE
  5
290
100
AcDbEntity
  8
KONSTRUKTIONSELEMENTE
100
AcDbLine
 62
7
  6
CONTINUOUS
 10
162.4937840925
 20
114.0071156499
 11
162.4937840925
 21
113.0071156499
  0
LINE
  5
291
100
AcDbEntity
  8
KONSTRUKTIONSELEMENTE
100
AcDbLine
 62
7
  6
CONTINUOUS
 10
162.4937840925
 20
108.3404486653
 11
162.4937840925
 21
107.3404486653
  0
LINE
  5
292
100
AcDbEntity
  8
KONSTRUKTIONSELEMENTE
100
AcDbLine
 62
7
  6
CONTINUOUS
 10
162.4937840925
 20
106.0071156499
 11
162.4937840925
 21
105.0071156499
  0
LINE
  5
293
100
AcDbEntity
  8
KONSTRUKTIONSELEMENTE
100
AcDbLine
 62
7
  6
CONTINUOUS
 10
162.4937840925
 20
100.3404489037
 11
162.4937840925
 21
99.3404489037
  0
LINE
  5
294
100
AcDbEntity
  8
KONSTRUKTIONSELEMENTE
100
AcDbLine
 62
7
  6
CONTINUOUS
 10
162.4937840925
 20
98.0071156499
 11
162.4937840925
 21
97.0071156499
  0
LINE
  5
295
100
AcDbEntity
  8
KONSTRUKTIONSELEMENTE
100
AcDbLine
 62
7
  6
CONTINUOUS
 10
162.7065500245
 20
157.5071156499
 11
162.4937840925
 21
156.6737835881
  0
LINE
  5
296
100
AcDbEntity
  8
KONSTRUKTIONSELEMENTE
100
AcDbLine
 62
7
  6
CONTINUOUS
 10
163.770379685
 20
156.6737835881
 11
163.983145617
 21
157.3404477116
  0
LINE
  5
297
100
AcDbEntity
  8
AUSFORMSCHRAEGEN
100
AcDbLine
 62
7
  6
CONTINUOUS
 10
131.5415280282
 20
91.4117037043
 11
131.6324940295
 21
91.5867044979
  0
LINE
  5
298
100
AcDbEntity
  8
KONSTRUKTIONSELEMENTE
100
AcDbLine
 62
7
  6
CONTINUOUS
 10
163.1320818887
 20
158.1737835881
 11
162.7065500245
 21
157.5071156499
  0
LINE
  5
299
100
AcDbEntity
  8
KONSTRUKTIONSELEMENTE
100
AcDbLine
 62
7
  6
CONTINUOUS
 10
163.983145617
 20
157.3404477116
 11
164.4086774812
 21
157.8404477116
  0
LINE
  5
29A
100
AcDbEntity
  8
KONSTRUKTIONSELEMENTE
100
AcDbLine
 62
7
  6
CONTINUOUS
 10
163.770379685
 20
142.3404477116
 11
164.1959115491
 21
142.6737835881
  0
LINE
  5
29B
100
AcDbEntity
  8
KONSTRUKTIONSELEMENTE
100
AcDbLine
 62
7
  6
CONTINUOUS
 10
164.1959115491
 20
143.6737835881
 11
163.3448478208
 21
143.1737835881
  0
LINE
  5
29C
100
AcDbEntity
  8
KONSTRUKTIONSELEMENTE
100
AcDbLine
 62
7
  6
CONTINUOUS
 10
170.5788904057
 20
146.8404477116
 11
169.9405926094
 21
146.5071156499
  0
LINE
  5
29D
100
AcDbEntity
  8
KONSTRUKTIONSELEMENTE
100
AcDbLine
 62
7
  6
CONTINUOUS
 10
170.1533585415
 20
145.5071156499
 11
171.0044224189
 21
145.8404477116
  0
LINE
  5
29E
100
AcDbEntity
  8
KONSTRUKTIONSELEMENTE
100
AcDbLine
 62
7
  6
CONTINUOUS
 10
172.4937840925
 20
144.0071156499
 11
167.6001670585
 21
142.5071156499
  0
LINE
  5
29F
100
AcDbEntity
  8
KONSTRUKTIONSELEMENTE
100
AcDbLine
 62
7
  6
CONTINUOUS
 10
168.0256989227
 20
141.5071156499
 11
172.4937840925
 21
142.8404477116
  0
LINE
  5
2A0
100
AcDbEntity
  8
KONSTRUKTIONSELEMENTE
100
AcDbLine
 62
7
  6
CONTINUOUS
 10
171.8554862217
 20
158.1737835881
 11
171.0044224189
 21
158.8404477116
  0
LINE
  5
2A1
100
AcDbEntity
  8
KONSTRUKTIONSELEMENTE
100
AcDbLine
 62
7
  6
CONTINUOUS
 10
136.8710386447
 20
185.2574694901
 11
109.2666191379
 21
208.420327717
  0
LINE
  5
2A2
100
AcDbEntity
  8
KONSTRUKTIONSELEMENTE
100
AcDbLine
 62
7
  6
CONTINUOUS
 10
170.5788904057
 20
149.8404477116
 11
171.0044224189
 21
149.3404477116
  0
LINE
  5
2A3
100
AcDbEntity
  8
KONSTRUKTIONSELEMENTE
100
AcDbLine
 62
7
  6
CONTINUOUS
 10
170.5788904057
 20
157.8404477116
 11
171.0044224189
 21
157.3404477116
  0
LINE
  5
2A4
100
AcDbEntity
  8
KONSTRUKTIONSELEMENTE
100
AcDbLine
 62
7
  6
CONTINUOUS
 10
172.2810181418
 20
149.5071156499
 11
171.8554862217
 21
150.1737835881
  0
LINE
  5
2A5
100
AcDbEntity
  8
KONSTRUKTIONSELEMENTE
100
AcDbLine
 62
7
  6
CONTINUOUS
 10
171.217188351
 20
126.5071156499
 11
171.429954283
 21
126.0071156499
  0
LINE
  5
2A6
100
AcDbEntity
  8
KONSTRUKTIONSELEMENTE
100
AcDbLine
 62
7
  6
CONTINUOUS
 10
166.5363373981
 20
142.3404477116
 11
166.7491033302
 21
141.8404477116
  0
LINE
  5
2A7
100
AcDbEntity
  8
KONSTRUKTIONSELEMENTE
100
AcDbLine
 62
7
  6
CONTINUOUS
 10
166.1108055339
 20
125.0071156499
 11
166.323571466
 21
124.1737816807
  0
LINE
  5
2A8
100
AcDbEntity
  8
KONSTRUKTIONSELEMENTE
100
AcDbLine
 62
7
  6
CONTINUOUS
 10
163.5576137529
 20
124.840449619
 11
163.5576137529
 21
125.840449619
  0
LINE
  5
2A9
100
AcDbEntity
  8
KONSTRUKTIONSELEMENTE
100
AcDbLine
 62
7
  6
CONTINUOUS
 10
163.5576137529
 20
138.6737835881
 11
163.5576137529
 21
141.8404477116
  0
LINE
  5
2AA
100
AcDbEntity
  8
KONSTRUKTIONSELEMENTE
100
AcDbLine
 62
7
  6
CONTINUOUS
 10
163.770379685
 20
153.6737835881
 11
163.770379685
 21
156.6737835881
  0
LINE
  5
2AB
100
AcDbEntity
  8
KONSTRUKTIONSELEMENTE
100
AcDbLine
 62
7
  6
CONTINUOUS
 10
164.8342093454
 20
127.1737816807
 11
164.8342093454
 21
128.0071156499
  0
LINE
  5
2AC
100
AcDbEntity
  8
KONSTRUKTIONSELEMENTE
100
AcDbLine
 62
7
  6
CONTINUOUS
 10
165.0937840925
 20
209.2071156499
 11
165.0937840925
 21
255.4071156499
  0
LINE
  5
2AD
100
AcDbEntity
  8
KONSTRUKTIONSELEMENTE
100
AcDbLine
 62
7
  6
CONTINUOUS
 10
166.1108055339
 20
125.840449619
 11
166.1108055339
 21
125.0071156499
  0
LINE
  5
2AE
100
AcDbEntity
  8
KONSTRUKTIONSELEMENTE
100
AcDbLine
 62
7
  6
CONTINUOUS
 10
166.5363373981
 20
113.0071156499
 11
166.5363373981
 21
108.3404486653
  0
LINE
  5
2AF
100
AcDbEntity
  8
KONSTRUKTIONSELEMENTE
100
AcDbLine
 62
7
  6
CONTINUOUS
 10
166.7491033302
 20
141.8404477116
 11
166.7491033302
 21
138.6737835881
  0
LINE
  5
2B0
100
AcDbEntity
  8
KONSTRUKTIONSELEMENTE
100
AcDbLine
 62
7
  6
CONTINUOUS
 10
167.1746351943
 20
124.840449619
 11
167.1746351943
 21
126.0071156499
  0
LINE
  5
2B1
100
AcDbEntity
  8
KONSTRUKTIONSELEMENTE
100
AcDbLine
 62
7
  6
CONTINUOUS
 10
167.8129329906
 20
117.6737816807
 11
167.8129329906
 21
115.340449619
  0
LINE
  5
2B2
100
AcDbEntity
  8
KONSTRUKTIONSELEMENTE
100
AcDbLine
 62
7
  6
CONTINUOUS
 10
167.8129329906
 20
108.3404486653
 11
167.8129329906
 21
113.0071156499
  0
LINE
  5
2B3
100
AcDbEntity
  8
KONSTRUKTIONSELEMENTE
100
AcDbLine
 62
7
  6
CONTINUOUS
 10
168.0256989227
 20
138.6737835881
 11
168.0256989227
 21
141.5071156499
  0
LINE
  5
2B4
100
AcDbEntity
  8
KONSTRUKTIONSELEMENTE
100
AcDbLine
 62
7
  6
CONTINUOUS
 10
168.876762949
 20
115.340449619
 11
168.876762949
 21
117.6737816807
  0
LINE
  5
2B5
100
AcDbEntity
  8
KONSTRUKTIONSELEMENTE
100
AcDbLine
 62
7
  6
CONTINUOUS
 10
171.217188351
 20
156.6737835881
 11
171.217188351
 21
153.6737835881
  0
LINE
  5
2B6
100
AcDbEntity
  8
KONSTRUKTIONSELEMENTE
100
AcDbLine
 62
7
  6
CONTINUOUS
 10
171.217188351
 20
148.6737835881
 11
171.217188351
 21
148.0071156499
  0
LINE
  5
2B7
100
AcDbEntity
  8
KONSTRUKTIONSELEMENTE
100
AcDbLine
 62
7
  6
CONTINUOUS
 10
162.7065500245
 20
142.5071156499
 11
162.4937840925
 21
141.6737835881
  0
LINE
  5
2B8
100
AcDbEntity
  8
KONSTRUKTIONSELEMENTE
100
AcDbLine
 62
7
  6
CONTINUOUS
 10
162.7065500245
 20
126.5071156499
 11
162.4937840925
 21
125.6737816807
  0
LINE
  5
2B9
100
AcDbEntity
  8
AUSFORMSCHRAEGEN
100
AcDbLine
 62
7
  6
CONTINUOUS
 10
130.4825585147
 20
47.9991625062
 11
135.1492843292
 21
60.8208863043
  0
LINE
  5
2BA
100
AcDbEntity
  8
KONSTRUKTIONSELEMENTE
100
AcDbLine
 62
7
  6
CONTINUOUS
 10
163.5576137529
 20
141.8404477116
 11
163.770379685
 21
142.3404477116
  0
LINE
  5
2BB
100
AcDbEntity
  8
KONSTRUKTIONSELEMENTE
100
AcDbLine
 62
7
  6
CONTINUOUS
 10
171.8554862217
 20
146.5071156499
 11
172.2810181418
 21
147.1737835881
  0
LINE
  5
2BC
100
AcDbEntity
  8
KONSTRUKTIONSELEMENTE
100
AcDbLine
 62
7
  6
CONTINUOUS
 10
171.0044224189
 20
147.3404477116
 11
170.5788904057
 21
146.8404477116
  0
LINE
  5
2BD
100
AcDbEntity
  8
KONSTRUKTIONSELEMENTE
100
AcDbLine
 62
7
  6
CONTINUOUS
 10
163.3448478208
 20
143.1737835881
 11
162.7065500245
 21
142.5071156499
  0
LINE
  5
2BE
100
AcDbEntity
  8
KONSTRUKTIONSELEMENTE
100
AcDbLine
 62
7
  6
CONTINUOUS
 10
171.0044224189
 20
145.8404477116
 11
171.8554862217
 21
146.5071156499
  0
LINE
  5
2BF
100
AcDbEntity
  8
KONSTRUKTIONSELEMENTE
100
AcDbLine
 62
7
  6
CONTINUOUS
 10
168.6639967189
 20
128.340449619
 11
167.6001670585
 21
128.0071156499
  0
LINE
  5
2C0
100
AcDbEntity
  8
KONSTRUKTIONSELEMENTE
100
AcDbLine
 62
7
  6
CONTINUOUS
 10
172.2810181418
 20
157.5071156499
 11
171.8554862217
 21
158.1737835881
  0
LINE
  5
2C1
100
AcDbEntity
  8
KONSTRUKTIONSELEMENTE
100
AcDbLine
 62
7
  6
CONTINUOUS
 10
171.0044224189
 20
149.3404477116
 11
171.217188351
 21
148.6737835881
  0
LINE
  5
2C2
100
AcDbEntity
  8
KONSTRUKTIONSELEMENTE
100
AcDbLine
 62
7
  6
CONTINUOUS
 10
171.0044224189
 20
157.3404477116
 11
171.217188351
 21
156.6737835881
  0
LINE
  5
2C3
100
AcDbEntity
  8
KONSTRUKTIONSELEMENTE
100
AcDbLine
 62
7
  6
CONTINUOUS
 10
172.4937840925
 20
125.840449619
 11
172.2810181418
 21
126.6737816807
  0
LINE
  5
2C4
100
AcDbEntity
  8
KONSTRUKTIONSELEMENTE
100
AcDbLine
 62
7
  6
CONTINUOUS
 10
172.4937840925
 20
148.6737835881
 11
172.2810181418
 21
149.5071156499
  0
LINE
  5
2C5
100
AcDbEntity
  8
KONSTRUKTIONSELEMENTE
100
AcDbLine
 62
7
  6
CONTINUOUS
 10
172.4937840925
 20
156.6737835881
 11
172.2810181418
 21
157.5071156499
  0
LINE
  5
2C6
100
AcDbEntity
  8
KONSTRUKTIONSELEMENTE
100
AcDbLine
 62
7
  6
CONTINUOUS
 10
171.429954283
 20
126.0071156499
 11
171.429954283
 21
124.840449619
  0
LINE
  5
2C7
100
AcDbEntity
  8
KONSTRUKTIONSELEMENTE
100
AcDbLine
 62
7
  6
CONTINUOUS
 10
172.4937840925
 20
97.0071156499
 11
172.4937840925
 21
98.0071156499
  0
LINE
  5
2C8
100
AcDbEntity
  8
KONSTRUKTIONSELEMENTE
100
AcDbLine
 62
7
  6
CONTINUOUS
 10
172.4937840925
 20
102.0071156499
 11
172.4937840925
 21
103.3404491421
  0
LINE
  5
2C9
100
AcDbEntity
  8
KONSTRUKTIONSELEMENTE
100
AcDbLine
 62
7
  6
CONTINUOUS
 10
172.4937840925
 20
107.3404486653
 11
172.4937840925
 21
108.3404486653
  0
LINE
  5
2CA
100
AcDbEntity
  8
KONSTRUKTIONSELEMENTE
100
AcDbLine
 62
7
  6
CONTINUOUS
 10
172.4937840925
 20
113.0071156499
 11
172.4937840925
 21
114.0071156499
  0
LINE
  5
2CB
100
AcDbEntity
  8
KONSTRUKTIONSELEMENTE
100
AcDbLine
 62
7
  6
CONTINUOUS
 10
172.4937840925
 20
120.0071156499
 11
172.4937840925
 21
121.0071156499
  0
LINE
  5
2CC
100
AcDbEntity
  8
KONSTRUKTIONSELEMENTE
100
AcDbLine
 62
7
  6
CONTINUOUS
 10
172.4937840925
 20
125.0071156499
 11
172.4937840925
 21
125.840449619
  0
LINE
  5
2CD
100
AcDbEntity
  8
KONSTRUKTIONSELEMENTE
100
AcDbLine
 62
7
  6
CONTINUOUS
 10
172.4937840925
 20
137.6737835881
 11
172.4937840925
 21
138.6737835881
  0
LINE
  5
2CE
100
AcDbEntity
  8
KONSTRUKTIONSELEMENTE
100
AcDbLine
 62
7
  6
CONTINUOUS
 10
172.4937840925
 20
142.8404477116
 11
172.4937840925
 21
144.0071156499
  0
LINE
  5
2CF
100
AcDbEntity
  8
KONSTRUKTIONSELEMENTE
100
AcDbLine
 62
7
  6
CONTINUOUS
 10
172.4937840925
 20
148.0071156499
 11
172.4937840925
 21
148.6737835881
  0
LINE
  5
2D0
100
AcDbEntity
  8
KONSTRUKTIONSELEMENTE
100
AcDbLine
 62
7
  6
CONTINUOUS
 10
172.4937840925
 20
152.6737835881
 11
172.4937840925
 21
156.6737835881
  0
LINE
  5
2D1
100
AcDbEntity
  8
KONSTRUKTIONSELEMENTE
100
AcDbLine
 62
7
  6
CONTINUOUS
 10
166.323571466
 20
126.6737816807
 11
166.1108055339
 21
125.840449619
  0
LINE
  5
2D2
100
AcDbEntity
  8
KONSTRUKTIONSELEMENTE
100
AcDbLine
 62
7
  6
CONTINUOUS
 10
172.2810181418
 20
147.1737835881
 11
172.4937840925
 21
148.0071156499
  0
LINE
  5
2D3
100
AcDbEntity
  8
KONSTRUKTIONSELEMENTE
100
AcDbLine
 62
7
  6
CONTINUOUS
 10
172.2810181418
 20
124.1737816807
 11
172.4937840925
 21
125.0071156499
  0
LINE
  5
2D4
100
AcDbEntity
  8
KONSTRUKTIONSELEMENTE
100
AcDbLine
 62
7
  6
CONTINUOUS
 10
171.217188351
 20
148.0071156499
 11
171.0044224189
 21
147.3404477116
  0
LINE
  5
2D5
100
AcDbEntity
  8
KONSTRUKTIONSELEMENTE
100
AcDbLine
 62
7
  6
CONTINUOUS
 10
163.5576137529
 20
125.840449619
 11
163.770379685
 21
126.340449619
  0
LINE
  5
2D6
100
AcDbEntity
  8
KONSTRUKTIONSELEMENTE
100
AcDbLine
 62
7
  6
CONTINUOUS
 10
167.1746351943
 20
126.0071156499
 11
167.3874011264
 21
126.5071156499
  0
LINE
  5
2D7
100
AcDbEntity
  8
KONSTRUKTIONSELEMENTE
100
AcDbLine
 62
7
  6
CONTINUOUS
 10
163.3448478208
 20
127.340449619
 11
162.7065500245
 21
126.5071156499
  0
LINE
  5
2D8
100
AcDbEntity
  8
KONSTRUKTIONSELEMENTE
100
AcDbLine
 62
7
  6
CONTINUOUS
 10
166.9618692623
 20
127.5071156499
 11
166.323571466
 21
126.6737816807
  0
LINE
  5
2D9
100
AcDbEntity
  8
KONSTRUKTIONSELEMENTE
100
AcDbLine
 62
7
  6
CONTINUOUS
 10
163.770379685
 20
126.340449619
 11
164.1959115491
 21
126.840449619
  0
LINE
  5
2DA
100
AcDbEntity
  8
KONSTRUKTIONSELEMENTE
100
AcDbLine
 62
7
  6
CONTINUOUS
 10
167.3874011264
 20
126.5071156499
 11
167.8129329906
 21
127.0071156499
  0
LINE
  5
2DB
100
AcDbEntity
  8
KONSTRUKTIONSELEMENTE
100
AcDbLine
 62
7
  6
CONTINUOUS
 10
167.6001670585
 20
128.0071156499
 11
166.9618692623
 21
127.5071156499
  0
LINE
  5
2DC
100
AcDbEntity
  8
KONSTRUKTIONSELEMENTE
100
AcDbLine
 62
7
  6
CONTINUOUS
 10
167.8129329906
 20
127.0071156499
 11
168.2384648548
 21
127.340449619
  0
LINE
  5
2DD
100
AcDbEntity
  8
KONSTRUKTIONSELEMENTE
100
AcDbLine
 62
7
  6
CONTINUOUS
 10
164.1959115491
 20
127.840449619
 11
163.3448478208
 21
127.340449619
  0
LINE
  5
2DE
100
AcDbEntity
  8
KONSTRUKTIONSELEMENTE
100
AcDbLine
 62
7
  6
CONTINUOUS
 10
164.1959115491
 20
126.840449619
 11
164.8342093454
 21
127.1737816807
  0
LINE
  5
2DF
100
AcDbEntity
  8
KONSTRUKTIONSELEMENTE
100
AcDbLine
 62
7
  6
CONTINUOUS
 10
170.7916564868
 20
123.840449619
 11
170.1533585415
 21
123.5071156499
  0
LINE
  5
2E0
100
AcDbEntity
  8
KONSTRUKTIONSELEMENTE
100
AcDbLine
 62
7
  6
CONTINUOUS
 10
169.7278266774
 20
122.5071156499
 11
170.7916564868
 21
122.840449619
  0
LINE
  5
2E1
100
AcDbEntity
  8
KONSTRUKTIONSELEMENTE
100
AcDbLine
 62
7
  6
CONTINUOUS
 10
184.4937840925
 20
98.8571149664
 11
184.4937840925
 21
160.041680637
  0
LINE
  5
2E2
100
AcDbEntity
  8
KONSTRUKTIONSELEMENTE
100
AcDbLine
 62
7
  6
CONTINUOUS
 10
171.429954283
 20
124.840449619
 11
171.217188351
 21
124.340449619
  0
LINE
  5
2E3
100
AcDbEntity
  8
KONSTRUKTIONSELEMENTE
100
AcDbLine
 62
7
  6
CONTINUOUS
 10
171.6427202896
 20
123.340449619
 11
172.2810181418
 21
124.1737816807
  0
LINE
  5
2E4
100
AcDbEntity
  8
KONSTRUKTIONSELEMENTE
100
AcDbLine
 62
7
  6
CONTINUOUS
 10
171.217188351
 20
124.340449619
 11
170.7916564868
 21
123.840449619
  0
LINE
  5
2E5
100
AcDbEntity
  8
KONSTRUKTIONSELEMENTE
100
AcDbLine
 62
7
  6
CONTINUOUS
 10
170.7916564868
 20
122.840449619
 11
171.6427202896
 21
123.340449619
  0
LINE
  5
2E6
100
AcDbEntity
  8
KONSTRUKTIONSELEMENTE
100
AcDbLine
 62
7
  6
CONTINUOUS
 10
87.1033026341
 20
216.487115217
 11
79.6619842353
 21
216.487115217
  0
LINE
  5
2E7
100
AcDbEntity
  8
BEZUGSACHSEN
100
AcDbLine
 62
7
  6
CONTINUOUS
 10
112.6437840925
 20
230.7071156499
 11
131.5437840925
 21
230.7071156499
  0
LINE
  5
2E8
100
AcDbEntity
  8
BEZUGSACHSEN
100
AcDbLine
 62
7
  6
CONTINUOUS
 10
79.0937840925
 20
241.9071156499
 11
90.7954512224
 21
241.9071156499
  0
LINE
  5
2E9
100
AcDbEntity
  8
KONSTRUKTIONSELEMENTE
100
AcDbLine
 62
7
  6
CONTINUOUS
 10
96.7921169626
 20
241.9071156499
 11
99.4147876749
 21
241.9071156499
  0
LINE
  5
2EA
100
AcDbEntity
  8
KONSTRUKTIONSELEMENTE
100
AcDbLine
 62
7
  6
CONTINUOUS
 10
144.77278051
 20
241.9071156499
 11
165.0937840925
 21
241.9071156499
  0
LINE
  5
2EB
100
AcDbEntity
  8
TEIL_STARTBEZUEGE
100
AcDbLine
 62
2
  6
CENTER
 10
76.285182546
 20
242.0071156499
 11
166.9281231713
 21
242.0071156499
  0
LINE
  5
2EC
100
AcDbEntity
  8
0
100
AcDbLine
 62
7
  6
CONTINUOUS
 10
154.6050387027
 20
267.9071156499
 11
165.0937840925
 21
255.4071156499
  0
LINE
  5
2ED
100
AcDbEntity
  8
BEZUGSACHSEN
100
AcDbLine
 62
7
  6
CONTINUOUS
 10
131.5437840925
 20
253.3071156499
 11
112.6437840925
 21
253.3071156499
  0
LINE
  5
2EE
100
AcDbEntity
  8
KONSTRUKTIONSELEMENTE
100
AcDbLine
 62
7
  6
CONTINUOUS
 10
89.5825294822
 20
267.9071156499
 11
100.8362289074
 21
267.9071156499
  0
LINE
  5
2EF
100
AcDbEntity
  8
KONSTRUKTIONSELEMENTE
100
AcDbLine
 62
7
  6
CONTINUOUS
 10
143.3513392775
 20
267.9071156499
 11
154.6050387027
 21
267.9071156499
  0
LINE
  5
2F0
100
AcDbEntity
  8
KONSTRUKTIONSELEMENTE
100
AcDbLine
 62
7
  6
CONTINUOUS
 10
304.0449153642
 20
47.9071156499
 11
273.6914874788
 21
47.9071156499
  0
LINE
  5
2F1
100
AcDbEntity
  8
0
100
AcDbLine
 62
7
  6
CONTINUOUS
 10
260.8326675155
 20
60.8208863043
 11
273.7375204491
 21
47.9160333707
  0
LINE
  5
2F2
100
AcDbEntity
  8
0
100
AcDbLine
 62
7
  6
CONTINUOUS
 10
257.3469669574
 20
100.7930349576
 11
270.4949694528
 21
91.5867044979
  0
LINE
  5
2F3
100
AcDbEntity
  8
KONSTRUKTIONSELEMENTE
100
AcDbLine
 62
8
  6
HIDDEN
 10
275.1728564511
 20
102.6071156499
 11
302.5635463919
 21
102.6071156499
  0
LINE
  5
2F4
100
AcDbEntity
  8
DEFAULT_2
100
AcDbLine
 62
8
  6
HIDDEN
 10
275.1728564511
 20
102.6071156499
 11
302.5635463919
 21
102.6071156499
  0
LINE
  5
2F5
100
AcDbEntity
  8
0
100
AcDbLine
 62
7
  6
CONTINUOUS
 10
275.1728564511
 20
102.6071156499
 11
260.7209302519
 21
108.7415943671
  0
LINE
  5
2F6
100
AcDbEntity
  8
KONSTRUKTIONSELEMENTE
100
AcDbLine
 62
7
  6
CONTINUOUS
 10
311.8682014215
 20
107.3404486653
 11
312.6532014215
 21
107.3404486653
  0
LINE
  5
2F7
100
AcDbEntity
  8
KONSTRUKTIONSELEMENTE
100
AcDbLine
 62
7
  6
CONTINUOUS
 10
311.8682014215
 20
108.3404486653
 11
312.6532014215
 21
108.3404486653
  0
LINE
  5
2F8
100
AcDbEntity
  8
KONSTRUKTIONSELEMENTE
100
AcDbLine
 62
7
  6
CONTINUOUS
 10
311.8682014215
 20
113.0071156499
 11
312.6532014215
 21
113.0071156499
  0
LINE
  5
2F9
100
AcDbEntity
  8
KONSTRUKTIONSELEMENTE
100
AcDbLine
 62
7
  6
CONTINUOUS
 10
311.8682014215
 20
114.0071156499
 11
312.6532014215
 21
114.0071156499
  0
LINE
  5
2FA
100
AcDbEntity
  8
KONSTRUKTIONSELEMENTE
100
AcDbLine
 62
7
  6
CONTINUOUS
 10
311.8682014215
 20
115.340449619
 11
312.6532014215
 21
115.340449619
  0
LINE
  5
2FB
100
AcDbEntity
  8
KONSTRUKTIONSELEMENTE
100
AcDbLine
 62
7
  6
CONTINUOUS
 10
311.8682014215
 20
117.6737816807
 11
312.6532014215
 21
117.6737816807
  0
LINE
  5
2FC
100
AcDbEntity
  8
KONSTRUKTIONSELEMENTE
100
AcDbLine
 62
7
  6
CONTINUOUS
 10
311.8682014215
 20
119.0071156499
 11
312.6532014215
 21
119.0071156499
  0
LINE
  5
2FD
100
AcDbEntity
  8
KONSTRUKTIONSELEMENTE
100
AcDbLine
 62
7
  6
CONTINUOUS
 10
311.8682014215
 20
120.0071156499
 11
312.6532014215
 21
120.0071156499
  0
LINE
  5
2FE
100
AcDbEntity
  8
0
100
AcDbLine
 62
7
  6
CONTINUOUS
 10
266.494730229
 20
247.7899263432
 11
265.8682014215
 21
241.9071156499
  0
LINE
  5
2FF
100
AcDbEntity
  8
KONSTRUKTIONSELEMENTE
100
AcDbLine
 62
7
  6
CONTINUOUS
 10
311.8682014215
 20
121.0071156499
 11
312.6532014215
 21
121.0071156499
  0
LINE
  5
300
100
AcDbEntity
  8
KONSTRUKTIONSELEMENTE
100
AcDbLine
 62
7
  6
CONTINUOUS
 10
311.8682014215
 20
122.340449619
 11
312.6532014215
 21
122.340449619
  0
LINE
  5
301
100
AcDbEntity
  8
KONSTRUKTIONSELEMENTE
100
AcDbLine
 62
7
  6
CONTINUOUS
 10
311.8682014215
 20
122.5071156499
 11
312.6532014215
 21
122.5071156499
  0
LINE
  5
302
100
AcDbEntity
  8
KONSTRUKTIONSELEMENTE
100
AcDbLine
 62
7
  6
CONTINUOUS
 10
311.8682014215
 20
122.840449619
 11
312.6532014215
 21
122.840449619
  0
LINE
  5
303
100
AcDbEntity
  8
KONSTRUKTIONSELEMENTE
100
AcDbLine
 62
7
  6
CONTINUOUS
 10
311.8682014215
 20
123.340449619
 11
312.6532014215
 21
123.340449619
  0
LINE
  5
304
100
AcDbEntity
  8
KONSTRUKTIONSELEMENTE
100
AcDbLine
 62
7
  6
CONTINUOUS
 10
311.8682014215
 20
124.1737816807
 11
312.6532014215
 21
124.1737816807
  0
LINE
  5
305
100
AcDbEntity
  8
KONSTRUKTIONSELEMENTE
100
AcDbLine
 62
7
  6
CONTINUOUS
 10
311.8682014215
 20
125.0071156499
 11
312.6532014215
 21
125.0071156499
  0
LINE
  5
306
100
AcDbEntity
  8
KONSTRUKTIONSELEMENTE
100
AcDbLine
 62
7
  6
CONTINUOUS
 10
311.8682014215
 20
125.6737816807
 11
312.6532014215
 21
125.6737816807
  0
LINE
  5
307
100
AcDbEntity
  8
KONSTRUKTIONSELEMENTE
100
AcDbLine
 62
7
  6
CONTINUOUS
 10
311.8682014215
 20
126.5071156499
 11
312.6532014215
 21
126.5071156499
  0
LINE
  5
308
100
AcDbEntity
  8
KONSTRUKTIONSELEMENTE
100
AcDbLine
 62
7
  6
CONTINUOUS
 10
311.8682014215
 20
127.340449619
 11
312.6532014215
 21
127.340449619
  0
LINE
  5
309
100
AcDbEntity
  8
KONSTRUKTIONSELEMENTE
100
AcDbLine
 62
7
  6
CONTINUOUS
 10
311.8682014215
 20
127.840449619
 11
312.6532014215
 21
127.840449619
  0
LINE
  5
30A
100
AcDbEntity
  8
KONSTRUKTIONSELEMENTE
100
AcDbLine
 62
7
  6
CONTINUOUS
 10
311.8682014215
 20
128.0071156499
 11
312.6532014215
 21
128.0071156499
  0
LINE
  5
30B
100
AcDbEntity
  8
KONSTRUKTIONSELEMENTE
100
AcDbLine
 62
7
  6
CONTINUOUS
 10
311.8682014215
 20
128.340449619
 11
312.6532014215
 21
128.340449619
  0
LINE
  5
30C
100
AcDbEntity
  8
0
100
AcDbLine
 62
7
  6
CONTINUOUS
 10
265.8682014215
 20
80.6867220852
 11
265.8682014215
 21
94.826402351
  0
LINE
  5
30D
100
AcDbEntity
  8
0
100
AcDbLine
 62
7
  6
CONTINUOUS
 10
265.8682014215
 20
106.5567073835
 11
265.8682014215
 21
241.9071156499
  0
LINE
  5
30E
100
AcDbEntity
  8
0
100
AcDbLine
 62
7
  6
CONTINUOUS
 10
268.8682014215
 20
161.8021091435
 11
268.8682014215
 21
158.412160811
  0
LINE
  5
30F
100
AcDbEntity
  8
KONSTRUKTIONSELEMENTE
100
AcDbLine
 62
7
  6
CONTINUOUS
 10
311.8682014215
 20
137.6737835881
 11
312.6532014215
 21
137.6737835881
  0
LINE
  5
310
100
AcDbEntity
  8
KONSTRUKTIONSELEMENTE
100
AcDbLine
 62
7
  6
CONTINUOUS
 10
311.8682014215
 20
141.6737835881
 11
312.6532014215
 21
141.6737835881
  0
LINE
  5
311
100
AcDbEntity
  8
KONSTRUKTIONSELEMENTE
100
AcDbLine
 62
7
  6
CONTINUOUS
 10
311.8682014215
 20
142.5071156499
 11
312.6532014215
 21
142.5071156499
  0
LINE
  5
312
100
AcDbEntity
  8
KONSTRUKTIONSELEMENTE
100
AcDbLine
 62
7
  6
CONTINUOUS
 10
311.8682014215
 20
143.1737835881
 11
312.6532014215
 21
143.1737835881
  0
LINE
  5
313
100
AcDbEntity
  8
KONSTRUKTIONSELEMENTE
100
AcDbLine
 62
7
  6
CONTINUOUS
 10
311.8682014215
 20
143.6737835881
 11
312.6532014215
 21
143.6737835881
  0
LINE
  5
314
100
AcDbEntity
  8
0
100
AcDbLine
 62
7
  6
CONTINUOUS
 10
275.0528324608
 20
141.4200266828
 11
268.8682014215
 21
158.412160811
  0
LINE
  5
315
100
AcDbEntity
  8
0
100
AcDbLine
 62
7
  6
CONTINUOUS
 10
278.0682014215
 20
124.3190195166
 11
278.0682014215
 21
109.4281209482
  0
LINE
  5
316
100
AcDbEntity
  8
0
100
AcDbLine
 62
7
  6
CONTINUOUS
 10
260.7209302519
 20
108.7415943671
 11
257.3469669574
 21
100.7930349576
  0
LINE
  5
317
100
AcDbEntity
  8
KONSTRUKTIONSELEMENTE
100
AcDbLine
 62
7
  6
CONTINUOUS
 10
311.8682014215
 20
143.8404477116
 11
312.6532014215
 21
143.8404477116
  0
LINE
  5
318
100
AcDbEntity
  8
KONSTRUKTIONSELEMENTE
100
AcDbLine
 62
7
  6
CONTINUOUS
 10
311.8682014215
 20
144.0071156499
 11
312.6532014215
 21
144.0071156499
  0
LINE
  5
319
100
AcDbEntity
  8
KONSTRUKTIONSELEMENTE
100
AcDbLine
 62
7
  6
CONTINUOUS
 10
311.8682014215
 20
145.3404477116
 11
312.6532014215
 21
145.3404477116
  0
LINE
  5
31A
100
AcDbEntity
  8
KONSTRUKTIONSELEMENTE
100
AcDbLine
 62
7
  6
CONTINUOUS
 10
311.8682014215
 20
146.3404477116
 11
312.6532014215
 21
146.3404477116
  0
LINE
  5
31B
100
AcDbEntity
  8
KONSTRUKTIONSELEMENTE
100
AcDbLine
 62
7
  6
CONTINUOUS
 10
311.8682014215
 20
146.5071156499
 11
312.6532014215
 21
146.5071156499
  0
LINE
  5
31C
100
AcDbEntity
  8
KONSTRUKTIONSELEMENTE
100
AcDbLine
 62
7
  6
CONTINUOUS
 10
311.8682014215
 20
146.8404477116
 11
312.6532014215
 21
146.8404477116
  0
LINE
  5
31D
100
AcDbEntity
  8
KONSTRUKTIONSELEMENTE
100
AcDbLine
 62
7
  6
CONTINUOUS
 10
311.8682014215
 20
147.3404477116
 11
312.6532014215
 21
147.3404477116
  0
LINE
  5
31E
100
AcDbEntity
  8
KONSTRUKTIONSELEMENTE
100
AcDbLine
 62
7
  6
CONTINUOUS
 10
311.8682014215
 20
148.0071156499
 11
312.6532014215
 21
148.0071156499
  0
LINE
  5
31F
100
AcDbEntity
  8
KONSTRUKTIONSELEMENTE
100
AcDbLine
 62
7
  6
CONTINUOUS
 10
311.8682014215
 20
148.6737835881
 11
312.6532014215
 21
148.6737835881
  0
LINE
  5
320
100
AcDbEntity
  8
KONSTRUKTIONSELEMENTE
100
AcDbLine
 62
7
  6
CONTINUOUS
 10
311.8682014215
 20
149.3404477116
 11
312.6532014215
 21
149.3404477116
  0
LINE
  5
321
100
AcDbEntity
  8
KONSTRUKTIONSELEMENTE
100
AcDbLine
 62
7
  6
CONTINUOUS
 10
311.8682014215
 20
149.8404477116
 11
312.6532014215
 21
149.8404477116
  0
LINE
  5
322
100
AcDbEntity
  8
KONSTRUKTIONSELEMENTE
100
AcDbLine
 62
7
  6
CONTINUOUS
 10
311.8682014215
 20
150.1737835881
 11
312.6532014215
 21
150.1737835881
  0
LINE
  5
323
100
AcDbEntity
  8
KONSTRUKTIONSELEMENTE
100
AcDbLine
 62
7
  6
CONTINUOUS
 10
311.8682014215
 20
150.3404477116
 11
312.6532014215
 21
150.3404477116
  0
LINE
  5
324
100
AcDbEntity
  8
KONSTRUKTIONSELEMENTE
100
AcDbLine
 62
7
  6
CONTINUOUS
 10
317.9707256887
 20
66.3100758527
 11
299.6682014215
 21
109.4281209482
  0
LINE
  5
325
100
AcDbEntity
  8
0
100
AcDbLine
 62
7
  6
CONTINUOUS
 10
283.5031747192
 20
173.1071156499
 11
283.5031747192
 21
193.4977822967
  0
LINE
  5
326
100
AcDbEntity
  8
TEIL_STARTBEZUEGE
100
AcDbLine
 62
2
  6
CENTER
 10
288.8682014215
 20
242.0071156499
 11
288.8682014215
 21
49.3302624211
  0
LINE
  5
327
100
AcDbEntity
  8
TEIL_STARTBEZUEGE
100
AcDbLine
 62
2
  6
CENTER
 10
288.8682014215
 20
242.0071156499
 11
288.8682014215
 21
277.4921437093
  0
LINE
  5
328
100
AcDbEntity
  8
KONSTRUKTIONSELEMENTE
100
AcDbLine
 62
7
  6
CONTINUOUS
 10
311.8682014215
 20
151.3404477116
 11
312.6532014215
 21
151.3404477116
  0
LINE
  5
329
100
AcDbEntity
  8
KONSTRUKTIONSELEMENTE
100
AcDbLine
 62
7
  6
CONTINUOUS
 10
311.8682014215
 20
152.6737835881
 11
312.6532014215
 21
152.6737835881
  0
LINE
  5
32A
100
AcDbEntity
  8
KONSTRUKTIONSELEMENTE
100
AcDbLine
 62
7
  6
CONTINUOUS
 10
311.8682014215
 20
156.6737835881
 11
312.6532014215
 21
156.6737835881
  0
LINE
  5
32B
100
AcDbEntity
  8
KONSTRUKTIONSELEMENTE
100
AcDbLine
 62
7
  6
CONTINUOUS
 10
311.8682014215
 20
157.5071156499
 11
312.6532014215
 21
157.5071156499
  0
LINE
  5
32C
100
AcDbEntity
  8
KONSTRUKTIONSELEMENTE
100
AcDbLine
 62
7
  6
CONTINUOUS
 10
311.8682014215
 20
158.1737835881
 11
312.6532014215
 21
158.1737835881
  0
LINE
  5
32D
100
AcDbEntity
  8
KONSTRUKTIONSELEMENTE
100
AcDbLine
 62
7
  6
CONTINUOUS
 10
311.8682014215
 20
158.8404477116
 11
312.6532014215
 21
158.8404477116
  0
LINE
  5
32E
100
AcDbEntity
  8
KONSTRUKTIONSELEMENTE
100
AcDbLine
 62
7
  6
CONTINUOUS
 10
294.2332281238
 20
173.1071156499
 11
294.2332281238
 21
193.4977822967
  0
LINE
  5
32F
100
AcDbEntity
  8
KONSTRUKTIONSELEMENTE
100
AcDbLine
 62
7
  6
CONTINUOUS
 10
311.8682014215
 20
159.1737835881
 11
312.6532014215
 21
159.1737835881
  0
LINE
  5
330
100
AcDbEntity
  8
KONSTRUKTIONSELEMENTE
100
AcDbLine
 62
7
  6
CONTINUOUS
 10
311.8682014215
 20
159.3404477116
 11
312.6532014215
 21
159.3404477116
  0
LINE
  5
331
100
AcDbEntity
  8
KONSTRUKTIONSELEMENTE
100
AcDbLine
 62
7
  6
CONTINUOUS
 10
317.0154725911
 20
108.7415943671
 11
320.3894358856
 21
100.7930349576
  0
LINE
  5
332
100
AcDbEntity
  8
KONSTRUKTIONSELEMENTE
100
AcDbLine
 62
7
  6
CONTINUOUS
 10
299.6682014215
 20
124.3190195166
 11
299.6682014215
 21
109.4281209482
  0
LINE
  5
333
100
AcDbEntity
  8
0
100
AcDbLine
 62
7
  6
CONTINUOUS
 10
259.7656771542
 20
66.3100758527
 11
278.0682014215
 21
109.4281209482
  0
LINE
  5
334
100
AcDbEntity
  8
KONSTRUKTIONSELEMENTE
100
AcDbLine
 62
7
  6
CONTINUOUS
 10
282.9328690438
 20
173.1071156499
 11
294.8035337992
 21
173.1071156499
  0
LINE
  5
335
100
AcDbEntity
  8
KONSTRUKTIONSELEMENTE
100
AcDbLine
 62
7
  6
CONTINUOUS
 10
308.8682014215
 20
161.8021091435
 11
308.8682014215
 21
158.412160811
  0
LINE
  5
336
100
AcDbEntity
  8
KONSTRUKTIONSELEMENTE
100
AcDbLine
 62
7
  6
CONTINUOUS
 10
311.8682014215
 20
80.6867220852
 11
311.8682014215
 21
94.826402351
  0
LINE
  5
337
100
AcDbEntity
  8
KONSTRUKTIONSELEMENTE
100
AcDbLine
 62
7
  6
CONTINUOUS
 10
311.8682014215
 20
106.5567073835
 11
311.8682014215
 21
241.9071156499
  0
LINE
  5
338
100
AcDbEntity
  8
KONSTRUKTIONSELEMENTE
100
AcDbLine
 62
7
  6
CONTINUOUS
 10
312.6532014215
 20
159.3404477116
 11
312.6532014215
 21
152.6737835881
  0
LINE
  5
339
100
AcDbEntity
  8
KONSTRUKTIONSELEMENTE
100
AcDbLine
 62
7
  6
CONTINUOUS
 10
312.6532014215
 20
151.3404477116
 11
312.6532014215
 21
145.3404477116
  0
LINE
  5
33A
100
AcDbEntity
  8
KONSTRUKTIONSELEMENTE
100
AcDbLine
 62
7
  6
CONTINUOUS
 10
312.6532014215
 20
144.0071156499
 11
312.6532014215
 21
137.6737835881
  0
LINE
  5
33B
100
AcDbEntity
  8
KONSTRUKTIONSELEMENTE
100
AcDbLine
 62
7
  6
CONTINUOUS
 10
312.6532014215
 20
128.340449619
 11
312.6532014215
 21
122.340449619
  0
LINE
  5
33C
100
AcDbEntity
  8
KONSTRUKTIONSELEMENTE
100
AcDbLine
 62
7
  6
CONTINUOUS
 10
312.6532014215
 20
121.0071156499
 11
312.6532014215
 21
119.0071156499
  0
LINE
  5
33D
100
AcDbEntity
  8
KONSTRUKTIONSELEMENTE
100
AcDbLine
 62
7
  6
CONTINUOUS
 10
312.6532014215
 20
117.6737816807
 11
312.6532014215
 21
115.340449619
  0
LINE
  5
33E
100
AcDbEntity
  8
KONSTRUKTIONSELEMENTE
100
AcDbLine
 62
7
  6
CONTINUOUS
 10
312.6532014215
 20
114.0071156499
 11
312.6532014215
 21
107.3404486653
  0
LINE
  5
33F
100
AcDbEntity
  8
KONSTRUKTIONSELEMENTE
100
AcDbLine
 62
7
  6
CONTINUOUS
 10
302.6835703822
 20
141.4200266828
 11
308.8682014215
 21
158.412160811
  0
LINE
  5
340
100
AcDbEntity
  8
KONSTRUKTIONSELEMENTE
100
AcDbLine
 62
7
  6
CONTINUOUS
 10
311.2416726139
 20
247.7899263432
 11
311.8682014215
 21
241.9071156499
  0
LINE
  5
341
100
AcDbEntity
  8
KONSTRUKTIONSELEMENTE
100
AcDbLine
 62
7
  6
CONTINUOUS
 10
302.5635463919
 20
102.6071156499
 11
317.0154725911
 21
108.7415943671
  0
LINE
  5
342
100
AcDbEntity
  8
AUSFORMSCHRAEGEN
100
AcDbLine
 62
7
  6
CONTINUOUS
 10
320.3894358856
 20
100.7930349576
 11
307.2414333902
 21
91.5867044979
  0
LINE
  5
343
100
AcDbEntity
  8
TEIL_STARTBEZUEGE
100
AcDbLine
 62
2
  6
CENTER
 10
288.8682014215
 20
242.0071156499
 11
264.1718325029
 21
242.0071156499
  0
LINE
  5
344
100
AcDbEntity
  8
TEIL_STARTBEZUEGE
100
AcDbLine
 62
2
  6
CENTER
 10
288.8682014215
 20
242.0071156499
 11
313.5144310431
 21
242.0071156499
  0
LINE
  5
345
100
AcDbEntity
  8
AUSFORMSCHRAEGEN
100
AcDbLine
 62
7
  6
CONTINUOUS
 10
303.9988823938
 20
47.9160333707
 11
316.9037353274
 21
60.8208863043
  0
LINE
  5
346
100
AcDbEntity
  8
0
100
AcDbLine
 62
7
  6
CONTINUOUS
 10
309.0238457922
 20
255.4071156499
 11
268.7125570507
 21
255.4071156499
  0
ARC
  5
347
100
AcDbEntity
  8
0
100
AcDbCircle
 62
7
  6
CONTINUOUS
 10
122.0937840925
 20
320.277507975
 40
56.52
100
AcDbArc
 50
247.9072648976
 51
260.3750872015
  0
ARC
  5
348
100
AcDbEntity
  8
0
100
AcDbCircle
 62
7
  6
CONTINUOUS
 10
122.0937840925
 20
320.277507975
 40
56.52
100
AcDbArc
 50
279.6249127985
 51
292.0927351024
  0
ARC
  5
349
100
AcDbEntity
  8
KONSTRUKTIONSELEMENTE
100
AcDbCircle
 62
7
  6
CONTINUOUS
 10
133.5437840925
 20
98.8571156499
 40
50.95
100
AcDbArc
 50
302.2880594721
 51
359.9999992314
  0
ARC
  5
34A
100
AcDbEntity
  8
KONSTRUKTIONSELEMENTE
100
AcDbCircle
 62
7
  6
CONTINUOUS
 10
133.5437840925
 20
98.8571156499
 40
50.95
100
AcDbArc
 50
180.0
 51
228.2915719625
  0
ARC
  5
34B
100
AcDbEntity
  8
AUSFORMSCHRAEGEN
100
AcDbCircle
 62
7
  6
CONTINUOUS
 10
133.5437840925
 20
98.8571156499
 40
50.95
100
AcDbArc
 50
228.2915719625
 51
302.2880594721
  0
ARC
  5
34C
100
AcDbEntity
  8
KONSTRUKTIONSELEMENTE
100
AcDbCircle
 62
7
  6
CONTINUOUS
 10
111.4937840925
 20
155.0140352073
 40
39.4799995672
100
AcDbArc
 50
0.0
 51
50.0
  0
ARC
  5
34D
100
AcDbEntity
  8
KONSTRUKTIONSELEMENTE
100
AcDbCircle
 62
7
  6
CONTINUOUS
 10
201.0937840925
 20
209.2071156499
 40
36.0
100
AcDbArc
 50
180.0
 51
223.0670115269
  0
ARC
  5
34E
100
AcDbEntity
  8
KONSTRUKTIONSELEMENTE
100
AcDbCircle
 62
7
  6
CONTINUOUS
 10
148.4937840925
 20
160.041680637
 40
36.0
100
AcDbArc
 50
0.0
 51
43.0670115269
  0
ARC
  5
34F
100
AcDbEntity
  8
KONSTRUKTIONSELEMENTE
100
AcDbCircle
 62
7
  6
CONTINUOUS
 10
87.1033026341
 20
182.0071156499
 40
34.4799995672
100
AcDbArc
 50
50.0
 51
90.0
  0
ARC
  5
350
100
AcDbEntity
  8
KONSTRUKTIONSELEMENTE
100
AcDbCircle
 62
7
  6
CONTINUOUS
 10
109.0937840925
 20
222.2982387887
 40
30.0
100
AcDbArc
 50
180.0
 51
230.0
  0
ARC
  5
351
100
AcDbEntity
  8
KONSTRUKTIONSELEMENTE
100
AcDbCircle
 62
7
  6
CONTINUOUS
 10
62.5937840925
 20
132.8358369057
 40
20.0
100
AcDbArc
 50
0.0
 51
40.7870381933
  0
ARC
  5
352
100
AcDbEntity
  8
KONSTRUKTIONSELEMENTE
100
AcDbCircle
 62
7
  6
CONTINUOUS
 10
111.4937840925
 20
155.0140352073
 40
20.0
100
AcDbArc
 50
0.0
 51
50.0
  0
ARC
  5
353
100
AcDbEntity
  8
KONSTRUKTIONSELEMENTE
100
AcDbCircle
 62
7
  6
CONTINUOUS
 10
97.6937840925
 20
147.0125007775
 40
15.0
100
AcDbArc
 50
0.0000004164
 51
50.0000012946
  0
ARC
  5
354
100
AcDbEntity
  8
KONSTRUKTIONSELEMENTE
100
AcDbCircle
 62
7
  6
CONTINUOUS
 10
89.0937840925
 20
155.6995636361
 40
15.0
100
AcDbArc
 50
140.0000013495
 51
220.7870381933
  0
ARC
  5
355
100
AcDbEntity
  8
KONSTRUKTIONSELEMENTE
100
AcDbCircle
 62
7
  6
CONTINUOUS
 10
122.0937840925
 20
220.7571156499
 40
9.45
100
AcDbArc
 50
180.0
 51
360.0
  0
ARC
  5
356
100
AcDbEntity
  8
KONSTRUKTIONSELEMENTE
100
AcDbCircle
 62
7
  6
CONTINUOUS
 10
121.6937840925
 20
111.6071156499
 40
9.0
100
AcDbArc
 50
180.0
 51
229.1682571907
  0
ARC
  5
357
100
AcDbEntity
  8
KONSTRUKTIONSELEMENTE
100
AcDbCircle
 62
7
  6
CONTINUOUS
 10
122.4937840925
 20
111.6071156499
 40
9.0
100
AcDbArc
 50
310.8317428096
 51
360.0
  0
ARC
  5
358
100
AcDbEntity
  8
KONSTRUKTIONSELEMENTE
100
AcDbCircle
 62
7
  6
CONTINUOUS
 10
87.3834988341
 20
166.1071156499
 40
7.0
100
AcDbArc
 50
50.0
 51
140.0000006047
  0
CIRCLE
  5
359
100
AcDbEntity
  8
BEZUGSACHSEN
100
AcDbCircle
 62
7
  6
CONTINUOUS
 10
93.7937840925
 20
242.0071156499
 40
3.0
  0
ARC
  5
35A
100
AcDbEntity
  8
0
100
AcDbCircle
 62
7
  6
CONTINUOUS
 10
228.0682014215
 20
124.3190195166
 40
50.0
100
AcDbArc
 50
0.0
 51
20.0
  0
ARC
  5
35B
100
AcDbEntity
  8
KONSTRUKTIONSELEMENTE
100
AcDbCircle
 62
7
  6
CONTINUOUS
 10
349.6682014215
 20
124.3190195166
 40
50.0
100
AcDbArc
 50
160.0
 51
180.0
  0
ARC
  5
35C
100
AcDbEntity
  8
0
100
AcDbCircle
 62
7
  6
CONTINUOUS
 10
253.5432014215
 20
187.6071156499
 40
31.4
100
AcDbArc
 50
27.0603910954
 51
66.8888616333
  0
ARC
  5
35D
100
AcDbEntity
  8
KONSTRUKTIONSELEMENTE
100
AcDbCircle
 62
7
  6
CONTINUOUS
 10
324.1932014215
 20
187.6071156499
 40
31.4
100
AcDbArc
 50
113.1111383667
 51
152.9396089046
  0
ARC
  5
35E
100
AcDbEntity
  8
0
100
AcDbCircle
 62
7
  6
CONTINUOUS
 10
288.8682014215
 20
245.4071156499
 40
22.5
100
AcDbArc
 50
26.3877999612
 51
173.9208226944
  0
ARC
  5
35F
100
AcDbEntity
  8
KONSTRUKTIONSELEMENTE
100
AcDbCircle
 62
7
  6
CONTINUOUS
 10
288.8682014215
 20
245.4071156499
 40
22.5
100
AcDbArc
 50
6.0791773056
 51
26.3877999612
  0
CIRCLE
  5
360
100
AcDbEntity
  8
BEZUGSACHSEN
100
AcDbCircle
 62
7
  6
CONTINUOUS
 10
288.8682014215
 20
242.0071156499
 40
11.3
  0
ARC
  5
361
100
AcDbEntity
  8
KONSTRUKTIONSELEMENTE
100
AcDbCircle
 62
7
  6
CONTINUOUS
 10
313.3682014215
 20
64.3564202102
 40
5.0
100
AcDbArc
 50
315.0
 51
23.0
  0
ARC
  5
362
100
AcDbEntity
  8
0
100
AcDbCircle
 62
7
  6
CONTINUOUS
 10
264.3682014215
 20
64.3564202102
 40
5.0
100
AcDbArc
 50
157.0
 51
225.0
  0
SPLINE
  5
363
100
AcDbEntity
  8
KONSTRUKTIONSELEMENTE
100
AcDbSpline
 62
7
  6
CONTINUOUS
 70
0
 71
3
 72
19
 73
15
 74
0
 42
0.0000001
 43
0.0000001
 44
0.0000000001
 40
0.0
 40
0.0
 40
0.0
 40
0.0
 40
0.1250088209
 40
0.250015411
 40
0.3750187066
 40
0.5000162345
 40
0.6250005352
 40
0.6875073951
 40
0.7500129639
 40
0.812514334
 40
0.8750014886
 40
0.937430286
 40
0.9687221354
 40
1.0
 40
1.0
 40
1.0
 40
1.0
 10
112.6437840925
 20
229.3176347831
 30
0.0
 10
111.9891101534
 20
229.4541339805
 30
0.0
 10
110.6858557168
 20
229.7574537896
 30
0.0
 10
108.7557548794
 20
230.3078266568
 30
0.0
 10
106.8576976505
 20
230.9609460364
 30
0.0
 10
105.0031690822
 20
231.7291871306
 30
0.0
 10
103.5086066532
 20
232.483572595
 30
0.0
 10
102.3645395084
 20
233.1775739804
 30
0.0
 10
101.5422563193
 20
233.7536896067
 30
0.0
 10
100.7730554723
 20
234.4004269446
 30
0.0
 10
100.0905501291
 20
235.1391049472
 30
0.0
 10
99.6504540848
 20
235.8624514655
 30
0.0
 10
99.4505526062
 20
236.5041356841
 30
0.0
 10
99.4147876749
 20
236.8397902393
 30
0.0
 10
99.4147876749
 20
237.0071156499
 30
0.0
  0
SPLINE
  5
364
100
AcDbEntity
  8
KONSTRUKTIONSELEMENTE
100
AcDbSpline
 62
7
  6
CONTINUOUS
 70
0
 71
3
 72
19
 73
15
 74
0
 42
0.0000001
 43
0.0000001
 44
0.0000000001
 40
0.0
 40
0.0
 40
0.0
 40
0.0
 40
0.0312784089
 40
0.0625712399
 40
0.1250007643
 40
0.1874886418
 40
0.2499903411
 40
0.3124960149
 40
0.3750028051
 40
0.4999868898
 40
0.6249837155
 40
0.7499863082
 40
0.8749920053
 40
1.0
 40
1.0
 40
1.0
 40
1.0
 10
144.77278051
 20
237.0071156499
 30
0.0
 10
144.77278051
 20
236.8397873225
 30
0.0
 10
144.7370022301
 20
236.5041264106
 30
0.0
 10
144.5371162152
 20
235.8624254797
 30
0.0
 10
144.0969959447
 20
235.1390742914
 30
0.0
 10
143.4144802453
 20
234.4003952068
 30
0.0
 10
142.6452693302
 20
233.7536595282
 30
0.0
 10
141.822983754
 20
233.1775444613
 30
0.0
 10
140.6789189885
 20
232.4835404926
 30
0.0
 10
139.1843529972
 20
231.7291736013
 30
0.0
 10
137.3298356161
 20
230.9609290805
 30
0.0
 10
135.4317878088
 20
230.3078191287
 30
0.0
 10
133.5016993423
 20
229.7574504731
 30
0.0
 10
132.1984537234
 20
229.4541330823
 30
0.0
 10
131.5437840925
 20
229.3176347831
 30
0.0
  0
SPLINE
  5
365
100
AcDbEntity
  8
KONSTRUKTIONSELEMENTE
100
AcDbSpline
 62
7
  6
CONTINUOUS
 70
0
 71
3
 72
8
 73
4
 74
0
 42
0.0000001
 43
0.0000001
 44
0.0000000001
 40
0.0
 40
0.0
 40
0.0
 40
0.0
 40
1.0
 40
1.0
 40
1.0
 40
1.0
 10
100.3109527404
 20
245.5071156499
 30
0.0
 10
100.5006570687
 20
246.2510754279
 30
0.0
 10
100.6091558199
 20
247.0222058036
 30
0.0
 10
100.6174658566
 20
247.7899263432
 30
0.0
  0
SPLINE
  5
366
100
AcDbEntity
  8
KONSTRUKTIONSELEMENTE
100
AcDbSpline
 62
7
  6
CONTINUOUS
 70
0
 71
3
 72
8
 73
4
 74
0
 42
0.0000001
 43
0.0000001
 44
0.0000000001
 40
0.0
 40
0.0
 40
0.0
 40
0.0
 40
1.0
 40
1.0
 40
1.0
 40
1.0
 10
143.5701023283
 20
247.7899263432
 30
0.0
 10
143.5784123651
 20
247.0222058036
 30
0.0
 10
143.6869111162
 20
246.2510754279
 30
0.0
 10
143.8766154445
 20
245.5071156499
 30
0.0
  0
LINE
  5
367
100
AcDbEntity
  8
0
100
AcDbLine
 62
7
  6
CONTINUOUS
 10
143.3506047427
 20
267.9070823372
 11
143.5701023283
 21
247.7899263432
  0
LINE
  5
368
100
AcDbEntity
  8
0
100
AcDbLine
 62
7
  6
CONTINUOUS
 10
100.6174658566
 20
247.7899263432
 11
100.8369634422
 21
267.9070823372
  0
SPLINE
  5
369
100
AcDbEntity
  8
KONSTRUKTIONSELEMENTE
100
AcDbSpline
 62
7
  6
CONTINUOUS
 70
0
 71
3
 72
11
 73
7
 74
0
 42
0.0000001
 43
0.0000001
 44
0.0000000001
 40
0.0
 40
0.0
 40
0.0
 40
0.0
 40
0.2439647156
 40
0.4929470118
 40
0.7455160631
 40
1.0
 40
1.0
 40
1.0
 40
1.0
 10
99.218125139
 20
141.4200266828
 30
0.0
 10
99.6785995971
 20
140.0745371314
 30
0.0
 10
100.5517444259
 20
137.335493803
 30
0.0
 10
101.6112911131
 20
133.116875895
 30
0.0
 10
102.3187170697
 20
128.7605436453
 30
0.0
 10
102.4855109661
 20
125.8024411695
 30
0.0
 10
102.4855109661
 20
124.3190195166
 30
0.0
  0
SPLINE
  5
36A
100
AcDbEntity
  8
KONSTRUKTIONSELEMENTE
100
AcDbSpline
 62
7
  6
CONTINUOUS
 70
0
 71
3
 72
11
 73
7
 74
0
 42
0.0000001
 43
0.0000001
 44
0.0000000001
 40
0.0
 40
0.0
 40
0.0
 40
0.0
 40
0.2539260549
 40
0.5049632523
 40
0.7534592408
 40
1.0
 40
1.0
 40
1.0
 40
1.0
 10
94.7669613388
 20
148.5880618683
 30
0.0
 10
95.2129539576
 20
148.3125153153
 30
0.0
 10
96.047830128
 20
147.6753063752
 30
0.0
 10
97.0914161048
 20
146.5106180272
 30
0.0
 10
97.9052214869
 20
145.1941228971
 30
0.0
 10
98.2926808325
 20
144.2427410186
 30
0.0
 10
98.4469217966
 20
143.7576733236
 30
0.0
  0
SPLINE
  5
36B
100
AcDbEntity
  8
0
100
AcDbSpline
 62
7
  6
CONTINUOUS
 70
0
 71
3
 72
13
 73
9
 74
0
 42
0.0000001
 43
0.0000001
 44
0.0000000001
 40
0.0
 40
0.0
 40
0.0
 40
0.0
 40
0.3543250187
 40
0.6471010157
 40
0.7654665836
 40
0.863273789
 40
0.9405251298
 40
1.0
 40
1.0
 40
1.0
 40
1.0
 10
280.3200570564
 20
170.6066288611
 30
0.0
 10
280.5911886668
 20
170.9457460893
 30
0.0
 10
281.093215803
 20
171.5594430858
 30
0.0
 10
281.7177643178
 20
172.2607266915
 30
0.0
 10
282.169398687
 20
172.6913361215
 30
0.0
 10
282.4511035889
 20
172.916217267
 30
0.0
 10
282.6996519209
 20
173.0624073568
 30
0.0
 10
282.8661184138
 20
173.1070761969
 30
0.0
 10
282.9389973666
 20
173.1071051877
 30
0.0
  0
SPLINE
  5
36C
100
AcDbEntity
  8
KONSTRUKTIONSELEMENTE
100
AcDbSpline
 62
7
  6
CONTINUOUS
 70
0
 71
3
 72
13
 73
9
 74
0
 42
0.0000001
 43
0.0000001
 44
0.0000000001
 40
0.0
 40
0.0
 40
0.0
 40
0.0
 40
0.3543250187
 40
0.6471010157
 40
0.7654665836
 40
0.863273789
 40
0.9405251298
 40
1.0
 40
1.0
 40
1.0
 40
1.0
 10
297.4163457866
 20
170.6066288611
 30
0.0
 10
297.1452141761
 20
170.9457460893
 30
0.0
 10
296.64318704
 20
171.5594430858
 30
0.0
 10
296.0186385252
 20
172.2607266915
 30
0.0
 10
295.5670041559
 20
172.6913361215
 30
0.0
 10
295.2852992541
 20
172.916217267
 30
0.0
 10
295.036750922
 20
173.0624073568
 30
0.0
 10
294.8702844291
 20
173.1070761969
 30
0.0
 10
294.7974054764
 20
173.1071051877
 30
0.0
  0
SPLINE
  5
36D
100
AcDbEntity
  8
0
100
AcDbSpline
 62
7
  6
CONTINUOUS
 70
0
 71
3
 72
9
 73
5
 74
0
 42
0.0000001
 43
0.0000001
 44
0.0000000001
 40
0.0
 40
0.0
 40
0.0
 40
0.0
 40
0.4904461418
 40
1.0
 40
1.0
 40
1.0
 40
1.0
 10
280.3200570618
 20
170.6066288611
 30
0.0
 10
279.5259395162
 20
169.6133882053
 30
0.0
 10
277.7434552757
 20
167.7148979927
 30
0.0
 10
275.7074790324
 20
166.0945293446
 30
0.0
 10
274.6219494435
 20
165.3413775107
 30
0.0
  0
SPLINE
  5
36E
100
AcDbEntity
  8
KONSTRUKTIONSELEMENTE
100
AcDbSpline
 62
7
  6
CONTINUOUS
 70
0
 71
3
 72
9
 73
5
 74
0
 42
0.0000001
 43
0.0000001
 44
0.0000000001
 40
0.0
 40
0.0
 40
0.0
 40
0.0
 40
0.4904461418
 40
1.0
 40
1.0
 40
1.0
 40
1.0
 10
297.4163457812
 20
170.6066288611
 30
0.0
 10
298.2104633268
 20
169.6133882053
 30
0.0
 10
299.9929475672
 20
167.7148979927
 30
0.0
 10
302.0289238106
 20
166.0945293446
 30
0.0
 10
303.1144533994
 20
165.3413775107
 30
0.0
  0
SPLINE
  5
36F
100
AcDbEntity
  8
0
100
AcDbSpline
 62
7
  6
CONTINUOUS
 70
0
 71
3
 72
9
 73
5
 74
0
 42
0.0000001
 43
0.0000001
 44
0.0000000001
 40
0.0
 40
0.0
 40
0.0
 40
0.0
 40
0.2567357578
 40
1.0
 40
1.0
 40
1.0
 40
1.0
 10
268.8682014215
 20
161.8021091435
 30
0.0
 10
269.3788814514
 20
162.0734736452
 30
0.0
 10
271.3488398159
 20
163.1665433536
 30
0.0
 10
273.246390906
 20
164.3870005095
 30
0.0
 10
274.6219494675
 20
165.3413775107
 30
0.0
  0
SPLINE
  5
370
100
AcDbEntity
  8
KONSTRUKTIONSELEMENTE
100
AcDbSpline
 62
7
  6
CONTINUOUS
 70
0
 71
3
 72
9
 73
5
 74
0
 42
0.0000001
 43
0.0000001
 44
0.0000000001
 40
0.0
 40
0.0
 40
0.0
 40
0.0
 40
0.2567357578
 40
1.0
 40
1.0
 40
1.0
 40
1.0
 10
308.8682014215
 20
161.8021091435
 30
0.0
 10
308.3575213916
 20
162.0734736452
 30
0.0
 10
306.3875630271
 20
163.1665433536
 30
0.0
 10
304.4900119369
 20
164.3870005095
 30
0.0
 10
303.1144533755
 20
165.3413775107
 30
0.0
  0
SPLINE
  5
371
100
AcDbEntity
  8
0
100
AcDbSpline
 62
7
  6
CONTINUOUS
 70
0
 71
3
 72
9
 73
5
 74
0
 42
0.0000001
 43
0.0000001
 44
0.0000000001
 40
0.0
 40
0.0
 40
0.0
 40
0.0
 40
0.2356659416
 40
1.0
 40
1.0
 40
1.0
 40
1.0
 10
282.5926398424
 20
199.3169054951
 30
0.0
 10
282.5238227939
 20
199.5255309278
 30
0.0
 10
282.2129488269
 20
200.4045252374
 30
0.0
 10
281.829900112
 20
201.257402311
 30
0.0
 10
281.5057653204
 20
201.8918984693
 30
0.0
  0
SPLINE
  5
372
100
AcDbEntity
  8
KONSTRUKTIONSELEMENTE
100
AcDbSpline
 62
7
  6
CONTINUOUS
 70
0
 71
3
 72
9
 73
5
 74
0
 42
0.0000001
 43
0.0000001
 44
0.0000000001
 40
0.0
 40
0.0
 40
0.0
 40
0.0
 40
0.2356659416
 40
1.0
 40
1.0
 40
1.0
 40
1.0
 10
295.1437630006
 20
199.3169054951
 30
0.0
 10
295.212580049
 20
199.5255309278
 30
0.0
 10
295.5234540161
 20
200.4045252374
 30
0.0
 10
295.906502731
 20
201.257402311
 30
0.0
 10
296.2306375226
 20
201.8918984693
 30
0.0
  0
SPLINE
  5
373
100
AcDbEntity
  8
0
100
AcDbSpline
 62
7
  6
CONTINUOUS
 70
0
 71
3
 72
9
 73
5
 74
0
 42
0.0000001
 43
0.0000001
 44
0.0000000001
 40
0.0
 40
0.0
 40
0.0
 40
0.0
 40
0.4964275725
 40
1.0
 40
1.0
 40
1.0
 40
1.0
 10
283.5031747192
 20
193.4977822967
 30
0.0
 10
283.5031747192
 20
194.4755116735
 30
0.0
 10
283.358427655
 20
196.4479824822
 30
0.0
 10
282.9033285635
 20
198.3750230648
 30
0.0
 10
282.5926398424
 20
199.3169054951
 30
0.0
  0
SPLINE
  5
374
100
AcDbEntity
  8
KONSTRUKTIONSELEMENTE
100
AcDbSpline
 62
7
  6
CONTINUOUS
 70
0
 71
3
 72
9
 73
5
 74
0
 42
0.0000001
 43
0.0000001
 44
0.0000000001
 40
0.0
 40
0.0
 40
0.0
 40
0.0
 40
0.4964275725
 40
1.0
 40
1.0
 40
1.0
 40
1.0
 10
294.2332281238
 20
193.4977822967
 30
0.0
 10
294.2332281238
 20
194.4755116735
 30
0.0
 10
294.377975188
 20
196.4479824822
 30
0.0
 10
294.8330742795
 20
198.3750230648
 30
0.0
 10
295.1437630006
 20
199.3169054951
 30
0.0
  0
ELLIPSE
  5
375
100
AcDbEntity
  8
KONSTRUKTIONSELEMENTE
100
AcDbEllipse
 62
7
  6
CONTINUOUS
 10
71.8889656629
 20
200.5172522641
 30
0.0
 11
112.4122158745
 21
-82.7751286391
 31
0.0
 40
0.2162487346
 41
-1.3465778684
 42
-1.2105215736
  0
ELLIPSE
  5
376
100
AcDbEntity
  8
KONSTRUKTIONSELEMENTE
100
AcDbEllipse
 62
7
  6
CONTINUOUS
 10
122.0937840925
 20
200.5172522641
 30
0.0
 11
-0.0
 21
86.2707909709
 31
0.0
 40
0.3639702343
 41
-3.9943309056
 42
-3.9577576963
  0
ELLIPSE
  5
377
100
AcDbEntity
  8
KONSTRUKTIONSELEMENTE
100
AcDbEllipse
 62
7
  6
CONTINUOUS
 10
122.0937840925
 20
-244.1925080255
 30
0.0
 11
-0.0
 21
530.6962048425
 31
0.0
 40
0.1065016096
 41
0.3956417181
 42
0.4128878059
  0
ELLIPSE
  5
378
100
AcDbEntity
  8
KONSTRUKTIONSELEMENTE
100
AcDbEllipse
 62
7
  6
CONTINUOUS
 10
122.0937840925
 20
-244.1925080255
 30
0.0
 11
-0.0
 21
530.6962048425
 31
0.0
 40
0.1065016096
 41
-0.4128878059
 42
-0.3956417181
  0
ELLIPSE
  5
379
100
AcDbEntity
  8
AUSFORMSCHRAEGEN
100
AcDbEllipse
 62
7
  6
CONTINUOUS
 10
135.8024165738
 20
74.6928104803
 30
0.0
 11
0.0
 21
20.41
 31
0.0
 40
0.3639702343
 41
0.6108652382
 42
1.5707963268
  0
ELLIPSE
  5
37A
100
AcDbEntity
  8
KONSTRUKTIONSELEMENTE
100
AcDbEllipse
 62
7
  6
CONTINUOUS
 10
122.0937840925
 20
51.6508416764
 30
0.0
 11
-0.0
 21
73.9737642869
 31
0.0
 40
0.4244748162
 41
0.3040250267
 42
0.6744493132
  0
ELLIPSE
  5
37B
100
AcDbEntity
  8
AUSFORMSCHRAEGEN
100
AcDbEllipse
 62
7
  6
CONTINUOUS
 10
133.8624552252
 20
64.3564202102
 30
0.0
 11
-0.0
 21
5.0
 31
0.0
 40
0.3639702343
 41
-2.3561944902
 42
-1.1693705988
  0
ELLIPSE
  5
37C
100
AcDbEntity
  8
AUSFORMSCHRAEGEN
100
AcDbEllipse
 62
7
  6
CONTINUOUS
 10
110.3251129597
 20
64.3564202102
 30
0.0
 11
0.0
 21
5.0
 31
0.0
 40
0.3639702343
 41
1.1693705988
 42
2.3561944902
  0
ELLIPSE
  5
37D
100
AcDbEntity
  8
KONSTRUKTIONSELEMENTE
100
AcDbEllipse
 62
7
  6
CONTINUOUS
 10
122.0937840925
 20
51.6508416764
 30
0.0
 11
-0.0
 21
73.9737642869
 31
0.0
 40
0.4244748162
 41
-1.1674308684
 42
-0.3040250267
  0
ELLIPSE
  5
37E
100
AcDbEntity
  8
AUSFORMSCHRAEGEN
100
AcDbEllipse
 62
7
  6
CONTINUOUS
 10
108.3851516111
 20
74.6928104803
 30
0.0
 11
0.0
 21
20.41
 31
0.0
 40
0.3639702343
 41
-1.5707963268
 42
-0.6108652382
  0
ELLIPSE
  5
37F
100
AcDbEntity
  8
0
100
AcDbEllipse
 62
7
  6
CONTINUOUS
 10
265.2437431629
 20
98.8571156499
 30
0.0
 11
139.9839745212
 21
0.0
 31
0.0
 40
0.3639702343
 41
-1.5106771827
 42
-1.4691493479
  0
ELLIPSE
  5
380
100
AcDbEntity
  8
AUSFORMSCHRAEGEN
100
AcDbEllipse
 62
7
  6
CONTINUOUS
 10
312.4926596801
 20
98.8571156499
 30
0.0
 11
139.9839745212
 21
0.0
 31
0.0
 40
0.3639702343
 41
-1.6724433057
 42
-1.6309154709
  0
ENDSEC
  0
SECTION
  2
OBJECTS
  0
DICTIONARY
  5
C
100
AcDbDictionary
280
0
281
1
  3
ACAD_GROUP
350
D
  3
ACAD_MLINESTYLE
350
17
  3
ACAD_LAYOUT
350
1A
  3
ACAD_PLOTSETTINGS
350
19
  3
ACAD_PLOTSTYLENAME
350
E
  0
DICTIONARY
  5
D
102
{ACAD_REACTORS
330
C
102
}
100
AcDbDictionary
280
0
281
1
  0
ACDBDICTIONARYWDFLT
  5
E
102
{ACAD_REACTORS
330
C
102
}
100
AcDbDictionary
281
1
  3
Normal
350
F
100
AcDbDictionaryWithDefault
340
F
  0
DICTIONARY
  5
17
102
{ACAD_REACTORS
330
C
102
}
100
AcDbDictionary
280
0
281
1
  3
Standard
350
18
  0
DICTIONARY
  5
19
102
{ACAD_REACTORS
330
C
102
}
100
AcDbDictionary
281
1
  0
DICTIONARY
  5
1A
102
{ACAD_REACTORS
330
C
102
}
100
AcDbDictionary
281
1
  3
Model
350
381
  3
Layout1
350
382
  0
ACDBPLACEHOLDER
  5
F
102
{ACAD_REACTORS
330
E
102
}
  0
MLINESTYLE
  5
18
102
{ACAD_REACTORS
330
17
102
}
100
AcDbMlineStyle
  2
STANDARD
 70
0
  3

 62
256
 51
90.0
 52
90.0
 71
2
 49
0.5
 62
256
  6
BYLAYER
 49
-0.5
 62
256
  6
BYLAYER
  0
LAYOUT
  5
381
102
{ACAD_REACTORS
330
1A
102
}
100
AcDbPlotSettings
  1

  2
none_device
  4
ISO_A3_(420.00_x_297.00_MM)
  6

 40
0.0
 41
0.0
 42
0.0
 43
0.0
 44
420.0
 45
297.0
 46
0.0
 47
0.0
 48
0.0
 49
0.0
140
0.0
141
0.0
142
1.0
143
1.0
 70
1024
 72
1
 73
0
 74
0
  7

 75
0
147
1.0
148
0.0
149
0.0
100
AcDbLayout
  1
Model
 70
0
 71
0
 10
0.0
 20
0.0
 11
420.0
 21
297.0
 12
0.0
 22
0.0
 32
0.0
 14
0.0
 24
0.0
 34
0.0
 15
0.0
 25
0.0
 35
0.0
146
0.0
 13
0.0
 23
0.0
 33
0.0
 16
1.0
 26
0.0
 36
0.0
 17
0.0
 27
1.0
 37
0.0
 76
0
330
209
345
0
346
0
  0
LAYOUT
  5
382
102
{ACAD_REACTORS
330
1A
102
}
100
AcDbPlotSettings
  1

  2
none_device
  4
ISO_A3_(420.00_x_297.00_MM)
  6

 40
0.0
 41
0.0
 42
0.0
 43
0.0
 44
420.0
 45
297.0
 46
0.0
 47
0.0
 48
0.0
 49
0.0
140
0.0
141
0.0
142
1.0
143
1.0
 70
0
 72
1
 73
0
 74
0
  7

 75
0
147
1.0
148
0.0
149
0.0
100
AcDbLayout
  1
Layout1
 70
0
 71
1
 10
0.0
 20
0.0
 11
420.0
 21
297.0
 12
0.0
 22
0.0
 32
0.0
 14
0.0
 24
0.0
 34
0.0
 15
0.0
 25
0.0
 35
0.0
146
0.0
 13
0.0
 23
0.0
 33
0.0
 16
1.0
 26
0.0
 36
0.0
 17
0.0
 27
1.0
 37
0.0
 76
0
330
20A
345
0
346
0
  0
ENDSEC
  0
EOF
