999
DXF file: IMVK-10_7900983_M34044-P-1.dxf
999
Pro/ENGINEER 2010140 by Parametric Technology Corporation
  0
SECTION
  2
HEADER
  9
$ACADVER
  1
AC1015
  9
$DWGCODEPAGE
  3
ANSI_1252
  9
$EXTMAX
 10
420.0
 20
297.0
 30
0.0
  9
$EXTMIN
 10
0.0
 20
0.0
 30
0.0
  9
$LIMMIN
 10
0.0
 20
0.0
  9
$LIMMAX
 10
420.0
 20
297.0
  9
$VIEWCTR
 10
210.0
 20
148.5
  9
$VIEWSIZE
 40
297.0
  9
$CLAYER
  8
0
  9
$LTSCALE
 40
23.1
  9
$CELTYPE
  6
BYLAYER
  9
$DIMSCALE
 40
1.0
  9
$DIMASZ
 40
3.5
  9
$DIMEXO
 40
2.625
  9
$DIMDLI
 40
15.96
  9
$DIMEXE
 40
7.56
  9
$DIMCEN
 40
3.78
  9
$DIMLFAC
 40
1.0
  9
$DIMBLK
  1
_FILLED
  9
$DIMTXT
 40
3.5
  9
$DIMTOL
 70
1
  9
$DIMLIM
 70
0
  9
$DIMTFAC
 40
1.0
  9
$DIMTP
 40
0.005
  9
$DIMTM
 40
0.005
  9
$PDMODE
 70
3
  9
$PDSIZE
 40
0.3125
  9
$HANDSEED
  5
2AA
  9
$TILEMODE
 70
1
  9
$MEASUREMENT
 70
1
  9
$INSUNITS
 70
4
  0
ENDSEC
  0
SECTION
  2
CLASSES
  0
CLASS
  1
ACDBDICTIONARYWDFLT
  2
AcDbDictionaryWithDefault
  3
AutoCAD 2000
 90
0
280
0
281
0
  0
CLASS
  1
ACDBPLACEHOLDER
  2
AcDbPlaceHolder
  3
AutoCAD 2000
 90
0
280
0
281
0
  0
CLASS
  1
LAYOUT
  2
AcDbLayout
  3
AutoCAD 2000
 90
0
280
0
281
0
  0
ENDSEC
  0
SECTION
  2
TABLES
  0
TABLE
  2
VPORT
  5
8
100
AcDbSymbolTable
 70
2
  0
VPORT
  5
1F4
100
AcDbSymbolTableRecord
100
AcDbViewportTableRecord
  2
*ACTIVE
 70
0
 10
0.0
 20
0.0
 11
1.0
 21
1.0
 12
210.0
 22
148.5
 13
0.0
 23
0.0
 14
1.0
 24
1.0
 15
0.0
 25
0.0
 16
0.0
 26
0.0
 36
1.0
 17
0.0
 27
0.0
 37
0.0
 40
297.0
 41
1.4141414141
 42
50.0
 43
0.0
 44
0.0
 50
0.0
 51
0.0
 71
0
 72
100
 73
1
 74
1
 75
0
 76
0
 77
0
 78
0
  0
ENDTAB
  0
TABLE
  2
LTYPE
  5
5
100
AcDbSymbolTable
 70
6
  0
LTYPE
  5
14
100
AcDbSymbolTableRecord
100
AcDbLinetypeTableRecord
  2
BYBLOCK
 70
0
  3

 72
65
 73
0
 40
0.0
  0
LTYPE
  5
15
100
AcDbSymbolTableRecord
100
AcDbLinetypeTableRecord
  2
BYLAYER
 70
0
  3

 72
65
 73
0
 40
0.0
  0
LTYPE
  5
16
100
AcDbSymbolTableRecord
100
AcDbLinetypeTableRecord
  2
CONTINUOUS
 70
64
  3
Solid line
 72
65
 73
0
 40
0.0
  0
LTYPE
  5
1F5
100
AcDbSymbolTableRecord
100
AcDbLinetypeTableRecord
  2
CENTER
 70
64
  3
____ _ ____ _ ____ _ ____ _ ____ _ ____ _ ____
 72
65
 73
4
 40
0.6
 49
0.375
 74
0
 49
-0.075
 74
0
 49
0.075
 74
0
 49
-0.075
 74
0
  0
LTYPE
  5
1F6
100
AcDbSymbolTableRecord
100
AcDbLinetypeTableRecord
  2
HIDDEN
 70
64
  3
- - - - - - - - - - - - - - - - - - - -
 72
65
 73
2
 40
0.2
 49
0.1
 74
0
 49
-0.1
 74
0
  0
LTYPE
  5
1F7
100
AcDbSymbolTableRecord
100
AcDbLinetypeTableRecord
  2
PHANTOM
 70
64
  3
_____ _ _ _____ _ _ _____ _ _ _____
 72
65
 73
6
 40
0.8
 49
0.45
 74
0
 49
-0.05
 74
0
 49
0.1
 74
0
 49
-0.05
 74
0
 49
0.1
 74
0
 49
-0.05
 74
0
  0
LTYPE
  5
1F8
100
AcDbSymbolTableRecord
100
AcDbLinetypeTableRecord
  2
DOT
 70
64
  3
. . . . . . . . . . . . . . . . . . . .
 72
65
 73
2
 40
0.2
 49
0.1
 74
0
 49
-0.1
 74
0
  0
LTYPE
  5
1F9
100
AcDbSymbolTableRecord
100
AcDbLinetypeTableRecord
  2
DASHED
 70
64
  3
- - - - - - - - - - - - - - - - - - - -
 72
65
 73
2
 40
0.2
 49
0.1
 74
0
 49
-0.1
 74
0
  0
ENDTAB
  0
TABLE
  2
LAYER
  5
2
100
AcDbSymbolTable
 70
36
  0
LAYER
  5
10
100
AcDbSymbolTableRecord
100
AcDbLayerTableRecord
  2
0
 70
0
 62
7
  6
CONTINUOUS
370
-3
390
F
  0
LAYER
  5
1FA
100
AcDbSymbolTableRecord
100
AcDbLayerTableRecord
  2
DEFAULT_1
 70
0
 62
7
  6
CENTER
370
-3
390
F
  0
LAYER
  5
1FB
100
AcDbSymbolTableRecord
100
AcDbLayerTableRecord
  2
DEFAULT_2
 70
0
 62
8
  6
HIDDEN
370
-3
390
F
  0
LAYER
  5
1FC
100
AcDbSymbolTableRecord
100
AcDbLayerTableRecord
  2
DEFAULT_3
 70
0
 62
7
  6
PHANTOM
370
-3
390
F
  0
LAYER
  5
1FD
100
AcDbSymbolTableRecord
100
AcDbLayerTableRecord
  2
BEZUGSACHSEN
 70
0
 62
7
  6
CONTINUOUS
370
-3
390
F
  0
LAYER
  5
1FE
100
AcDbSymbolTableRecord
100
AcDbLayerTableRecord
  2
BEZUGSEBENEN
 70
0
 62
7
  6
CONTINUOUS
370
-3
390
F
  0
LAYER
  5
1FF
100
AcDbSymbolTableRecord
100
AcDbLayerTableRecord
  2
FASEN
 70
0
 62
7
  6
CONTINUOUS
370
-3
390
F
  0
LAYER
  5
200
100
AcDbSymbolTableRecord
100
AcDbLayerTableRecord
  2
HILFEN
 70
0
 62
7
  6
CONTINUOUS
370
-3
390
F
  0
LAYER
  5
201
100
AcDbSymbolTableRecord
100
AcDbLayerTableRecord
  2
KONSTRUKTIONSELEMENTE
 70
0
 62
7
  6
CONTINUOUS
370
-3
390
F
  0
LAYER
  5
202
100
AcDbSymbolTableRecord
100
AcDbLayerTableRecord
  2
PLATZIERUNG
 70
0
 62
7
  6
CONTINUOUS
370
-3
390
F
  0
LAYER
  5
203
100
AcDbSymbolTableRecord
100
AcDbLayerTableRecord
  2
RUNDUNGEN
 70
0
 62
7
  6
CONTINUOUS
370
-3
390
F
  0
LAYER
  5
204
100
AcDbSymbolTableRecord
100
AcDbLayerTableRecord
  2
TEIL_STARTBEZUEGE
 70
0
 62
7
  6
CONTINUOUS
370
-3
390
F
  0
LAYER
  5
205
100
AcDbSymbolTableRecord
100
AcDbLayerTableRecord
  2
ZEICHNUNGSBEMASSUNGEN
 70
0
 62
7
  6
CONTINUOUS
370
-3
390
F
  0
ENDTAB
  0
TABLE
  2
STYLE
  5
3
100
AcDbSymbolTable
 70
1
  0
STYLE
  5
11
100
AcDbSymbolTableRecord
100
AcDbTextStyleTableRecord
  2
STANDARD
 70
0
 40
0.0
 41
0.7
 50
0.0
 71
0
 42
0.2
  3
txt
  4

  0
STYLE
  5
206
100
AcDbSymbolTableRecord
100
AcDbTextStyleTableRecord
  2
TEXTSTYLE_1
 70
0
 40
0.0
 41
0.8
 50
0.0
 71
0
 42
0.2
  3
gdt
  4

  0
ENDTAB
  0
TABLE
  2
VIEW
  5
6
100
AcDbSymbolTable
 70
0
  0
ENDTAB
  0
TABLE
  2
UCS
  5
7
100
AcDbSymbolTable
 70
0
  0
ENDTAB
  0
TABLE
  2
APPID
  5
9
100
AcDbSymbolTable
 70
1
  0
APPID
  5
207
100
AcDbSymbolTableRecord
100
AcDbRegAppTableRecord
  2
ACAD
 70
0
  0
ENDTAB
  0
TABLE
  2
BLOCK_RECORD
  5
1
100
AcDbSymbolTable
 70
0
  0
BLOCK_RECORD
  5
208
100
AcDbSymbolTableRecord
100
AcDbBlockTableRecord
  2
*Model_Space
  0
BLOCK_RECORD
  5
209
100
AcDbSymbolTableRecord
100
AcDbBlockTableRecord
  2
*Paper_Space
  0
ENDTAB
  0
TABLE
  2
DIMSTYLE
  5
A
100
AcDbSymbolTable
 70
1
100
AcDbDimStyleTable
 71
0
  0
DIMSTYLE
105
20A
100
AcDbSymbolTableRecord
100
AcDbDimStyleTableRecord
  2
STANDARD
 70
0
  3

  4

 40
1.0
 41
3.5
 42
0.0625
 43
0.38
 44
0.18
 45
0.0
 46
0.0
 47
0.005
 48
0.005
140
3.5
141
0.09
142
0.0
143
25.4
144
1.0
145
0.0
146
1.0
147
0.09
 71
1.0
 72
0.0
 73
0
 74
0
 75
0
 76
0
 77
1
 78
8
170
0
171
2
172
0
173
0
174
0
175
0
176
0
177
0
178
5
270
2
271
3
272
3
273
2
274
2
275
0
280
0
281
0
282
0
283
1
284
8
285
0
286
0
287
3
288
0
340
11
  0
ENDTAB
  0
ENDSEC
  0
SECTION
  2
BLOCKS
  0
BLOCK
  5
20
100
AcDbEntity
  8
0
100
AcDbBlockBegin
  2
*Model_Space
 70
0
 10
0.0
 20
0.0
 30
0.0
  3
*Model_Space
  1

  0
ENDBLK
  5
21
100
AcDbEntity
  8
0
100
AcDbBlockEnd
  0
BLOCK
  5
1C
100
AcDbEntity
  8
0
100
AcDbBlockBegin
  2
*Paper_Space
 70
0
 10
0.0
 20
0.0
 30
0.0
  3
*Paper_Space
  1

  0
ENDBLK
  5
1D
100
AcDbEntity
  8
0
100
AcDbBlockEnd
  0
ENDSEC
  0
SECTION
  2
ENTITIES
  0
MTEXT
  5
20B
100
AcDbEntity
  8
0
100
AcDbMText
 62
5
  6
CONTINUOUS
  7
STANDARD
 71
1
 72
1
 10
159.8550937291
 20
188.678548465
 30
0.0
 11
-0.0
 21
-1.0
 31
0.0
 44
0.9
  1
RUD\PIMVK 10
 40
5.0
 41
26.3095238095
  0
MTEXT
  5
20C
100
AcDbEntity
  8
0
100
AcDbMText
 62
5
  6
CONTINUOUS
  7
STANDARD
 71
1
 72
1
 10
223.2707762138
 20
199.0079571379
 30
0.0
 11
0.0
 21
1.0
 31
0.0
 44
0.9
  1
RUD
 40
5.0
 41
13.3333333333
  0
MTEXT
  5
20D
100
AcDbEntity
  8
0
100
AcDbMText
 62
5
  6
CONTINUOUS
  7
STANDARD
 71
1
 72
1
 10
271.8789807452
 20
191.3257534825
 30
0.0
 11
0.0
 21
1.0
 31
0.0
 44
0.9
  1
IMVK 10
 40
5.0
 41
27.2619047619
  0
LINE
  5
20E
100
AcDbEntity
  8
0
100
AcDbLine
 62
7
  6
CONTINUOUS
 10
0.0
 20
0.0
 11
0.0
 21
297.0
  0
LINE
  5
20F
100
AcDbEntity
  8
0
100
AcDbLine
 62
7
  6
CONTINUOUS
 10
0.0
 20
0.0
 11
420.0
 21
0.0
  0
LINE
  5
210
100
AcDbEntity
  8
0
100
AcDbLine
 62
7
  6
CONTINUOUS
 10
0.0
 20
297.0
 11
420.0
 21
297.0
  0
LINE
  5
211
100
AcDbEntity
  8
0
100
AcDbLine
 62
7
  6
CONTINUOUS
 10
420.0
 20
0.0
 11
420.0
 21
297.0
  0
LINE
  5
212
100
AcDbEntity
  8
0
100
AcDbLine
 62
7
  6
CONTINUOUS
 10
119.3345519709
 20
132.1479689203
 11
127.1963961827
 21
110.5477294733
  0
LINE
  5
213
100
AcDbEntity
  8
KONSTRUKTIONSELEMENTE
100
AcDbLine
 62
7
  6
CONTINUOUS
 10
127.1963961827
 20
110.5477294733
 11
119.3345519074
 21
132.147969095
  0
LINE
  5
214
100
AcDbEntity
  8
KONSTRUKTIONSELEMENTE
100
AcDbLine
 62
8
  6
HIDDEN
 10
133.0872173452
 20
117.7532665486
 11
124.1158460387
 21
142.4019066347
  0
LINE
  5
215
100
AcDbEntity
  8
DEFAULT_2
100
AcDbLine
 62
8
  6
HIDDEN
 10
133.0872553588
 20
117.753162107
 11
124.1158460387
 21
142.4019066347
  0
LINE
  5
216
100
AcDbEntity
  8
BEZUGSACHSEN
100
AcDbLine
 62
7
  6
CONTINUOUS
 10
166.2299971133
 20
151.3360114799
 11
166.6458496126
 21
151.3360114799
  0
LINE
  5
217
100
AcDbEntity
  8
BEZUGSACHSEN
100
AcDbLine
 62
7
  6
CONTINUOUS
 10
164.9438322533
 20
157.3360114799
 11
165.3482024693
 21
157.3360114799
  0
LINE
  5
218
100
AcDbEntity
  8
BEZUGSACHSEN
100
AcDbLine
 62
7
  6
CONTINUOUS
 10
164.6918985296
 20
159.3360114799
 11
165.0940937825
 21
159.3360114799
  0
LINE
  5
219
100
AcDbEntity
  8
DEFAULT_2
100
AcDbLine
 62
8
  6
HIDDEN
 10
135.759189373
 20
151.3453453392
 11
146.2429140362
 21
122.5415485552
  0
LINE
  5
21A
100
AcDbEntity
  8
KONSTRUKTIONSELEMENTE
100
AcDbLine
 62
8
  6
HIDDEN
 10
146.2429520498
 20
122.5414441136
 11
135.759189373
 21
151.3453453392
  0
LINE
  5
21B
100
AcDbEntity
  8
BEZUGSACHSEN
100
AcDbLine
 62
7
  6
CONTINUOUS
 10
164.4467611591
 20
165.3360114799
 11
164.8468625588
 21
165.3360114799
  0
LINE
  5
21C
100
AcDbEntity
  8
0
100
AcDbLine
 62
7
  6
CONTINUOUS
 10
140.3520928737
 20
194.7832499984
 11
140.3520928737
 21
183.6449134398
  0
LINE
  5
21D
100
AcDbEntity
  8
KONSTRUKTIONSELEMENTE
100
AcDbLine
 62
7
  6
CONTINUOUS
 10
140.3520928737
 20
165.815505898
 11
140.3520928737
 21
194.7832499984
  0
LINE
  5
21E
100
AcDbEntity
  8
KONSTRUKTIONSELEMENTE
100
AcDbLine
 62
7
  6
CONTINUOUS
 10
132.0234858239
 20
209.964296023
 11
106.6655948319
 21
226.1190542508
  0
LINE
  5
21F
100
AcDbEntity
  8
0
100
AcDbLine
 62
7
  6
CONTINUOUS
 10
164.2948252446
 20
128.7813066587
 11
160.3131892364
 21
121.8932423591
  0
LINE
  5
220
100
AcDbEntity
  8
0
100
AcDbLine
 62
7
  6
CONTINUOUS
 10
152.4727816734
 20
108.329664142
 11
158.8183820807
 21
119.3072882983
  0
LINE
  5
221
100
AcDbEntity
  8
RUNDUNGEN
100
AcDbLine
 62
7
  6
CONTINUOUS
 10
152.4727816734
 20
108.329664142
 11
164.2945868127
 21
128.7808941814
  0
LINE
  5
222
100
AcDbEntity
  8
KONSTRUKTIONSELEMENTE
100
AcDbLine
 62
7
  6
CONTINUOUS
 10
110.3442213753
 20
235.2365911432
 11
133.7851851377
 21
230.4909386178
  0
LWPOLYLINE
  5
223
100
AcDbEntity
  8
0
100
AcDbPolyline
 62
7
  6
CONTINUOUS
 90
7
 70
0
 10
227.3401868239
 20
229.8593310506
 10
226.5765233159
 20
229.2758238042
 10
225.7367214148
 20
228.499627368
 10
224.8790858686
 20
227.547581665
 10
224.0379081866
 20
226.4418147356
 10
223.2433922594
 20
225.225664149
 10
222.5210345008
 20
223.9615726566
  0
LINE
  5
224
100
AcDbEntity
  8
0
100
AcDbLine
 62
7
  6
CONTINUOUS
 10
227.3401865182
 20
229.8593314921
 11
231.6814045203
 21
232.8634225396
  0
LWPOLYLINE
  5
225
100
AcDbEntity
  8
KONSTRUKTIONSELEMENTE
100
AcDbPolyline
 62
7
  6
CONTINUOUS
 90
13
 70
0
 10
267.5593482777
 20
101.3360143345
 10
267.8179441644
 20
101.3443820639
 10
268.1868250134
 20
101.3855367679
 10
268.5503028883
 20
101.4607067272
 10
268.9052479044
 20
101.5692445947
 10
269.2486036829
 20
101.7102156423
 10
269.5774136749
 20
101.8824058136
 10
269.8888466175
 20
102.0843321734
 10
270.1802210277
 20
102.3142557626
 10
270.4490282636
 20
102.5701966147
 10
270.6929537411
 20
102.849950397
 10
270.9098972591
 20
103.1511076033
 10
271.0979915345
 20
103.4710750851
  0
LINE
  5
226
100
AcDbEntity
  8
0
100
AcDbLine
 62
7
  6
CONTINUOUS
 10
233.1250500532
 20
101.3360114799
 11
238.3416457786
 21
101.3360114799
  0
LINE
  5
227
100
AcDbEntity
  8
KONSTRUKTIONSELEMENTE
100
AcDbLine
 62
7
  6
CONTINUOUS
 10
262.3460313073
 20
101.3360114799
 11
267.5626270328
 21
101.3360114799
  0
LWPOLYLINE
  5
228
100
AcDbEntity
  8
0
100
AcDbPolyline
 62
7
  6
CONTINUOUS
 90
9
 70
0
 10
222.5209011602
 20
223.9613152976
 10
222.1838019097
 20
223.28368096
 10
221.8345340808
 20
222.4452504922
 10
221.532686905
 20
221.546784093
 10
221.2828322665
 20
220.5901744572
 10
221.0877312453
 20
219.5765167264
 10
220.9490479222
 20
218.5050449975
 10
220.8677929489
 20
217.3757271448
 10
220.8438404927
 20
216.2939353353
  0
LINE
  5
229
100
AcDbEntity
  8
0
100
AcDbLine
 62
7
  6
CONTINUOUS
 10
222.5210382933
 20
223.9615706195
 11
222.5209011602
 21
223.9613152976
  0
LWPOLYLINE
  5
22A
100
AcDbEntity
  8
0
100
AcDbPolyline
 62
7
  6
CONTINUOUS
 90
13
 70
0
 10
229.5896914089
 20
103.4710639708
 10
229.7773311033
 20
103.1517958748
 10
229.99369452
 20
102.8512477506
 10
230.236927734
 20
102.5719959007
 10
230.5049459004
 20
102.316434736
 10
230.7954515821
 20
102.0867554598
 10
231.1059548338
 20
101.8849270759
 10
231.4337941646
 20
101.7126799144
 10
231.7761593257
 20
101.5714907568
 10
232.130115513
 20
101.4625700908
 10
232.4926285243
 20
101.3868517387
 10
232.8605907742
 20
101.344984848
 10
233.1283288083
 20
101.3360143345
  0
LINE
  5
22B
100
AcDbEntity
  8
0
100
AcDbLine
 62
7
  6
CONTINUOUS
 10
251.093838543
 20
121.8932423591
 11
249.593838543
 21
121.8932423591
  0
LINE
  5
22C
100
AcDbEntity
  8
BEZUGSACHSEN
100
AcDbLine
 62
7
  6
CONTINUOUS
 10
256.5594516305
 20
134.7560727859
 11
244.1282254554
 21
134.7560727859
  0
LINE
  5
22D
100
AcDbEntity
  8
0
100
AcDbLine
 62
7
  6
CONTINUOUS
 10
220.8438385454
 20
216.2939353354
 11
220.843838543
 21
183.6075616765
  0
LINE
  5
22E
100
AcDbEntity
  8
0
100
AcDbLine
 62
7
  6
CONTINUOUS
 10
244.093838543
 20
142.4019066347
 11
238.343838543
 21
142.4019066347
  0
LINE
  5
22F
100
AcDbEntity
  8
KONSTRUKTIONSELEMENTE
100
AcDbLine
 62
7
  6
CONTINUOUS
 10
256.593838543
 20
142.4019066347
 11
262.343838543
 21
142.4019066347
  0
LINE
  5
230
100
AcDbEntity
  8
0
100
AcDbLine
 62
7
  6
CONTINUOUS
 10
223.8554062271
 20
160.7806079208
 11
221.0384771681
 21
180.8240996573
  0
LINE
  5
231
100
AcDbEntity
  8
0
100
AcDbLine
 62
7
  6
CONTINUOUS
 10
230.7475849276
 20
188.8360114799
 11
230.7475849276
 21
180.8360114799
  0
LINE
  5
232
100
AcDbEntity
  8
DEFAULT_2
100
AcDbLine
 62
8
  6
HIDDEN
 10
231.343838543
 20
129.7734209351
 11
231.343838543
 21
145.7996190215
  0
LINE
  5
233
100
AcDbEntity
  8
BEZUGSACHSEN
100
AcDbLine
 62
7
  6
CONTINUOUS
 10
254.154278748
 20
146.7560727859
 11
246.5333959774
 21
146.7560727859
  0
LINE
  5
234
100
AcDbEntity
  8
0
100
AcDbLine
 62
7
  6
CONTINUOUS
 10
238.3416457786
 20
132.1479689203
 11
238.3416457786
 21
101.3360114799
  0
LINE
  5
235
100
AcDbEntity
  8
0
100
AcDbLine
 62
7
  6
CONTINUOUS
 10
244.093838543
 20
216.5253910635
 11
244.093838543
 21
197.5860114799
  0
LINE
  5
236
100
AcDbEntity
  8
0
100
AcDbLine
 62
7
  6
CONTINUOUS
 10
244.093838543
 20
175.0860114799
 11
244.093838543
 21
174.5860114799
  0
LINE
  5
237
100
AcDbEntity
  8
0
100
AcDbLine
 62
7
  6
CONTINUOUS
 10
244.093838543
 20
104.3360728524
 11
244.093838543
 21
153.1079643326
  0
LINE
  5
238
100
AcDbEntity
  8
RUNDUNGEN
100
AcDbLine
 62
7
  6
CONTINUOUS
 10
256.593838543
 20
216.5253910635
 11
256.593838543
 21
215.1705686485
  0
LINE
  5
239
100
AcDbEntity
  8
KONSTRUKTIONSELEMENTE
100
AcDbLine
 62
7
  6
CONTINUOUS
 10
256.593838543
 20
215.1705686485
 11
256.593838543
 21
197.5860114799
  0
LINE
  5
23A
100
AcDbEntity
  8
KONSTRUKTIONSELEMENTE
100
AcDbLine
 62
7
  6
CONTINUOUS
 10
256.593838543
 20
175.0860114799
 11
256.593838543
 21
174.5860114799
  0
LINE
  5
23B
100
AcDbEntity
  8
KONSTRUKTIONSELEMENTE
100
AcDbLine
 62
7
  6
CONTINUOUS
 10
256.593838543
 20
104.3360728524
 11
256.593838543
 21
153.1079643326
  0
LINE
  5
23C
100
AcDbEntity
  8
KONSTRUKTIONSELEMENTE
100
AcDbLine
 62
7
  6
CONTINUOUS
 10
262.3460313073
 20
132.1479689203
 11
262.3460313073
 21
101.3360114799
  0
LINE
  5
23D
100
AcDbEntity
  8
0
100
AcDbLine
 62
7
  6
CONTINUOUS
 10
239.093838543
 20
180.0860114799
 11
238.543838543
 21
180.0860114799
  0
LINE
  5
23E
100
AcDbEntity
  8
KONSTRUKTIONSELEMENTE
100
AcDbLine
 62
7
  6
CONTINUOUS
 10
261.593838543
 20
180.0860114799
 11
262.143838543
 21
180.0860114799
  0
LINE
  5
23F
100
AcDbEntity
  8
KONSTRUKTIONSELEMENTE
100
AcDbLine
 62
8
  6
HIDDEN
 10
269.343838543
 20
145.7996190215
 11
269.343838543
 21
129.7734209351
  0
LINE
  5
240
100
AcDbEntity
  8
KONSTRUKTIONSELEMENTE
100
AcDbLine
 62
7
  6
CONTINUOUS
 10
269.9400921584
 20
188.8360114799
 11
269.9400921584
 21
180.8360114799
  0
LINE
  5
241
100
AcDbEntity
  8
KONSTRUKTIONSELEMENTE
100
AcDbLine
 62
7
  6
CONTINUOUS
 10
262.143838543
 20
192.5860114799
 11
261.593838543
 21
192.5860114799
  0
LINE
  5
242
100
AcDbEntity
  8
0
100
AcDbLine
 62
7
  6
CONTINUOUS
 10
238.543838543
 20
192.5860114799
 11
239.093838543
 21
192.5860114799
  0
LINE
  5
243
100
AcDbEntity
  8
KONSTRUKTIONSELEMENTE
100
AcDbLine
 62
7
  6
CONTINUOUS
 10
279.843838543
 20
216.293836571
 11
279.843838543
 21
183.6075616765
  0
LINE
  5
244
100
AcDbEntity
  8
KONSTRUKTIONSELEMENTE
100
AcDbLine
 62
7
  6
CONTINUOUS
 10
276.8322708588
 20
160.7806079208
 11
279.6491999178
 21
180.8240996573
  0
LINE
  5
245
100
AcDbEntity
  8
BEZUGSACHSEN
100
AcDbLine
 62
7
  6
CONTINUOUS
 10
256.6503174841
 20
196.8360114799
 11
244.0373596018
 21
196.8360114799
  0
LWPOLYLINE
  5
246
100
AcDbEntity
  8
KONSTRUKTIONSELEMENTE
100
AcDbPolyline
 62
7
  6
CONTINUOUS
 90
9
 70
0
 10
279.8438365932
 20
216.2939353353
 10
279.819884137
 20
217.3757271448
 10
279.7386291637
 20
218.5050449975
 10
279.5999458407
 20
219.5765167264
 10
279.4048448194
 20
220.5901744572
 10
279.1549901809
 20
221.546784093
 10
278.8531430052
 20
222.4452504922
 10
278.5038751762
 20
223.28368096
 10
278.1667759258
 20
223.9613152976
  0
LINE
  5
247
100
AcDbEntity
  8
BEZUGSACHSEN
100
AcDbLine
 62
7
  6
CONTINUOUS
 10
256.593838543
 20
202.8360114799
 11
244.093838543
 21
202.8360114799
  0
LWPOLYLINE
  5
248
100
AcDbEntity
  8
KONSTRUKTIONSELEMENTE
100
AcDbPolyline
 62
7
  6
CONTINUOUS
 90
7
 70
0
 10
278.1666441548
 20
223.9615697345
 10
277.4443226319
 20
225.2256020092
 10
276.6495560433
 20
226.4421174891
 10
275.807529816
 20
227.5488658431
 10
274.9492250993
 20
228.5013805026
 10
274.1098414758
 20
229.2769233269
 10
273.34750765
 20
229.8593190132
  0
LINE
  5
249
100
AcDbEntity
  8
KONSTRUKTIONSELEMENTE
100
AcDbLine
 62
7
  6
CONTINUOUS
 10
278.1666403623
 20
223.9615676974
 11
278.1667759258
 21
223.9613152976
  0
LINE
  5
24A
100
AcDbEntity
  8
KONSTRUKTIONSELEMENTE
100
AcDbLine
 62
7
  6
CONTINUOUS
 10
269.0062725656
 20
232.8634225396
 11
273.3469169129
 21
229.8597285404
  0
LINE
  5
24B
100
AcDbEntity
  8
0
100
AcDbLine
 62
7
  6
CONTINUOUS
 10
241.5129393349
 20
235.3030958867
 11
241.5128441981
 21
235.3030881944
  0
LWPOLYLINE
  5
24C
100
AcDbEntity
  8
0
100
AcDbPolyline
 62
7
  6
CONTINUOUS
 90
3
 70
0
 10
242.352578027
 20
235.3360168992
 10
242.0948843079
 20
235.3330535509
 10
241.5129390489
 20
235.3030994143
  0
LINE
  5
24D
100
AcDbEntity
  8
KONSTRUKTIONSELEMENTE
100
AcDbLine
 62
7
  6
CONTINUOUS
 10
242.3535026023
 20
235.3360114799
 11
258.3341744837
 21
235.3360114799
  0
LINE
  5
24E
100
AcDbEntity
  8
0
100
AcDbLine
 62
7
  6
CONTINUOUS
 10
242.3523141848
 20
235.3360114784
 11
242.352047289
 21
235.3360114661
  0
LWPOLYLINE
  5
24F
100
AcDbEntity
  8
KONSTRUKTIONSELEMENTE
100
AcDbPolyline
 62
7
  6
CONTINUOUS
 90
3
 70
0
 10
259.1747380371
 20
235.3030994143
 10
258.5927927781
 20
235.3330535509
 10
258.335099059
 20
235.3360168992
  0
LINE
  5
250
100
AcDbEntity
  8
KONSTRUKTIONSELEMENTE
100
AcDbLine
 62
7
  6
CONTINUOUS
 10
259.174737751
 20
235.3030958867
 11
259.1748328878
 21
235.3030881944
  0
ARC
  5
251
100
AcDbEntity
  8
RUNDUNGEN
100
AcDbCircle
 62
7
  6
CONTINUOUS
 10
141.3520928737
 20
142.0433212626
 40
26.5
100
AcDbArc
 50
329.9689699062
 51
17.4802217829
  0
ARC
  5
252
100
AcDbEntity
  8
0
100
AcDbCircle
 62
7
  6
CONTINUOUS
 10
141.3520928737
 20
142.0433212626
 40
26.5
100
AcDbArc
 50
14.0650253981
 51
17.4802217829
  0
ARC
  5
253
100
AcDbEntity
  8
0
100
AcDbCircle
 62
7
  6
CONTINUOUS
 10
141.3520928737
 20
142.0433212626
 40
26.5
100
AcDbArc
 50
336.6307270645
 51
336.8010304268
  0
ARC
  5
254
100
AcDbEntity
  8
0
100
AcDbCircle
 62
7
  6
CONTINUOUS
 10
141.3520928737
 20
142.0433212626
 40
26.5
100
AcDbArc
 50
329.97
 51
336.4610140269
  0
ARC
  5
255
100
AcDbEntity
  8
KONSTRUKTIONSELEMENTE
100
AcDbCircle
 62
7
  6
CONTINUOUS
 10
115.3520928737
 20
165.815505898
 40
25.0
100
AcDbArc
 50
290.3946696523
 51
360.0
  0
ARC
  5
256
100
AcDbEntity
  8
KONSTRUKTIONSELEMENTE
100
AcDbCircle
 62
7
  6
CONTINUOUS
 10
140.3520928737
 20
115.3360114799
 40
14.0
100
AcDbArc
 50
200.0
 51
329.97
  0
ARC
  5
257
100
AcDbEntity
  8
0
100
AcDbCircle
 62
7
  6
CONTINUOUS
 10
140.3520928737
 20
115.3360114799
 40
14.0
100
AcDbArc
 50
316.606711068
 51
320.9895067949
  0
ARC
  5
258
100
AcDbEntity
  8
0
100
AcDbCircle
 62
7
  6
CONTINUOUS
 10
140.3520928737
 20
115.3360114799
 40
14.0
100
AcDbArc
 50
321.0645783936
 51
329.97
  0
ARC
  5
259
100
AcDbEntity
  8
0
100
AcDbCircle
 62
7
  6
CONTINUOUS
 10
140.3520928737
 20
115.3360114799
 40
14.0
100
AcDbArc
 50
200.0
 51
312.3148273405
  0
ARC
  5
25A
100
AcDbEntity
  8
KONSTRUKTIONSELEMENTE
100
AcDbCircle
 62
7
  6
CONTINUOUS
 10
126.8520928737
 20
134.8841302416
 40
8.0
100
AcDbArc
 50
110.3946696523
 51
200.0
  0
ARC
  5
25B
100
AcDbEntity
  8
0
100
AcDbCircle
 62
7
  6
CONTINUOUS
 10
126.8520928737
 20
134.8841302416
 40
8.0
100
AcDbArc
 50
148.6821874535
 51
200.0000013312
  0
CIRCLE
  5
25C
100
AcDbEntity
  8
RUNDUNGEN
100
AcDbCircle
 62
7
  6
CONTINUOUS
 10
150.2551471096
 20
140.7560727859
 40
6.0
  0
ARC
  5
25D
100
AcDbEntity
  8
KONSTRUKTIONSELEMENTE
100
AcDbCircle
 62
7
  6
CONTINUOUS
 10
125.3520928737
 20
188.8360114799
 40
42.5
100
AcDbArc
 50
344.1605622604
 51
78.555086646
  0
ARC
  5
25E
100
AcDbEntity
  8
0
100
AcDbCircle
 62
7
  6
CONTINUOUS
 10
125.3520928737
 20
188.8360114799
 40
42.5
100
AcDbArc
 50
348.118843979
 51
348.3977819754
  0
ARC
  5
25F
100
AcDbEntity
  8
0
100
AcDbCircle
 62
7
  6
CONTINUOUS
 10
125.3520928737
 20
188.8360114799
 40
42.5
100
AcDbArc
 50
72.2591453797
 51
78.555086646
  0
ARC
  5
260
100
AcDbEntity
  8
0
100
AcDbCircle
 62
7
  6
CONTINUOUS
 10
125.3520928737
 20
188.8360114799
 40
42.5
100
AcDbArc
 50
4.3654057205
 51
66.5354985495
  0
ARC
  5
261
100
AcDbEntity
  8
KONSTRUKTIONSELEMENTE
100
AcDbCircle
 62
7
  6
CONTINUOUS
 10
122.3520928737
 20
194.7832499984
 40
18.0
100
AcDbArc
 50
0.0
 51
57.5
  0
ARC
  5
262
100
AcDbEntity
  8
0
100
AcDbCircle
 62
7
  6
CONTINUOUS
 10
122.3520928737
 20
194.7832499984
 40
18.0
100
AcDbArc
 50
36.5167106071
 51
36.6689125835
  0
ARC
  5
263
100
AcDbEntity
  8
KONSTRUKTIONSELEMENTE
100
AcDbCircle
 62
7
  6
CONTINUOUS
 10
109.3520928737
 20
230.3360114799
 40
5.0
100
AcDbArc
 50
78.555086646
 51
237.5
  0
ARC
  5
264
100
AcDbEntity
  8
0
100
AcDbCircle
 62
7
  6
CONTINUOUS
 10
109.3520928737
 20
230.3360114799
 40
5.0
100
AcDbArc
 50
78.555086646
 51
237.5
  0
CIRCLE
  5
265
100
AcDbEntity
  8
BEZUGSACHSEN
100
AcDbCircle
 62
7
  6
CONTINUOUS
 10
157.0520928737
 20
199.8360114799
 40
3.0
  0
ARC
  5
266
100
AcDbEntity
  8
RUNDUNGEN
100
AcDbCircle
 62
7
  6
CONTINUOUS
 10
211.9348243825
 20
164.2711869441
 40
47.5
100
AcDbArc
 50
164.1605622604
 51
197.4802217829
  0
ARC
  5
267
100
AcDbEntity
  8
0
100
AcDbCircle
 62
7
  6
CONTINUOUS
 10
211.9348243825
 20
164.2711869441
 40
47.5
100
AcDbArc
 50
178.4764866702
 51
178.7154669052
  0
ARC
  5
268
100
AcDbEntity
  8
BEZUGSACHSEN
100
AcDbCircle
 62
7
  6
CONTINUOUS
 10
211.9348243825
 20
164.2711869441
 40
47.1
100
AcDbArc
 50
178.704561568
 51
186.0145373976
  0
ARC
  5
269
100
AcDbEntity
  8
BEZUGSACHSEN
100
AcDbCircle
 62
7
  6
CONTINUOUS
 10
211.9348243825
 20
164.2711869441
 40
47.1
100
AcDbArc
 50
188.4672251066
 51
195.9400954278
  0
ARC
  5
26A
100
AcDbEntity
  8
RUNDUNGEN
100
AcDbCircle
 62
7
  6
CONTINUOUS
 10
209.593838543
 20
135.8360114799
 40
69.5
100
AcDbArc
 50
2.5746055716
 51
13.2437498085
  0
ARC
  5
26B
100
AcDbEntity
  8
RUNDUNGEN
100
AcDbCircle
 62
7
  6
CONTINUOUS
 10
209.593838543
 20
135.8360114799
 40
69.5
100
AcDbArc
 50
353.1072642193
 51
2.445236948
  0
ARC
  5
26C
100
AcDbEntity
  8
KONSTRUKTIONSELEMENTE
100
AcDbCircle
 62
7
  6
CONTINUOUS
 10
209.593838543
 20
135.8360114799
 40
69.5
100
AcDbArc
 50
332.2477798524
 51
13.2437498085
  0
ARC
  5
26D
100
AcDbEntity
  8
RUNDUNGEN
100
AcDbCircle
 62
7
  6
CONTINUOUS
 10
209.593838543
 20
135.8360114799
 40
69.5
100
AcDbArc
 50
337.0839367275
 51
351.2539916875
  0
ARC
  5
26E
100
AcDbEntity
  8
0
100
AcDbCircle
 62
7
  6
CONTINUOUS
 10
199.593838543
 20
157.3708669473
 40
24.5
100
AcDbArc
 50
346.7562501915
 51
8.0
  0
ARC
  5
26F
100
AcDbEntity
  8
0
100
AcDbCircle
 62
7
  6
CONTINUOUS
 10
250.1476391374
 20
167.8101518827
 40
20.2588144517
100
AcDbArc
 50
234.3628456153
 51
252.6130738892
  0
ARC
  5
270
100
AcDbEntity
  8
0
100
AcDbCircle
 62
7
  6
CONTINUOUS
 10
240.843838543
 20
183.6075616765
 40
20.0
100
AcDbArc
 50
180.0
 51
188.0
  0
ARC
  5
271
100
AcDbEntity
  8
0
100
AcDbCircle
 62
7
  6
CONTINUOUS
 10
238.543838543
 20
186.3360114799
 40
6.25
100
AcDbArc
 50
90.0
 51
270.0
  0
ARC
  5
272
100
AcDbEntity
  8
0
100
AcDbCircle
 62
7
  6
CONTINUOUS
 10
239.093838543
 20
197.5860114799
 40
5.0
100
AcDbArc
 50
270.0
 51
360.0
  0
ARC
  5
273
100
AcDbEntity
  8
0
100
AcDbCircle
 62
7
  6
CONTINUOUS
 10
239.093838543
 20
175.0860114799
 40
5.0
100
AcDbArc
 50
0.0
 51
90.0
  0
ARC
  5
274
100
AcDbEntity
  8
0
100
AcDbCircle
 62
7
  6
CONTINUOUS
 10
291.093838543
 20
135.8360114799
 40
69.5
100
AcDbArc
 50
166.7562501915
 51
207.7522201475
  0
ARC
  5
275
100
AcDbEntity
  8
0
100
AcDbCircle
 62
7
  6
CONTINUOUS
 10
250.343838543
 20
85.3376562879
 40
20.0
100
AcDbArc
 50
108.2099568643
 51
126.8777503083
  0
ARC
  5
276
100
AcDbEntity
  8
KONSTRUKTIONSELEMENTE
100
AcDbCircle
 62
7
  6
CONTINUOUS
 10
250.343838543
 20
85.3376562879
 40
20.0
100
AcDbArc
 50
53.1222496917
 51
71.7900431357
  0
ARC
  5
277
100
AcDbEntity
  8
RUNDUNGEN
100
AcDbCircle
 62
7
  6
CONTINUOUS
 10
301.093838543
 20
157.3708669473
 40
24.5
100
AcDbArc
 50
175.9233441087
 51
179.1515118325
  0
ARC
  5
278
100
AcDbEntity
  8
RUNDUNGEN
100
AcDbCircle
 62
7
  6
CONTINUOUS
 10
301.093838543
 20
157.3708669473
 40
24.5
100
AcDbArc
 50
181.6568427627
 51
182.3107549177
  0
ARC
  5
279
100
AcDbEntity
  8
RUNDUNGEN
100
AcDbCircle
 62
7
  6
CONTINUOUS
 10
301.093838543
 20
157.3708669473
 40
24.5
100
AcDbArc
 50
186.2945424117
 51
193.2437498085
  0
ARC
  5
27A
100
AcDbEntity
  8
KONSTRUKTIONSELEMENTE
100
AcDbCircle
 62
7
  6
CONTINUOUS
 10
301.093838543
 20
157.3708669473
 40
24.5
100
AcDbArc
 50
172.0
 51
193.2437498085
  0
ARC
  5
27B
100
AcDbEntity
  8
KONSTRUKTIONSELEMENTE
100
AcDbCircle
 62
7
  6
CONTINUOUS
 10
250.5400379485
 20
167.8101518827
 40
20.2588144517
100
AcDbArc
 50
287.3869261108
 51
305.6371543847
  0
ARC
  5
27C
100
AcDbEntity
  8
KONSTRUKTIONSELEMENTE
100
AcDbCircle
 62
7
  6
CONTINUOUS
 10
259.843838543
 20
183.6075616765
 40
20.0
100
AcDbArc
 50
352.0
 51
360.0
  0
ARC
  5
27D
100
AcDbEntity
  8
0
100
AcDbCircle
 62
7
  6
CONTINUOUS
 10
250.343838543
 20
174.8064811451
 40
18.2809151484
100
AcDbArc
 50
267.6487009427
 51
272.3512990573
  0
ARC
  5
27E
100
AcDbEntity
  8
KONSTRUKTIONSELEMENTE
100
AcDbCircle
 62
7
  6
CONTINUOUS
 10
262.143838543
 20
186.3360114799
 40
6.25
100
AcDbArc
 50
270.0
 51
90.0
  0
ARC
  5
27F
100
AcDbEntity
  8
0
100
AcDbCircle
 62
7
  6
CONTINUOUS
 10
250.343838543
 20
174.5860114799
 40
6.25
100
AcDbArc
 50
180.0
 51
360.0
  0
ARC
  5
280
100
AcDbEntity
  8
KONSTRUKTIONSELEMENTE
100
AcDbCircle
 62
7
  6
CONTINUOUS
 10
261.593838543
 20
197.5860114799
 40
5.0
100
AcDbArc
 50
180.0
 51
270.0
  0
ARC
  5
281
100
AcDbEntity
  8
KONSTRUKTIONSELEMENTE
100
AcDbCircle
 62
7
  6
CONTINUOUS
 10
261.593838543
 20
175.0860114799
 40
5.0
100
AcDbArc
 50
90.0
 51
180.0
  0
SPLINE
  5
282
100
AcDbEntity
  8
KONSTRUKTIONSELEMENTE
100
AcDbSpline
 62
8
  6
HIDDEN
 70
0
 71
3
 72
23
 73
19
 74
0
 42
0.0000001
 43
0.0000001
 44
0.0000000001
 40
0.0
 40
0.0
 40
0.0
 40
0.0
 40
0.0625273039
 40
0.1250462321
 40
0.1875551175
 40
0.2500554741
 40
0.3125485931
 40
0.3750357426
 40
0.4375188544
 40
0.5000000008
 40
0.5624811432
 40
0.6249642514
 40
0.6874513996
 40
0.7499445279
 40
0.8124448925
 40
0.874953777
 40
0.9374726994
 40
1.0
 40
1.0
 40
1.0
 40
1.0
 10
146.2429520498
 20
122.5414441136
 30
0.0
 10
146.4079085082
 20
122.0882299689
 30
0.0
 10
146.669839282
 20
121.1550038485
 30
0.0
 10
146.8243358382
 20
119.7094619914
 30
0.0
 10
146.7162389488
 20
118.2584733139
 30
0.0
 10
146.3322121443
 20
116.8543193384
 30
0.0
 10
145.6737744934
 20
115.5552459139
 30
0.0
 10
144.7590650867
 20
114.4212509154
 30
0.0
 10
143.6231864411
 20
113.5083106992
 30
0.0
 10
142.3164081006
 20
112.8629041883
 30
0.0
 10
140.9004985346
 20
112.5173333396
 30
0.0
 10
139.4435384216
 20
112.4865573793
 30
0.0
 10
138.0139123854
 20
112.7672840357
 30
0.0
 10
136.6744914671
 20
113.3391965098
 30
0.0
 10
135.477736994
 20
114.1679932748
 30
0.0
 10
134.4622524543
 20
115.2100317854
 30
0.0
 10
133.6514273445
 20
116.4166895071
 30
0.0
 10
133.2522118085
 20
117.2999479863
 30
0.0
 10
133.0872553588
 20
117.753162107
 30
0.0
  0
SPLINE
  5
283
100
AcDbEntity
  8
DEFAULT_2
100
AcDbSpline
 62
8
  6
HIDDEN
 70
0
 71
3
 72
23
 73
19
 74
0
 42
0.0000001
 43
0.0000001
 44
0.0000000001
 40
0.0
 40
0.0
 40
0.0
 40
0.0
 40
0.0625273039
 40
0.1250462321
 40
0.1875551175
 40
0.2500554741
 40
0.3125485931
 40
0.3750357426
 40
0.4375188544
 40
0.5000000008
 40
0.5624811432
 40
0.6249642514
 40
0.6874513996
 40
0.7499445279
 40
0.8124448925
 40
0.874953777
 40
0.9374726994
 40
1.0
 40
1.0
 40
1.0
 40
1.0
 10
146.2429520498
 20
122.5414441136
 30
0.0
 10
146.4079085082
 20
122.0882299689
 30
0.0
 10
146.669839282
 20
121.1550038485
 30
0.0
 10
146.8243358382
 20
119.7094619914
 30
0.0
 10
146.7162389488
 20
118.2584733139
 30
0.0
 10
146.3322121443
 20
116.8543193384
 30
0.0
 10
145.6737744934
 20
115.5552459139
 30
0.0
 10
144.7590650867
 20
114.4212509154
 30
0.0
 10
143.6231864411
 20
113.5083106992
 30
0.0
 10
142.3164081006
 20
112.8629041883
 30
0.0
 10
140.9004985346
 20
112.5173333396
 30
0.0
 10
139.4435384216
 20
112.4865573793
 30
0.0
 10
138.0139123854
 20
112.7672840357
 30
0.0
 10
136.6744914671
 20
113.3391965098
 30
0.0
 10
135.477736994
 20
114.1679932748
 30
0.0
 10
134.4622524543
 20
115.2100317854
 30
0.0
 10
133.6514273445
 20
116.4166895071
 30
0.0
 10
133.2522118085
 20
117.2999479863
 30
0.0
 10
133.0872553588
 20
117.753162107
 30
0.0
  0
SPLINE
  5
284
100
AcDbEntity
  8
DEFAULT_2
100
AcDbSpline
 62
8
  6
HIDDEN
 70
0
 71
3
 72
15
 73
11
 74
0
 42
0.0000001
 43
0.0000001
 44
0.0000000001
 40
0.0
 40
0.0
 40
0.0
 40
0.0
 40
0.126382861
 40
0.2523602337
 40
0.3778962268
 40
0.5029784479
 40
0.6276447639
 40
0.751968546
 40
0.8760452415
 40
1.0
 40
1.0
 40
1.0
 40
1.0
 10
244.0938389899
 20
112.5133775102
 30
0.0
 10
243.1791053324
 20
112.8196589039
 30
0.0
 10
241.3950493012
 20
113.5680268139
 30
0.0
 10
238.9231927377
 20
115.0747385231
 30
0.0
 10
236.7148501024
 20
116.9325074544
 30
0.0
 10
234.824775173
 20
119.100195262
 30
0.0
 10
233.3003238583
 20
121.5283134109
 30
0.0
 10
232.1812242336
 20
124.1600053466
 30
0.0
 10
231.4972504495
 20
126.9306016984
 30
0.0
 10
231.343838543
 20
128.8273059213
 30
0.0
 10
231.343838543
 20
129.7734209351
 30
0.0
  0
SPLINE
  5
285
100
AcDbEntity
  8
KONSTRUKTIONSELEMENTE
100
AcDbSpline
 62
8
  6
HIDDEN
 70
0
 71
3
 72
15
 73
11
 74
0
 42
0.0000001
 43
0.0000001
 44
0.0000000001
 40
0.0
 40
0.0
 40
0.0
 40
0.0
 40
0.126382861
 40
0.2523602337
 40
0.3778962268
 40
0.5029784479
 40
0.6276447639
 40
0.751968546
 40
0.8760452415
 40
1.0
 40
1.0
 40
1.0
 40
1.0
 10
256.593838096
 20
112.5133775102
 30
0.0
 10
257.5085717535
 20
112.8196589039
 30
0.0
 10
259.2926277847
 20
113.5680268139
 30
0.0
 10
261.7644843482
 20
115.0747385231
 30
0.0
 10
263.9728269836
 20
116.9325074544
 30
0.0
 10
265.862901913
 20
119.100195262
 30
0.0
 10
267.3873532276
 20
121.5283134109
 30
0.0
 10
268.5064528524
 20
124.1600053466
 30
0.0
 10
269.1904266364
 20
126.9306016984
 30
0.0
 10
269.343838543
 20
128.8273059213
 30
0.0
 10
269.343838543
 20
129.7734209351
 30
0.0
  0
SPLINE
  5
286
100
AcDbEntity
  8
KONSTRUKTIONSELEMENTE
100
AcDbSpline
 62
7
  6
CONTINUOUS
 70
0
 71
3
 72
16
 73
12
 74
0
 42
0.0000001
 43
0.0000001
 44
0.0000000001
 40
0.0
 40
0.0
 40
0.0
 40
0.0
 40
0.1610723053
 40
0.3166879154
 40
0.4620023963
 40
0.5933761209
 40
0.7092982324
 40
0.8114833461
 40
0.8592151893
 40
0.9059054226
 40
1.0
 40
1.0
 40
1.0
 40
1.0
 10
262.343838543
 20
142.4019066347
 30
0.0
 10
262.8033660485
 20
142.4019066347
 30
0.0
 10
263.7071953509
 20
142.432615871
 30
0.0
 10
265.0190093612
 20
142.5739086182
 30
0.0
 10
266.2305171863
 20
142.8161547584
 30
0.0
 10
267.2977524185
 20
143.1686478408
 30
0.0
 10
268.1830884951
 20
143.6411708316
 30
0.0
 10
268.7530505958
 20
144.1590961446
 30
0.0
 10
269.064338605
 20
144.6288758482
 30
0.0
 10
269.282069063
 20
145.1230100714
 30
0.0
 10
269.3438100565
 20
145.5296026714
 30
0.0
 10
269.3438370373
 20
145.7980476169
 30
0.0
  0
SPLINE
  5
287
100
AcDbEntity
  8
0
100
AcDbSpline
 62
7
  6
CONTINUOUS
 70
0
 71
3
 72
13
 73
9
 74
0
 42
0.0000001
 43
0.0000001
 44
0.0000000001
 40
0.0
 40
0.0
 40
0.0
 40
0.0
 40
0.2964948308
 40
0.4322545758
 40
0.5587877775
 40
0.6763212405
 40
0.786368655
 40
1.0
 40
1.0
 40
1.0
 40
1.0
 10
241.5128441981
 20
235.3030881944
 30
0.0
 10
240.5060491284
 20
235.2215960656
 30
0.0
 10
239.0404974125
 20
235.0659497606
 30
0.0
 10
237.1601046998
 20
234.7665902753
 30
0.0
 10
235.8912085993
 20
234.5115616457
 30
0.0
 10
234.7206719356
 20
234.2151586674
 30
0.0
 10
233.2908466951
 20
233.7544275898
 30
0.0
 10
232.2798772018
 20
233.2775612384
 30
0.0
 10
231.6814045203
 20
232.8634225396
 30
0.0
  0
SPLINE
  5
288
100
AcDbEntity
  8
KONSTRUKTIONSELEMENTE
100
AcDbSpline
 62
7
  6
CONTINUOUS
 70
0
 71
3
 72
13
 73
9
 74
0
 42
0.0000001
 43
0.0000001
 44
0.0000000001
 40
0.0
 40
0.0
 40
0.0
 40
0.0
 40
0.2964948308
 40
0.4322545758
 40
0.5587877775
 40
0.6763212405
 40
0.786368655
 40
1.0
 40
1.0
 40
1.0
 40
1.0
 10
259.1748328878
 20
235.3030881944
 30
0.0
 10
260.1816279575
 20
235.2215960656
 30
0.0
 10
261.6471796734
 20
235.0659497606
 30
0.0
 10
263.5275723861
 20
234.7665902753
 30
0.0
 10
264.7964684866
 20
234.5115616457
 30
0.0
 10
265.9670051503
 20
234.2151586674
 30
0.0
 10
267.3968303908
 20
233.7544275898
 30
0.0
 10
268.4077998841
 20
233.2775612384
 30
0.0
 10
269.0062725656
 20
232.8634225396
 30
0.0
  0
SPLINE
  5
289
100
AcDbEntity
  8
KONSTRUKTIONSELEMENTE
100
AcDbSpline
 62
7
  6
CONTINUOUS
 70
0
 71
3
 72
9
 73
5
 74
0
 42
0.0000001
 43
0.0000001
 44
0.0000000001
 40
0.0
 40
0.0
 40
0.0
 40
0.0
 40
0.5238570486
 40
1.0
 40
1.0
 40
1.0
 40
1.0
 10
255.5592803131
 20
119.3072882983
 30
0.0
 10
255.8766114396
 20
118.8585325723
 30
0.0
 10
256.3787552716
 20
117.9226503918
 30
0.0
 10
256.593838543
 20
116.8718453344
 30
0.0
 10
256.593838543
 20
116.372287137
 30
0.0
  0
SPLINE
  5
28A
100
AcDbEntity
  8
0
100
AcDbSpline
 62
7
  6
CONTINUOUS
 70
0
 71
3
 72
16
 73
12
 74
0
 42
0.0000001
 43
0.0000001
 44
0.0000000001
 40
0.0
 40
0.0
 40
0.0
 40
0.0
 40
0.3630182191
 40
0.5279037334
 40
0.6744992415
 40
0.7984498341
 40
0.8957337345
 40
0.9332656398
 40
0.9629586148
 40
0.9848578988
 40
1.0
 40
1.0
 40
1.0
 40
1.0
 10
249.193838543
 20
218.2202227989
 30
0.0
 10
248.5296107794
 20
218.1815904401
 30
0.0
 10
247.5655508624
 20
218.0506433353
 30
0.0
 10
246.367739015
 20
217.7417097003
 30
0.0
 10
245.6114228795
 20
217.4840426539
 30
0.0
 10
244.9919768618
 20
217.2166048769
 30
0.0
 10
244.5738363675
 20
216.9901193469
 30
0.0
 10
244.3256746381
 20
216.8185142941
 30
0.0
 10
244.2010503077
 20
216.7118716356
 30
0.0
 10
244.1210788802
 20
216.6193029662
 30
0.0
 10
244.093838543
 20
216.5531439437
 30
0.0
 10
244.093838543
 20
216.5253910635
 30
0.0
  0
SPLINE
  5
28B
100
AcDbEntity
  8
RUNDUNGEN
100
AcDbSpline
 62
7
  6
CONTINUOUS
 70
0
 71
3
 72
16
 73
12
 74
0
 42
0.0000001
 43
0.0000001
 44
0.0000000001
 40
0.0
 40
0.0
 40
0.0
 40
0.0
 40
0.3630182191
 40
0.5279037334
 40
0.6744992415
 40
0.7984498341
 40
0.8957337345
 40
0.9332656398
 40
0.9629586148
 40
0.9848578988
 40
1.0
 40
1.0
 40
1.0
 40
1.0
 10
251.493838543
 20
218.2202227989
 30
0.0
 10
252.1580663065
 20
218.1815904401
 30
0.0
 10
253.1221262235
 20
218.0506433353
 30
0.0
 10
254.319938071
 20
217.7417097003
 30
0.0
 10
255.0762542065
 20
217.4840426539
 30
0.0
 10
255.6957002241
 20
217.2166048769
 30
0.0
 10
256.1138407184
 20
216.9901193469
 30
0.0
 10
256.3620024479
 20
216.8185142941
 30
0.0
 10
256.4866267782
 20
216.7118716356
 30
0.0
 10
256.5665982057
 20
216.6193029662
 30
0.0
 10
256.593838543
 20
216.5531439437
 30
0.0
 10
256.593838543
 20
216.5253910635
 30
0.0
  0
SPLINE
  5
28C
100
AcDbEntity
  8
0
100
AcDbSpline
 62
7
  6
CONTINUOUS
 70
0
 71
3
 72
16
 73
12
 74
0
 42
0.0000001
 43
0.0000001
 44
0.0000000001
 40
0.0
 40
0.0
 40
0.0
 40
0.0
 40
0.1610723053
 40
0.3166879154
 40
0.4620023963
 40
0.5933761209
 40
0.7092982324
 40
0.8114833461
 40
0.8592151893
 40
0.9059054226
 40
1.0
 40
1.0
 40
1.0
 40
1.0
 10
238.343838543
 20
142.4019066347
 30
0.0
 10
237.8843110375
 20
142.4019066347
 30
0.0
 10
236.9804817351
 20
142.432615871
 30
0.0
 10
235.6686677247
 20
142.5739086182
 30
0.0
 10
234.4571598996
 20
142.8161547584
 30
0.0
 10
233.3899246675
 20
143.1686478408
 30
0.0
 10
232.5045885908
 20
143.6411708316
 30
0.0
 10
231.9346264901
 20
144.1590961446
 30
0.0
 10
231.623338481
 20
144.6288758482
 30
0.0
 10
231.405608023
 20
145.1230100714
 30
0.0
 10
231.3438670294
 20
145.5296026714
 30
0.0
 10
231.3438400486
 20
145.7980476169
 30
0.0
  0
SPLINE
  5
28D
100
AcDbEntity
  8
0
100
AcDbSpline
 62
7
  6
CONTINUOUS
 70
0
 71
3
 72
9
 73
5
 74
0
 42
0.0000001
 43
0.0000001
 44
0.0000000001
 40
0.0
 40
0.0
 40
0.0
 40
0.0
 40
0.5238570486
 40
1.0
 40
1.0
 40
1.0
 40
1.0
 10
245.1283967728
 20
119.3072882983
 30
0.0
 10
244.8110656463
 20
118.8585325723
 30
0.0
 10
244.3089218143
 20
117.9226503918
 30
0.0
 10
244.093838543
 20
116.8718453344
 30
0.0
 10
244.093838543
 20
116.372287137
 30
0.0
  0
SPLINE
  5
28E
100
AcDbEntity
  8
KONSTRUKTIONSELEMENTE
100
AcDbSpline
 62
7
  6
CONTINUOUS
 70
0
 71
3
 72
9
 73
5
 74
0
 42
0.0000001
 43
0.0000001
 44
0.0000000001
 40
0.0
 40
0.0
 40
0.0
 40
0.0
 40
0.4999883726
 40
1.0
 40
1.0
 40
1.0
 40
1.0
 10
269.6735738548
 20
194.7832499984
 30
0.0
 10
269.7702726626
 20
193.7955088086
 30
0.0
 10
269.9010641556
 20
191.813682431
 30
0.0
 10
269.9400921584
 20
189.8285208974
 30
0.0
 10
269.9400921584
 20
188.8360114799
 30
0.0
  0
SPLINE
  5
28F
100
AcDbEntity
  8
KONSTRUKTIONSELEMENTE
100
AcDbSpline
 62
7
  6
CONTINUOUS
 70
0
 71
3
 72
11
 73
7
 74
0
 42
0.0000001
 43
0.0000001
 44
0.0000000001
 40
0.0
 40
0.0
 40
0.0
 40
0.0
 40
0.2626761884
 40
0.5196376414
 40
0.766382414
 40
1.0
 40
1.0
 40
1.0
 40
1.0
 10
268.423497781
 20
165.815505898
 30
0.0
 10
268.0737500621
 20
164.4837011252
 30
0.0
 10
267.2974441816
 20
161.8703551841
 30
0.0
 10
265.8976373465
 20
158.101224893
 30
0.0
 10
264.2847072483
 20
154.584654512
 30
0.0
 10
263.0355911654
 20
152.3925441398
 30
0.0
 10
262.3703090044
 20
151.364374044
 30
0.0
  0
SPLINE
  5
290
100
AcDbEntity
  8
KONSTRUKTIONSELEMENTE
100
AcDbSpline
 62
7
  6
CONTINUOUS
 70
0
 71
3
 72
12
 73
8
 74
0
 42
0.0000001
 43
0.0000001
 44
0.0000000001
 40
0.0
 40
0.0
 40
0.0
 40
0.0
 40
0.2487031001
 40
0.3733370647
 40
0.4988062271
 40
0.7519880723
 40
1.0
 40
1.0
 40
1.0
 40
1.0
 10
256.593838543
 20
139.0424080608
 30
0.0
 10
257.3379435615
 20
138.7745128477
 30
0.0
 10
258.4255031342
 20
138.2696866294
 30
0.0
 10
259.7212472748
 20
137.3476092451
 30
0.0
 10
260.8862915492
 20
136.2430248893
 30
0.0
 10
261.9917482767
 20
134.540562587
 30
0.0
 10
262.3460313188
 20
132.9366314043
 30
0.0
 10
262.3460312928
 20
132.1479689203
 30
0.0
  0
SPLINE
  5
291
100
AcDbEntity
  8
BEZUGSACHSEN
100
AcDbSpline
 62
7
  6
CONTINUOUS
 70
0
 71
3
 72
15
 73
11
 74
0
 42
0.0000001
 43
0.0000001
 44
0.0000000001
 40
0.0
 40
0.0
 40
0.0
 40
0.0
 40
0.1550406916
 40
0.2958998037
 40
0.4224901174
 40
0.5367052456
 40
0.6435798021
 40
0.7512726779
 40
0.8683308847
 40
1.0
 40
1.0
 40
1.0
 40
1.0
 10
254.1637615976
 20
146.7560593968
 30
0.0
 10
254.3418338849
 20
146.7563173611
 30
0.0
 10
254.681850719
 20
146.7493706696
 30
0.0
 10
255.1654311374
 20
146.7003751296
 30
0.0
 10
255.5940423922
 20
146.6004030179
 30
0.0
 10
255.9615053252
 20
146.4351711187
 30
0.0
 10
256.2561211141
 20
146.1898946555
 30
0.0
 10
256.4617432179
 20
145.86209317
 30
0.0
 10
256.5745357774
 20
145.4643044984
 30
0.0
 10
256.593838543
 20
145.1776695424
 30
0.0
 10
256.593838543
 20
145.0264405658
 30
0.0
  0
LINE
  5
292
100
AcDbEntity
  8
KONSTRUKTIONSELEMENTE
100
AcDbLine
 62
7
  6
CONTINUOUS
 10
262.3703090044
 20
151.364374044
 11
262.343838543
 21
151.3453453392
  0
SPLINE
  5
293
100
AcDbEntity
  8
0
100
AcDbSpline
 62
7
  6
CONTINUOUS
 70
0
 71
3
 72
9
 73
5
 74
0
 42
0.0000001
 43
0.0000001
 44
0.0000000001
 40
0.0
 40
0.0
 40
0.0
 40
0.0
 40
0.4711164968
 40
1.0
 40
1.0
 40
1.0
 40
1.0
 10
235.3246032454
 20
209.964296023
 30
0.0
 10
235.0289881437
 20
209.5287213081
 30
0.0
 10
234.413297973
 20
208.5960191622
 30
0.0
 10
233.8413180526
 20
207.6353409636
 30
0.0
 10
233.554066227
 20
207.1188874551
 30
0.0
  0
SPLINE
  5
294
100
AcDbEntity
  8
0
100
AcDbSpline
 62
7
  6
CONTINUOUS
 70
0
 71
3
 72
9
 73
5
 74
0
 42
0.0000001
 43
0.0000001
 44
0.0000000001
 40
0.0
 40
0.0
 40
0.0
 40
0.0
 40
0.2363492223
 40
1.0
 40
1.0
 40
1.0
 40
1.0
 10
233.554066227
 20
207.1188874551
 30
0.0
 10
233.3808120002
 20
206.807391599
 30
0.0
 10
232.710554623
 20
205.4547870575
 30
0.0
 10
232.2887689874
 20
203.9849539282
 30
0.0
 10
232.0913035434
 20
202.8503544009
 30
0.0
  0
SPLINE
  5
295
100
AcDbEntity
  8
0
100
AcDbSpline
 62
7
  6
CONTINUOUS
 70
0
 71
3
 72
9
 73
5
 74
0
 42
0.0000001
 43
0.0000001
 44
0.0000000001
 40
0.0
 40
0.0
 40
0.0
 40
0.0
 40
0.4865043804
 40
1.0
 40
1.0
 40
1.0
 40
1.0
 10
232.0913035434
 20
202.8503544009
 30
0.0
 10
231.8649622194
 20
201.5498394646
 30
0.0
 10
231.4586669806
 20
198.8662395714
 30
0.0
 10
231.1498569462
 20
196.1699220706
 30
0.0
 10
231.0141032311
 20
194.7832499984
 30
0.0
  0
SPLINE
  5
296
100
AcDbEntity
  8
0
100
AcDbSpline
 62
7
  6
CONTINUOUS
 70
0
 71
3
 72
9
 73
5
 74
0
 42
0.0000001
 43
0.0000001
 44
0.0000000001
 40
0.0
 40
0.0
 40
0.0
 40
0.0
 40
0.4999883726
 40
1.0
 40
1.0
 40
1.0
 40
1.0
 10
231.0141032311
 20
194.7832499984
 30
0.0
 10
230.9174044233
 20
193.7955088086
 30
0.0
 10
230.7866129303
 20
191.813682431
 30
0.0
 10
230.7475849276
 20
189.8285208974
 30
0.0
 10
230.7475849276
 20
188.8360114799
 30
0.0
  0
SPLINE
  5
297
100
AcDbEntity
  8
0
100
AcDbSpline
 62
7
  6
CONTINUOUS
 70
0
 71
3
 72
11
 73
7
 74
0
 42
0.0000001
 43
0.0000001
 44
0.0000000001
 40
0.0
 40
0.0
 40
0.0
 40
0.0
 40
0.2500310434
 40
0.5000507416
 40
0.750045812
 40
1.0
 40
1.0
 40
1.0
 40
1.0
 10
230.7475849276
 20
180.8360114799
 30
0.0
 10
230.7475849276
 20
179.5746601934
 30
0.0
 10
230.7893674583
 20
177.051783737
 30
0.0
 10
231.0039698289
 20
173.2725788252
 30
0.0
 10
231.4408429013
 20
169.511706145
 30
0.0
 10
231.9438953942
 20
167.0351153996
 30
0.0
 10
232.264179305
 20
165.815505898
 30
0.0
  0
SPLINE
  5
298
100
AcDbEntity
  8
0
100
AcDbSpline
 62
7
  6
CONTINUOUS
 70
0
 71
3
 72
11
 73
7
 74
0
 42
0.0000001
 43
0.0000001
 44
0.0000000001
 40
0.0
 40
0.0
 40
0.0
 40
0.0
 40
0.2626761884
 40
0.5196376414
 40
0.766382414
 40
1.0
 40
1.0
 40
1.0
 40
1.0
 10
232.264179305
 20
165.815505898
 30
0.0
 10
232.6139270238
 20
164.4837011252
 30
0.0
 10
233.3902329043
 20
161.8703551841
 30
0.0
 10
234.7900397394
 20
158.101224893
 30
0.0
 10
236.4029698376
 20
154.584654512
 30
0.0
 10
237.6520859206
 20
152.3925441398
 30
0.0
 10
238.3173680815
 20
151.364374044
 30
0.0
  0
SPLINE
  5
299
100
AcDbEntity
  8
0
100
AcDbSpline
 62
7
  6
CONTINUOUS
 70
0
 71
3
 72
12
 73
8
 74
0
 42
0.0000001
 43
0.0000001
 44
0.0000000001
 40
0.0
 40
0.0
 40
0.0
 40
0.0
 40
0.2487031001
 40
0.3733370647
 40
0.4988062271
 40
0.7519880723
 40
1.0
 40
1.0
 40
1.0
 40
1.0
 10
244.093838543
 20
139.0424080608
 30
0.0
 10
243.3497335244
 20
138.7745128477
 30
0.0
 10
242.2621739517
 20
138.2696866294
 30
0.0
 10
240.9664298111
 20
137.3476092451
 30
0.0
 10
239.8013855367
 20
136.2430248893
 30
0.0
 10
238.6959288092
 20
134.540562587
 30
0.0
 10
238.3416457671
 20
132.9366314043
 30
0.0
 10
238.3416457931
 20
132.1479689203
 30
0.0
  0
SPLINE
  5
29A
100
AcDbEntity
  8
KONSTRUKTIONSELEMENTE
100
AcDbSpline
 62
7
  6
CONTINUOUS
 70
0
 71
3
 72
9
 73
5
 74
0
 42
0.0000001
 43
0.0000001
 44
0.0000000001
 40
0.0
 40
0.0
 40
0.0
 40
0.0
 40
0.4865043804
 40
1.0
 40
1.0
 40
1.0
 40
1.0
 10
268.5963735425
 20
202.8503544009
 30
0.0
 10
268.8227148666
 20
201.5498394646
 30
0.0
 10
269.2290101053
 20
198.8662395714
 30
0.0
 10
269.5378201397
 20
196.1699220706
 30
0.0
 10
269.6735738548
 20
194.7832499984
 30
0.0
  0
SPLINE
  5
29B
100
AcDbEntity
  8
KONSTRUKTIONSELEMENTE
100
AcDbSpline
 62
7
  6
CONTINUOUS
 70
0
 71
3
 72
14
 73
10
 74
0
 42
0.0000001
 43
0.0000001
 44
0.0000000001
 40
0.0
 40
0.0
 40
0.0
 40
0.0
 40
0.1951570368
 40
0.2510554321
 40
0.3096030273
 40
0.4339708352
 40
0.7062033271
 40
0.851619101
 40
1.0
 40
1.0
 40
1.0
 40
1.0
 10
269.3438370373
 20
145.7980476169
 30
0.0
 10
269.3439002759
 20
146.4272380183
 30
0.0
 10
269.0649700221
 20
147.2372416299
 30
0.0
 10
268.5430402799
 20
148.0847334043
 30
0.0
 10
268.0817342956
 20
148.703431522
 30
0.0
 10
267.0589896404
 20
149.7620069333
 30
0.0
 10
265.5482242643
 20
150.7146212738
 30
0.0
 10
263.7986003613
 20
151.261329213
 30
0.0
 10
262.8486887854
 20
151.362578835
 30
0.0
 10
262.3703090044
 20
151.364374044
 30
0.0
  0
SPLINE
  5
29C
100
AcDbEntity
  8
0
100
AcDbSpline
 62
7
  6
CONTINUOUS
 70
0
 71
3
 72
14
 73
10
 74
0
 42
0.0000001
 43
0.0000001
 44
0.0000000001
 40
0.0
 40
0.0
 40
0.0
 40
0.0
 40
0.1951570368
 40
0.2510554321
 40
0.3096030273
 40
0.4339708352
 40
0.7062033271
 40
0.851619101
 40
1.0
 40
1.0
 40
1.0
 40
1.0
 10
231.3438400486
 20
145.7980476169
 30
0.0
 10
231.3437768101
 20
146.4272380183
 30
0.0
 10
231.6227070638
 20
147.2372416299
 30
0.0
 10
232.1446368061
 20
148.0847334043
 30
0.0
 10
232.6059427903
 20
148.703431522
 30
0.0
 10
233.6286874455
 20
149.7620069333
 30
0.0
 10
235.1394528216
 20
150.7146212738
 30
0.0
 10
236.8890767246
 20
151.261329213
 30
0.0
 10
237.8389883005
 20
151.362578835
 30
0.0
 10
238.3173680815
 20
151.364374044
 30
0.0
  0
SPLINE
  5
29D
100
AcDbEntity
  8
0
100
AcDbSpline
 62
7
  6
CONTINUOUS
 70
0
 71
3
 72
16
 73
12
 74
0
 42
0.0000001
 43
0.0000001
 44
0.0000000001
 40
0.0
 40
0.0
 40
0.0
 40
0.0
 40
0.1021851356
 40
0.2053128634
 40
0.3138429017
 40
0.4315065242
 40
0.4945177844
 40
0.5603394373
 40
0.6997315312
 40
0.8475065447
 40
1.0
 40
1.0
 40
1.0
 40
1.0
 10
244.093838543
 20
153.1079643326
 30
0.0
 10
244.093838543
 20
153.3539616273
 30
0.0
 10
244.1576736922
 20
153.8511490903
 30
0.0
 10
244.4596988834
 20
154.5539525298
 30
0.0
 10
244.9621260871
 20
155.17862477
 30
0.0
 10
245.5202061698
 20
155.6048117794
 30
0.0
 10
246.0402893347
 20
155.8918466814
 30
0.0
 10
246.6327119797
 20
156.1508304799
 30
0.0
 10
247.4519276705
 20
156.3904302082
 30
0.0
 10
248.5021576973
 20
156.5425881893
 30
0.0
 10
249.2270399173
 20
156.5560248316
 30
0.0
 10
249.593838543
 20
156.5409573731
 30
0.0
  0
SPLINE
  5
29E
100
AcDbEntity
  8
BEZUGSACHSEN
100
AcDbSpline
 62
7
  6
CONTINUOUS
 70
0
 71
3
 72
15
 73
11
 74
0
 42
0.0000001
 43
0.0000001
 44
0.0000000001
 40
0.0
 40
0.0
 40
0.0
 40
0.0
 40
0.1316691373
 40
0.2487273651
 40
0.3564202566
 40
0.4632948177
 40
0.5775099466
 40
0.704100247
 40
0.8449593346
 40
1.0
 40
1.0
 40
1.0
 40
1.0
 10
244.093838543
 20
145.0264405658
 30
0.0
 10
244.093838543
 20
145.1776694764
 30
0.0
 10
244.1131412926
 20
145.4643043077
 30
0.0
 10
244.2259337324
 20
145.8620928183
 30
0.0
 10
244.4315556127
 20
146.1898942167
 30
0.0
 10
244.7261711124
 20
146.4351706983
 30
0.0
 10
245.0936337285
 20
146.6004026918
 30
0.0
 10
245.5222446434
 20
146.7003749168
 30
0.0
 10
246.0058246831
 20
146.7493705702
 30
0.0
 10
246.3458412529
 20
146.7563173317
 30
0.0
 10
246.5239134027
 20
146.7560593996
 30
0.0
  0
SPLINE
  5
29F
100
AcDbEntity
  8
KONSTRUKTIONSELEMENTE
100
AcDbSpline
 62
7
  6
CONTINUOUS
 70
0
 71
3
 72
16
 73
12
 74
0
 42
0.0000001
 43
0.0000001
 44
0.0000000001
 40
0.0
 40
0.0
 40
0.0
 40
0.0
 40
0.1021851356
 40
0.2053128634
 40
0.3138429017
 40
0.4315065242
 40
0.4945177844
 40
0.5603394373
 40
0.6997315312
 40
0.8475065447
 40
1.0
 40
1.0
 40
1.0
 40
1.0
 10
256.593838543
 20
153.1079643326
 30
0.0
 10
256.593838543
 20
153.3539616273
 30
0.0
 10
256.5300033937
 20
153.8511490903
 30
0.0
 10
256.2279782025
 20
154.5539525298
 30
0.0
 10
255.7255509988
 20
155.17862477
 30
0.0
 10
255.1674709161
 20
155.6048117794
 30
0.0
 10
254.6473877512
 20
155.8918466814
 30
0.0
 10
254.0549651062
 20
156.1508304799
 30
0.0
 10
253.2357494154
 20
156.3904302082
 30
0.0
 10
252.1855193886
 20
156.5425881893
 30
0.0
 10
251.4606371686
 20
156.5560248316
 30
0.0
 10
251.093838543
 20
156.5409573731
 30
0.0
  0
SPLINE
  5
2A0
100
AcDbEntity
  8
KONSTRUKTIONSELEMENTE
100
AcDbSpline
 62
7
  6
CONTINUOUS
 70
0
 71
3
 72
9
 73
5
 74
0
 42
0.0000001
 43
0.0000001
 44
0.0000000001
 40
0.0
 40
0.0
 40
0.0
 40
0.0
 40
0.2363492223
 40
1.0
 40
1.0
 40
1.0
 40
1.0
 10
267.1336108589
 20
207.1188874551
 30
0.0
 10
267.3068650858
 20
206.807391599
 30
0.0
 10
267.9771224629
 20
205.4547870575
 30
0.0
 10
268.3989080985
 20
203.9849539282
 30
0.0
 10
268.5963735425
 20
202.8503544009
 30
0.0
  0
SPLINE
  5
2A1
100
AcDbEntity
  8
KONSTRUKTIONSELEMENTE
100
AcDbSpline
 62
7
  6
CONTINUOUS
 70
0
 71
3
 72
9
 73
5
 74
0
 42
0.0000001
 43
0.0000001
 44
0.0000000001
 40
0.0
 40
0.0
 40
0.0
 40
0.0
 40
0.4711164968
 40
1.0
 40
1.0
 40
1.0
 40
1.0
 10
265.3630738405
 20
209.964296023
 30
0.0
 10
265.6586889422
 20
209.5287213081
 30
0.0
 10
266.2743791129
 20
208.5960191622
 30
0.0
 10
266.8463590333
 20
207.6353409636
 30
0.0
 10
267.1336108589
 20
207.1188874551
 30
0.0
  0
SPLINE
  5
2A2
100
AcDbEntity
  8
KONSTRUKTIONSELEMENTE
100
AcDbSpline
 62
7
  6
CONTINUOUS
 70
0
 71
3
 72
11
 73
7
 74
0
 42
0.0000001
 43
0.0000001
 44
0.0000000001
 40
0.0
 40
0.0
 40
0.0
 40
0.0
 40
0.2500310434
 40
0.5000507416
 40
0.750045812
 40
1.0
 40
1.0
 40
1.0
 40
1.0
 10
269.9400921584
 20
180.8360114799
 30
0.0
 10
269.9400921584
 20
179.5746601934
 30
0.0
 10
269.8983096276
 20
177.051783737
 30
0.0
 10
269.683707257
 20
173.2725788252
 30
0.0
 10
269.2468341846
 20
169.511706145
 30
0.0
 10
268.7437816918
 20
167.0351153996
 30
0.0
 10
268.423497781
 20
165.815505898
 30
0.0
  0
LINE
  5
2A3
100
AcDbEntity
  8
0
100
AcDbLine
 62
7
  6
CONTINUOUS
 10
238.3173680815
 20
151.364374044
 11
238.343838543
 21
151.3453453392
  0
ELLIPSE
  5
2A4
100
AcDbEntity
  8
KONSTRUKTIONSELEMENTE
100
AcDbEllipse
 62
7
  6
CONTINUOUS
 10
251.093838543
 20
115.6800144906
 30
0.0
 11
0.0
 21
6.2132278684
 31
0.0
 40
0.8852081585
 41
-0.9473967841
 42
-0.0
  0
ELLIPSE
  5
2A5
100
AcDbEntity
  8
0
100
AcDbEllipse
 62
7
  6
CONTINUOUS
 10
250.343838543
 20
198.0570864152
 30
0.0
 11
0.0
 21
-20.1965514504
 31
0.0
 40
0.9902680687
 41
3.0840609215
 42
3.1991243857
  0
ELLIPSE
  5
2A6
100
AcDbEntity
  8
0
100
AcDbEllipse
 62
7
  6
CONTINUOUS
 10
249.593838543
 20
115.6800144906
 30
0.0
 11
0.0
 21
6.2132278684
 31
0.0
 40
0.8852081585
 41
0.0
 42
0.9473967841
  0
ELLIPSE
  5
2A7
100
AcDbEntity
  8
0
100
AcDbEllipse
 62
7
  6
CONTINUOUS
 10
250.343838543
 20
192.8526846895
 30
0.0
 11
0.0
 21
25.9131113353
 31
0.0
 40
0.7718100594
 41
-0.849517332
 42
0.849517332
  0
ENDSEC
  0
SECTION
  2
OBJECTS
  0
DICTIONARY
  5
C
100
AcDbDictionary
280
0
281
1
  3
ACAD_GROUP
350
D
  3
ACAD_MLINESTYLE
350
17
  3
ACAD_LAYOUT
350
1A
  3
ACAD_PLOTSETTINGS
350
19
  3
ACAD_PLOTSTYLENAME
350
E
  0
DICTIONARY
  5
D
102
{ACAD_REACTORS
330
C
102
}
100
AcDbDictionary
280
0
281
1
  0
ACDBDICTIONARYWDFLT
  5
E
102
{ACAD_REACTORS
330
C
102
}
100
AcDbDictionary
281
1
  3
Normal
350
F
100
AcDbDictionaryWithDefault
340
F
  0
DICTIONARY
  5
17
102
{ACAD_REACTORS
330
C
102
}
100
AcDbDictionary
280
0
281
1
  3
Standard
350
18
  0
DICTIONARY
  5
19
102
{ACAD_REACTORS
330
C
102
}
100
AcDbDictionary
281
1
  0
DICTIONARY
  5
1A
102
{ACAD_REACTORS
330
C
102
}
100
AcDbDictionary
281
1
  3
Model
350
2A8
  3
Layout1
350
2A9
  0
ACDBPLACEHOLDER
  5
F
102
{ACAD_REACTORS
330
E
102
}
  0
MLINESTYLE
  5
18
102
{ACAD_REACTORS
330
17
102
}
100
AcDbMlineStyle
  2
STANDARD
 70
0
  3

 62
256
 51
90.0
 52
90.0
 71
2
 49
0.5
 62
256
  6
BYLAYER
 49
-0.5
 62
256
  6
BYLAYER
  0
LAYOUT
  5
2A8
102
{ACAD_REACTORS
330
1A
102
}
100
AcDbPlotSettings
  1

  2
none_device
  4
ISO_A3_(420.00_x_297.00_MM)
  6

 40
0.0
 41
0.0
 42
0.0
 43
0.0
 44
420.0
 45
297.0
 46
0.0
 47
0.0
 48
0.0
 49
0.0
140
0.0
141
0.0
142
1.0
143
1.0
 70
1024
 72
1
 73
0
 74
0
  7

 75
0
147
1.0
148
0.0
149
0.0
100
AcDbLayout
  1
Model
 70
0
 71
0
 10
0.0
 20
0.0
 11
420.0
 21
297.0
 12
0.0
 22
0.0
 32
0.0
 14
0.0
 24
0.0
 34
0.0
 15
0.0
 25
0.0
 35
0.0
146
0.0
 13
0.0
 23
0.0
 33
0.0
 16
1.0
 26
0.0
 36
0.0
 17
0.0
 27
1.0
 37
0.0
 76
0
330
208
345
0
346
0
  0
LAYOUT
  5
2A9
102
{ACAD_REACTORS
330
1A
102
}
100
AcDbPlotSettings
  1

  2
none_device
  4
ISO_A3_(420.00_x_297.00_MM)
  6

 40
0.0
 41
0.0
 42
0.0
 43
0.0
 44
420.0
 45
297.0
 46
0.0
 47
0.0
 48
0.0
 49
0.0
140
0.0
141
0.0
142
1.0
143
1.0
 70
0
 72
1
 73
0
 74
0
  7

 75
0
147
1.0
148
0.0
149
0.0
100
AcDbLayout
  1
Layout1
 70
0
 71
1
 10
0.0
 20
0.0
 11
420.0
 21
297.0
 12
0.0
 22
0.0
 32
0.0
 14
0.0
 24
0.0
 34
0.0
 15
0.0
 25
0.0
 35
0.0
146
0.0
 13
0.0
 23
0.0
 33
0.0
 16
1.0
 26
0.0
 36
0.0
 17
0.0
 27
1.0
 37
0.0
 76
0
330
209
345
0
346
0
  0
ENDSEC
  0
EOF
