999
DXF file: IMVK-16_7900986_M34233-P-1.dxf
999
Pro/ENGINEER 2010140 by Parametric Technology Corporation
  0
SECTION
  2
HEADER
  9
$ACADVER
  1
AC1015
  9
$DWGCODEPAGE
  3
ANSI_1252
  9
$EXTMAX
 10
420.0
 20
297.0
 30
0.0
  9
$EXTMIN
 10
0.0
 20
0.0
 30
0.0
  9
$LIMMIN
 10
0.0
 20
0.0
  9
$LIMMAX
 10
420.0
 20
297.0
  9
$VIEWCTR
 10
210.0
 20
148.5
  9
$VIEWSIZE
 40
297.0
  9
$CLAYER
  8
0
  9
$LTSCALE
 40
23.1
  9
$CELTYPE
  6
BYLAYER
  9
$DIMSCALE
 40
1.0
  9
$DIMASZ
 40
3.5
  9
$DIMEXO
 40
2.625
  9
$DIMDLI
 40
15.96
  9
$DIMEXE
 40
7.56
  9
$DIMCEN
 40
3.78
  9
$DIMLFAC
 40
1.0
  9
$DIMBLK
  1
_FILLED
  9
$DIMTXT
 40
3.5
  9
$DIMTOL
 70
1
  9
$DIMLIM
 70
0
  9
$DIMTFAC
 40
1.0
  9
$DIMTP
 40
0.005
  9
$DIMTM
 40
0.005
  9
$PDMODE
 70
3
  9
$PDSIZE
 40
0.3125
  9
$HANDSEED
  5
2B9
  9
$TILEMODE
 70
1
  9
$MEASUREMENT
 70
1
  9
$INSUNITS
 70
4
  0
ENDSEC
  0
SECTION
  2
CLASSES
  0
CLASS
  1
ACDBDICTIONARYWDFLT
  2
AcDbDictionaryWithDefault
  3
AutoCAD 2000
 90
0
280
0
281
0
  0
CLASS
  1
ACDBPLACEHOLDER
  2
AcDbPlaceHolder
  3
AutoCAD 2000
 90
0
280
0
281
0
  0
CLASS
  1
LAYOUT
  2
AcDbLayout
  3
AutoCAD 2000
 90
0
280
0
281
0
  0
ENDSEC
  0
SECTION
  2
TABLES
  0
TABLE
  2
VPORT
  5
8
100
AcDbSymbolTable
 70
2
  0
VPORT
  5
1F4
100
AcDbSymbolTableRecord
100
AcDbViewportTableRecord
  2
*ACTIVE
 70
0
 10
0.0
 20
0.0
 11
1.0
 21
1.0
 12
210.0
 22
148.5
 13
0.0
 23
0.0
 14
1.0
 24
1.0
 15
0.0
 25
0.0
 16
0.0
 26
0.0
 36
1.0
 17
0.0
 27
0.0
 37
0.0
 40
297.0
 41
1.4141414141
 42
50.0
 43
0.0
 44
0.0
 50
0.0
 51
0.0
 71
0
 72
100
 73
1
 74
1
 75
0
 76
0
 77
0
 78
0
  0
ENDTAB
  0
TABLE
  2
LTYPE
  5
5
100
AcDbSymbolTable
 70
6
  0
LTYPE
  5
14
100
AcDbSymbolTableRecord
100
AcDbLinetypeTableRecord
  2
BYBLOCK
 70
0
  3

 72
65
 73
0
 40
0.0
  0
LTYPE
  5
15
100
AcDbSymbolTableRecord
100
AcDbLinetypeTableRecord
  2
BYLAYER
 70
0
  3

 72
65
 73
0
 40
0.0
  0
LTYPE
  5
16
100
AcDbSymbolTableRecord
100
AcDbLinetypeTableRecord
  2
CONTINUOUS
 70
64
  3
Solid line
 72
65
 73
0
 40
0.0
  0
LTYPE
  5
1F5
100
AcDbSymbolTableRecord
100
AcDbLinetypeTableRecord
  2
CENTER
 70
64
  3
____ _ ____ _ ____ _ ____ _ ____ _ ____ _ ____
 72
65
 73
4
 40
0.6
 49
0.375
 74
0
 49
-0.075
 74
0
 49
0.075
 74
0
 49
-0.075
 74
0
  0
LTYPE
  5
1F6
100
AcDbSymbolTableRecord
100
AcDbLinetypeTableRecord
  2
HIDDEN
 70
64
  3
- - - - - - - - - - - - - - - - - - - -
 72
65
 73
2
 40
0.2
 49
0.1
 74
0
 49
-0.1
 74
0
  0
LTYPE
  5
1F7
100
AcDbSymbolTableRecord
100
AcDbLinetypeTableRecord
  2
PHANTOM
 70
64
  3
_____ _ _ _____ _ _ _____ _ _ _____
 72
65
 73
6
 40
0.8
 49
0.45
 74
0
 49
-0.05
 74
0
 49
0.1
 74
0
 49
-0.05
 74
0
 49
0.1
 74
0
 49
-0.05
 74
0
  0
LTYPE
  5
1F8
100
AcDbSymbolTableRecord
100
AcDbLinetypeTableRecord
  2
DOT
 70
64
  3
. . . . . . . . . . . . . . . . . . . .
 72
65
 73
2
 40
0.2
 49
0.1
 74
0
 49
-0.1
 74
0
  0
LTYPE
  5
1F9
100
AcDbSymbolTableRecord
100
AcDbLinetypeTableRecord
  2
DASHED
 70
64
  3
- - - - - - - - - - - - - - - - - - - -
 72
65
 73
2
 40
0.2
 49
0.1
 74
0
 49
-0.1
 74
0
  0
ENDTAB
  0
TABLE
  2
LAYER
  5
2
100
AcDbSymbolTable
 70
36
  0
LAYER
  5
10
100
AcDbSymbolTableRecord
100
AcDbLayerTableRecord
  2
0
 70
0
 62
7
  6
CONTINUOUS
370
-3
390
F
  0
LAYER
  5
1FA
100
AcDbSymbolTableRecord
100
AcDbLayerTableRecord
  2
DEFAULT_1
 70
0
 62
7
  6
CENTER
370
-3
390
F
  0
LAYER
  5
1FB
100
AcDbSymbolTableRecord
100
AcDbLayerTableRecord
  2
DEFAULT_2
 70
0
 62
8
  6
HIDDEN
370
-3
390
F
  0
LAYER
  5
1FC
100
AcDbSymbolTableRecord
100
AcDbLayerTableRecord
  2
DEFAULT_3
 70
0
 62
7
  6
PHANTOM
370
-3
390
F
  0
LAYER
  5
1FD
100
AcDbSymbolTableRecord
100
AcDbLayerTableRecord
  2
BEZUGSACHSEN
 70
0
 62
7
  6
CONTINUOUS
370
-3
390
F
  0
LAYER
  5
1FE
100
AcDbSymbolTableRecord
100
AcDbLayerTableRecord
  2
BEZUGSEBENEN
 70
0
 62
7
  6
CONTINUOUS
370
-3
390
F
  0
LAYER
  5
1FF
100
AcDbSymbolTableRecord
100
AcDbLayerTableRecord
  2
FASEN
 70
0
 62
7
  6
CONTINUOUS
370
-3
390
F
  0
LAYER
  5
200
100
AcDbSymbolTableRecord
100
AcDbLayerTableRecord
  2
HILFEN
 70
0
 62
7
  6
CONTINUOUS
370
-3
390
F
  0
LAYER
  5
201
100
AcDbSymbolTableRecord
100
AcDbLayerTableRecord
  2
KONSTRUKTIONSELEMENTE
 70
0
 62
7
  6
CONTINUOUS
370
-3
390
F
  0
LAYER
  5
202
100
AcDbSymbolTableRecord
100
AcDbLayerTableRecord
  2
PLATZIERUNG
 70
0
 62
7
  6
CONTINUOUS
370
-3
390
F
  0
LAYER
  5
203
100
AcDbSymbolTableRecord
100
AcDbLayerTableRecord
  2
RUNDUNGEN
 70
0
 62
7
  6
CONTINUOUS
370
-3
390
F
  0
LAYER
  5
204
100
AcDbSymbolTableRecord
100
AcDbLayerTableRecord
  2
TEIL_STARTBEZUEGE
 70
0
 62
7
  6
CONTINUOUS
370
-3
390
F
  0
LAYER
  5
205
100
AcDbSymbolTableRecord
100
AcDbLayerTableRecord
  2
ZEICHNUNGSBEMASSUNGEN
 70
0
 62
7
  6
CONTINUOUS
370
-3
390
F
  0
ENDTAB
  0
TABLE
  2
STYLE
  5
3
100
AcDbSymbolTable
 70
1
  0
STYLE
  5
11
100
AcDbSymbolTableRecord
100
AcDbTextStyleTableRecord
  2
STANDARD
 70
0
 40
0.0
 41
0.7
 50
0.0
 71
0
 42
0.2
  3
txt
  4

  0
STYLE
  5
206
100
AcDbSymbolTableRecord
100
AcDbTextStyleTableRecord
  2
TEXTSTYLE_1
 70
0
 40
0.0
 41
0.8
 50
0.0
 71
0
 42
0.2
  3
gdt
  4

  0
ENDTAB
  0
TABLE
  2
VIEW
  5
6
100
AcDbSymbolTable
 70
0
  0
ENDTAB
  0
TABLE
  2
UCS
  5
7
100
AcDbSymbolTable
 70
0
  0
ENDTAB
  0
TABLE
  2
APPID
  5
9
100
AcDbSymbolTable
 70
1
  0
APPID
  5
207
100
AcDbSymbolTableRecord
100
AcDbRegAppTableRecord
  2
ACAD
 70
0
  0
ENDTAB
  0
TABLE
  2
BLOCK_RECORD
  5
1
100
AcDbSymbolTable
 70
0
  0
BLOCK_RECORD
  5
208
100
AcDbSymbolTableRecord
100
AcDbBlockTableRecord
  2
*Model_Space
  0
BLOCK_RECORD
  5
209
100
AcDbSymbolTableRecord
100
AcDbBlockTableRecord
  2
*Paper_Space
  0
ENDTAB
  0
TABLE
  2
DIMSTYLE
  5
A
100
AcDbSymbolTable
 70
1
100
AcDbDimStyleTable
 71
0
  0
DIMSTYLE
105
20A
100
AcDbSymbolTableRecord
100
AcDbDimStyleTableRecord
  2
STANDARD
 70
0
  3

  4

 40
1.0
 41
3.5
 42
0.0625
 43
0.38
 44
0.18
 45
0.0
 46
0.0
 47
0.005
 48
0.005
140
3.5
141
0.09
142
0.0
143
25.4
144
1.0
145
0.0
146
1.0
147
0.09
 71
1.0
 72
0.0
 73
0
 74
0
 75
0
 76
0
 77
1
 78
8
170
0
171
2
172
0
173
0
174
0
175
0
176
0
177
0
178
5
270
2
271
3
272
3
273
2
274
2
275
0
280
0
281
0
282
0
283
1
284
8
285
0
286
0
287
3
288
0
340
11
  0
ENDTAB
  0
ENDSEC
  0
SECTION
  2
BLOCKS
  0
BLOCK
  5
20
100
AcDbEntity
  8
0
100
AcDbBlockBegin
  2
*Model_Space
 70
0
 10
0.0
 20
0.0
 30
0.0
  3
*Model_Space
  1

  0
ENDBLK
  5
21
100
AcDbEntity
  8
0
100
AcDbBlockEnd
  0
BLOCK
  5
1C
100
AcDbEntity
  8
0
100
AcDbBlockBegin
  2
*Paper_Space
 70
0
 10
0.0
 20
0.0
 30
0.0
  3
*Paper_Space
  1

  0
ENDBLK
  5
1D
100
AcDbEntity
  8
0
100
AcDbBlockEnd
  0
ENDSEC
  0
SECTION
  2
ENTITIES
  0
MTEXT
  5
20B
100
AcDbEntity
  8
0
100
AcDbMText
 62
5
  6
CONTINUOUS
  7
STANDARD
 71
1
 72
1
 10
165.209490402
 20
177.5409643111
 30
0.0
 11
-0.0
 21
-1.0
 31
0.0
 44
0.9
  1
RUD\PIMVK 16
 40
8.0
 41
42.0952380952
  0
MTEXT
  5
20C
100
AcDbEntity
  8
0
100
AcDbMText
 62
5
  6
CONTINUOUS
  7
STANDARD
 71
1
 72
1
 10
249.6863732066
 20
206.5297332308
 30
0.0
 11
0.0
 21
1.0
 31
0.0
 44
0.9
  1
RUD
 40
8.0
 41
21.3333333333
  0
MTEXT
  5
20D
100
AcDbEntity
  8
0
100
AcDbMText
 62
5
  6
CONTINUOUS
  7
STANDARD
 71
1
 72
1
 10
327.4956981266
 20
186.9344380256
 30
0.0
 11
0.0
 21
1.0
 31
0.0
 44
0.9
  1
IMVK 16
 40
8.0
 41
43.619047619
  0
LINE
  5
20E
100
AcDbEntity
  8
0
100
AcDbLine
 62
7
  6
CONTINUOUS
 10
0.0
 20
0.0
 11
0.0
 21
297.0
  0
LINE
  5
20F
100
AcDbEntity
  8
0
100
AcDbLine
 62
7
  6
CONTINUOUS
 10
0.0
 20
0.0
 11
420.0
 21
0.0
  0
LINE
  5
210
100
AcDbEntity
  8
0
100
AcDbLine
 62
7
  6
CONTINUOUS
 10
0.0
 20
297.0
 11
420.0
 21
297.0
  0
LINE
  5
211
100
AcDbEntity
  8
0
100
AcDbLine
 62
7
  6
CONTINUOUS
 10
420.0
 20
0.0
 11
420.0
 21
297.0
  0
LINE
  5
212
100
AcDbEntity
  8
0
100
AcDbLine
 62
7
  6
CONTINUOUS
 10
100.0941780426
 20
91.1034172854
 11
113.2731288831
 21
54.8945474391
  0
LINE
  5
213
100
AcDbEntity
  8
KONSTRUKTIONSELEMENTE
100
AcDbLine
 62
7
  6
CONTINUOUS
 10
113.2731288831
 20
54.8945474391
 11
100.0941780426
 21
91.1034172854
  0
LINE
  5
214
100
AcDbEntity
  8
BEZUGSACHSEN
100
AcDbLine
 62
7
  6
CONTINUOUS
 10
177.1578661655
 20
115.1557986496
 11
178.0109074651
 21
115.1557986496
  0
LINE
  5
215
100
AcDbEntity
  8
DEFAULT_2
100
AcDbLine
 62
8
  6
HIDDEN
 10
101.3222435887
 20
250.9837037221
 11
101.3222435887
 21
230.2896088832
  0
LINE
  5
216
100
AcDbEntity
  8
KONSTRUKTIONSELEMENTE
100
AcDbLine
 62
8
  6
HIDDEN
 10
101.3222435887
 20
230.2896088832
 11
101.3222435887
 21
250.9837037221
  0
LINE
  5
217
100
AcDbEntity
  8
KONSTRUKTIONSELEMENTE
100
AcDbLine
 62
8
  6
HIDDEN
 10
122.8564698697
 20
65.9892307974
 11
107.7443857541
 21
107.509340666
  0
LINE
  5
218
100
AcDbEntity
  8
DEFAULT_2
100
AcDbLine
 62
8
  6
HIDDEN
 10
122.8564698697
 20
65.9892307974
 11
107.7443857541
 21
107.509340666
  0
LINE
  5
219
100
AcDbEntity
  8
BEZUGSACHSEN
100
AcDbLine
 62
7
  6
CONTINUOUS
 10
174.4931537505
 20
125.1557986496
 11
175.1473798202
 21
125.1557986496
  0
LINE
  5
21A
100
AcDbEntity
  8
BEZUGSACHSEN
100
AcDbLine
 62
7
  6
CONTINUOUS
 10
173.9226151284
 20
128.1557986496
 11
174.5718161603
 21
128.1557986496
  0
LINE
  5
21B
100
AcDbEntity
  8
BEZUGSACHSEN
100
AcDbLine
 62
7
  6
CONTINUOUS
 10
172.9024575478
 20
138.1557986496
 11
173.5428641216
 21
138.1557986496
  0
LINE
  5
21C
100
AcDbEntity
  8
KONSTRUKTIONSELEMENTE
100
AcDbLine
 62
8
  6
HIDDEN
 10
143.9056516011
 20
73.650297856
 11
127.029029346
 21
120.0184364186
  0
LINE
  5
21D
100
AcDbEntity
  8
DEFAULT_2
100
AcDbLine
 62
8
  6
HIDDEN
 10
143.9055845753
 20
73.6504820079
 11
127.029029346
 21
120.0184364186
  0
LINE
  5
21E
100
AcDbEntity
  8
KONSTRUKTIONSELEMENTE
100
AcDbLine
 62
7
  6
CONTINUOUS
 10
134.3222435887
 20
145.1904292065
 11
134.3222435887
 21
187.5053413925
  0
LINE
  5
21F
100
AcDbEntity
  8
KONSTRUKTIONSELEMENTE
100
AcDbLine
 62
7
  6
CONTINUOUS
 10
120.996472309
 20
211.7950150319
 11
77.0238467219
 21
239.8086670831
  0
LINE
  5
220
100
AcDbEntity
  8
0
100
AcDbLine
 62
7
  6
CONTINUOUS
 10
89.3123763316
 20
231.9800103197
 11
77.0238467219
 21
239.8086670831
  0
LINE
  5
221
100
AcDbEntity
  8
0
100
AcDbLine
 62
7
  6
CONTINUOUS
 10
172.6306153822
 20
84.0682709356
 11
166.8264299004
 21
74.0272720289
  0
LINE
  5
222
100
AcDbEntity
  8
RUNDUNGEN
100
AcDbLine
 62
7
  6
CONTINUOUS
 10
153.7153456682
 20
51.3456429089
 11
172.6304063917
 21
84.0679093908
  0
LINE
  5
223
100
AcDbEntity
  8
KONSTRUKTIONSELEMENTE
100
AcDbLine
 62
8
  6
HIDDEN
 10
89.3123763316
 20
231.9800103197
 11
101.3222822498
 21
230.2921281173
  0
LINE
  5
224
100
AcDbEntity
  8
KONSTRUKTIONSELEMENTE
100
AcDbLine
 62
7
  6
CONTINUOUS
 10
82.7807660262
 20
254.4217195937
 11
122.719684308
 21
247.0161266746
  0
LWPOLYLINE
  5
225
100
AcDbEntity
  8
0
100
AcDbPolyline
 62
7
  6
CONTINUOUS
 90
7
 70
0
 10
253.5488171556
 20
246.1239562579
 10
252.3935546144
 20
245.3132678968
 10
251.1503908468
 20
244.2613674161
 10
249.9332284318
 20
243.035136001
 10
248.7373420198
 20
241.6238241778
 10
247.5582409686
 20
240.0138174211
 10
246.4629103696
 20
238.3067888027
  0
LINE
  5
226
100
AcDbEntity
  8
0
100
AcDbLine
 62
7
  6
CONTINUOUS
 10
253.5491674029
 20
246.1241797273
 11
261.1689863175
 21
250.9689293768
  0
LWPOLYLINE
  5
227
100
AcDbEntity
  8
KONSTRUKTIONSELEMENTE
100
AcDbPolyline
 62
7
  6
CONTINUOUS
 90
13
 70
0
 10
319.9657442605
 20
40.1558032169
 10
320.3794976793
 20
40.169191584
 10
320.9697070376
 20
40.2350391104
 10
321.5512716375
 20
40.3553110453
 10
322.1191836632
 20
40.5289716333
 10
322.6685529089
 20
40.7545253094
 10
323.1946488961
 20
41.0300295836
 10
323.6929416042
 20
41.3531117592
 10
324.1591406606
 20
41.7209895019
 10
324.589232238
 20
42.1304948652
 10
324.979513002
 20
42.5781009169
 10
325.3266226308
 20
43.059952447
 10
325.6275734714
 20
43.5719004179
  0
LINE
  5
228
100
AcDbEntity
  8
0
100
AcDbLine
 62
7
  6
CONTINUOUS
 10
264.8708671013
 20
40.1557986496
 11
273.5574663329
 21
40.1557986496
  0
LINE
  5
229
100
AcDbEntity
  8
KONSTRUKTIONSELEMENTE
100
AcDbLine
 62
7
  6
CONTINUOUS
 10
311.2843910371
 20
40.1557986496
 11
319.9709902687
 21
40.1557986496
  0
LINE
  5
22A
100
AcDbEntity
  8
0
100
AcDbLine
 62
7
  6
CONTINUOUS
 10
246.4629163092
 20
238.3067852174
 11
246.4622624561
 21
238.3057014438
  0
LWPOLYLINE
  5
22B
100
AcDbEntity
  8
0
100
AcDbPolyline
 62
7
  6
CONTINUOUS
 90
9
 70
0
 10
246.4622624561
 20
238.3057014438
 10
245.8980905072
 20
237.2954316131
 10
245.308352215
 20
236.0330629986
 10
244.7961589943
 20
234.672233653
 10
244.370804621
 20
233.2175969272
 10
244.0379626968
 20
231.6723052081
 10
243.8009680089
 20
230.0358333461
 10
243.6619549254
 20
228.3090182832
 10
243.6209319144
 20
226.6533760995
  0
LWPOLYLINE
  5
22C
100
AcDbEntity
  8
0
100
AcDbPolyline
 62
7
  6
CONTINUOUS
 90
13
 70
0
 10
259.2142932705
 20
43.5718826351
 10
259.5145167816
 20
43.0610536814
 10
259.8606982483
 20
42.5801766828
 10
260.2498713907
 20
42.1333737228
 10
260.6787004569
 20
41.7244758593
 10
261.1435095477
 20
41.3569890174
 10
261.6403147503
 20
41.0340636032
 10
262.1648576797
 20
40.7584681448
 10
262.7126419373
 20
40.5325654926
 10
263.2789718371
 20
40.3582924271
 10
263.8589926551
 20
40.2371430637
 10
264.4477322549
 20
40.1701560386
 10
264.8761131095
 20
40.1558032169
  0
LINE
  5
22D
100
AcDbEntity
  8
0
100
AcDbLine
 62
7
  6
CONTINUOUS
 10
292.820928685
 20
73.0473680563
 11
292.020928685
 21
73.0473680563
  0
LINE
  5
22E
100
AcDbEntity
  8
BEZUGSACHSEN
100
AcDbLine
 62
7
  6
CONTINUOUS
 10
301.620928685
 20
90.6557986496
 11
283.220928685
 21
90.6557986496
  0
LINE
  5
22F
100
AcDbEntity
  8
0
100
AcDbLine
 62
7
  6
CONTINUOUS
 10
243.6209286942
 20
226.6533760996
 11
243.620928685
 21
183.17487052
  0
LINE
  5
230
100
AcDbEntity
  8
0
100
AcDbLine
 62
7
  6
CONTINUOUS
 10
283.220928685
 20
107.509340666
 11
273.220928685
 21
107.509340666
  0
LINE
  5
231
100
AcDbEntity
  8
KONSTRUKTIONSELEMENTE
100
AcDbLine
 62
7
  6
CONTINUOUS
 10
301.620928685
 20
107.509340666
 11
311.620928685
 21
107.509340666
  0
LINE
  5
232
100
AcDbEntity
  8
BEZUGSACHSEN
100
AcDbLine
 62
7
  6
CONTINUOUS
 10
299.2460033696
 20
108.6557986496
 11
285.5958545679
 21
108.6557986496
  0
LINE
  5
233
100
AcDbEntity
  8
0
100
AcDbLine
 62
7
  6
CONTINUOUS
 10
250.0394369797
 20
135.267152955
 11
243.9323504853
 21
178.7213312892
  0
LINE
  5
234
100
AcDbEntity
  8
0
100
AcDbLine
 62
7
  6
CONTINUOUS
 10
260.9600096235
 20
180.1557986496
 11
260.9600096235
 21
167.3557986496
  0
LINE
  5
235
100
AcDbEntity
  8
DEFAULT_2
100
AcDbLine
 62
8
  6
HIDDEN
 10
262.020928685
 20
85.6556537779
 11
262.020928685
 21
112.7763356887
  0
LINE
  5
236
100
AcDbEntity
  8
0
100
AcDbLine
 62
7
  6
CONTINUOUS
 10
264.020928685
 20
172.5557986496
 11
264.020928685
 21
171.7557986496
  0
LINE
  5
237
100
AcDbEntity
  8
0
100
AcDbLine
 62
7
  6
CONTINUOUS
 10
271.7141838725
 20
120.8454342552
 11
269.5255216401
 21
120.8454342552
  0
LINE
  5
238
100
AcDbEntity
  8
KONSTRUKTIONSELEMENTE
100
AcDbLine
 62
7
  6
CONTINUOUS
 10
313.1276734974
 20
120.8454342552
 11
315.3163357299
 21
120.8454342552
  0
LINE
  5
239
100
AcDbEntity
  8
0
100
AcDbLine
 62
7
  6
CONTINUOUS
 10
273.5574663329
 20
91.1034172854
 11
273.5574663329
 21
40.1557986496
  0
LINE
  5
23A
100
AcDbEntity
  8
0
100
AcDbLine
 62
7
  6
CONTINUOUS
 10
283.220928685
 20
227.6910773695
 11
283.220928685
 21
186.1557986496
  0
LINE
  5
23B
100
AcDbEntity
  8
0
100
AcDbLine
 62
7
  6
CONTINUOUS
 10
283.220928685
 20
158.1557986496
 11
283.220928685
 21
152.1557986496
  0
LINE
  5
23C
100
AcDbEntity
  8
0
100
AcDbLine
 62
7
  6
CONTINUOUS
 10
283.220928685
 20
44.9558968457
 11
283.220928685
 21
122.449378994
  0
LINE
  5
23D
100
AcDbEntity
  8
0
100
AcDbLine
 62
7
  6
CONTINUOUS
 10
292.020928685
 20
143.3557986496
 11
292.820928685
 21
143.3557986496
  0
LINE
  5
23E
100
AcDbEntity
  8
KONSTRUKTIONSELEMENTE
100
AcDbLine
 62
7
  6
CONTINUOUS
 10
301.620928685
 20
227.6910773695
 11
301.620928685
 21
186.1557986496
  0
LINE
  5
23F
100
AcDbEntity
  8
KONSTRUKTIONSELEMENTE
100
AcDbLine
 62
7
  6
CONTINUOUS
 10
301.620928685
 20
158.1557986496
 11
301.620928685
 21
152.1557986496
  0
LINE
  5
240
100
AcDbEntity
  8
KONSTRUKTIONSELEMENTE
100
AcDbLine
 62
7
  6
CONTINUOUS
 10
301.620928685
 20
44.9558968457
 11
301.620928685
 21
122.449378994
  0
LINE
  5
241
100
AcDbEntity
  8
0
100
AcDbLine
 62
7
  6
CONTINUOUS
 10
278.420928685
 20
162.9557986496
 11
272.820928685
 21
162.9557986496
  0
LINE
  5
242
100
AcDbEntity
  8
KONSTRUKTIONSELEMENTE
100
AcDbLine
 62
7
  6
CONTINUOUS
 10
306.420928685
 20
162.9557986496
 11
312.020928685
 21
162.9557986496
  0
LINE
  5
243
100
AcDbEntity
  8
KONSTRUKTIONSELEMENTE
100
AcDbLine
 62
7
  6
CONTINUOUS
 10
311.2843910371
 20
91.1034172854
 11
311.2843910371
 21
40.1557986496
  0
LINE
  5
244
100
AcDbEntity
  8
KONSTRUKTIONSELEMENTE
100
AcDbLine
 62
7
  6
CONTINUOUS
 10
320.820928685
 20
172.5557986496
 11
320.820928685
 21
171.7557986496
  0
LINE
  5
245
100
AcDbEntity
  8
KONSTRUKTIONSELEMENTE
100
AcDbLine
 62
8
  6
HIDDEN
 10
322.820928685
 20
112.7763356887
 11
322.820928685
 21
85.6556537779
  0
LINE
  5
246
100
AcDbEntity
  8
KONSTRUKTIONSELEMENTE
100
AcDbLine
 62
7
  6
CONTINUOUS
 10
323.8818477465
 20
180.1557986496
 11
323.8818477465
 21
167.3557986496
  0
LINE
  5
247
100
AcDbEntity
  8
KONSTRUKTIONSELEMENTE
100
AcDbLine
 62
7
  6
CONTINUOUS
 10
312.020928685
 20
181.3557986496
 11
306.420928685
 21
181.3557986496
  0
LINE
  5
248
100
AcDbEntity
  8
0
100
AcDbLine
 62
7
  6
CONTINUOUS
 10
272.820928685
 20
181.3557986496
 11
278.420928685
 21
181.3557986496
  0
LINE
  5
249
100
AcDbEntity
  8
RUNDUNGEN
100
AcDbLine
 62
7
  6
CONTINUOUS
 10
336.0718650935
 20
144.2997213603
 11
336.0188905319
 21
143.9227877687
  0
LINE
  5
24A
100
AcDbEntity
  8
KONSTRUKTIONSELEMENTE
100
AcDbLine
 62
7
  6
CONTINUOUS
 10
334.8024203903
 20
135.267152955
 11
340.9095068847
 21
178.7213312892
  0
LINE
  5
24B
100
AcDbEntity
  8
BEZUGSACHSEN
100
AcDbLine
 62
7
  6
CONTINUOUS
 10
301.620928685
 20
188.3557986496
 11
283.220928685
 21
188.3557986496
  0
LWPOLYLINE
  5
24C
100
AcDbEntity
  8
KONSTRUKTIONSELEMENTE
100
AcDbPolyline
 62
7
  6
CONTINUOUS
 90
9
 70
0
 10
341.2209254559
 20
226.6533714906
 10
341.1799844164
 20
228.3074006275
 10
341.0411752071
 20
230.0332772939
 10
340.804400535
 20
231.669484787
 10
340.4717176291
 20
233.2149698818
 10
340.0464032618
 20
234.670120925
 10
339.534104585
 20
236.0316396716
 10
338.9441433107
 20
237.2947014471
 10
338.3795947857
 20
238.3057016564
  0
LINE
  5
24D
100
AcDbEntity
  8
KONSTRUKTIONSELEMENTE
100
AcDbLine
 62
7
  6
CONTINUOUS
 10
341.220928685
 20
226.6531175139
 11
341.220928685
 21
183.17487052
  0
LINE
  5
24E
100
AcDbEntity
  8
BEZUGSACHSEN
100
AcDbLine
 62
7
  6
CONTINUOUS
 10
301.620928685
 20
198.3557986496
 11
283.220928685
 21
198.3557986496
  0
LINE
  5
24F
100
AcDbEntity
  8
KONSTRUKTIONSELEMENTE
100
AcDbLine
 62
7
  6
CONTINUOUS
 10
338.3789410607
 20
238.3067852174
 11
338.3795947857
 21
238.3057016564
  0
LWPOLYLINE
  5
250
100
AcDbEntity
  8
KONSTRUKTIONSELEMENTE
100
AcDbPolyline
 62
7
  6
CONTINUOUS
 90
7
 70
0
 10
338.3789470004
 20
238.3067888027
 10
337.2836164014
 20
240.0138174211
 10
336.1045153501
 20
241.6238241778
 10
334.9086289382
 20
243.035136001
 10
333.6914665232
 20
244.2613674161
 10
332.4483027556
 20
245.3132678968
 10
331.2930402144
 20
246.1239562579
  0
LINE
  5
251
100
AcDbEntity
  8
0
100
AcDbLine
 62
7
  6
CONTINUOUS
 10
276.7331518128
 20
254.5113667331
 11
276.7330192841
 21
254.5113568869
  0
LWPOLYLINE
  5
252
100
AcDbEntity
  8
0
100
AcDbPolyline
 62
7
  6
CONTINUOUS
 90
3
 70
0
 10
277.9636903121
 20
254.5558020748
 10
277.6608553858
 20
254.5532353149
 10
276.7331513833
 20
254.5113724781
  0
LINE
  5
253
100
AcDbEntity
  8
KONSTRUKTIONSELEMENTE
100
AcDbLine
 62
7
  6
CONTINUOUS
 10
277.9643583532
 20
254.5557986496
 11
306.8774990168
 21
254.5557986496
  0
LINE
  5
254
100
AcDbEntity
  8
0
100
AcDbLine
 62
7
  6
CONTINUOUS
 10
277.963443018
 20
254.5557986488
 11
277.9632300441
 21
254.5557986445
  0
LWPOLYLINE
  5
255
100
AcDbEntity
  8
KONSTRUKTIONSELEMENTE
100
AcDbPolyline
 62
7
  6
CONTINUOUS
 90
3
 70
0
 10
308.1087059867
 20
254.5113724781
 10
307.1810019842
 20
254.5532353149
 10
306.8781670579
 20
254.5558020748
  0
LINE
  5
256
100
AcDbEntity
  8
KONSTRUKTIONSELEMENTE
100
AcDbLine
 62
7
  6
CONTINUOUS
 10
308.1087055572
 20
254.5113667331
 11
308.1088380859
 21
254.5113568869
  0
LINE
  5
257
100
AcDbEntity
  8
KONSTRUKTIONSELEMENTE
100
AcDbLine
 62
7
  6
CONTINUOUS
 10
323.6728710525
 20
250.9689293768
 11
331.2926899671
 21
246.1241797273
  0
ARC
  5
258
100
AcDbEntity
  8
RUNDUNGEN
100
AcDbCircle
 62
7
  6
CONTINUOUS
 10
135.9222435887
 20
105.287494302
 40
42.4
100
AcDbArc
 50
329.9694356878
 51
17.4802217829
  0
ARC
  5
259
100
AcDbEntity
  8
KONSTRUKTIONSELEMENTE
100
AcDbCircle
 62
7
  6
CONTINUOUS
 10
94.3222435887
 20
145.1904292065
 40
40.0
100
AcDbArc
 50
289.7015794915
 51
360.0
  0
ARC
  5
25A
100
AcDbEntity
  8
KONSTRUKTIONSELEMENTE
100
AcDbCircle
 62
7
  6
CONTINUOUS
 10
134.3222435887
 20
62.5557986496
 40
22.4
100
AcDbArc
 50
200.0
 51
329.97
  0
ARC
  5
25B
100
AcDbEntity
  8
0
100
AcDbCircle
 62
7
  6
CONTINUOUS
 10
134.3222435887
 20
62.5557986496
 40
22.4
100
AcDbArc
 50
316.606711068
 51
320.9885365997
  0
ARC
  5
25C
100
AcDbEntity
  8
0
100
AcDbCircle
 62
7
  6
CONTINUOUS
 10
134.3222435887
 20
62.5557986496
 40
22.4
100
AcDbArc
 50
321.0649392491
 51
329.97
  0
ARC
  5
25D
100
AcDbEntity
  8
0
100
AcDbCircle
 62
7
  6
CONTINUOUS
 10
134.3222435887
 20
62.5557986496
 40
22.4
100
AcDbArc
 50
200.0
 51
312.3148273405
  0
ARC
  5
25E
100
AcDbEntity
  8
KONSTRUKTIONSELEMENTE
100
AcDbCircle
 62
7
  6
CONTINUOUS
 10
112.1222435887
 20
95.4812751199
 40
12.8
100
AcDbArc
 50
109.7015794915
 51
200.0
  0
ARC
  5
25F
100
AcDbEntity
  8
0
100
AcDbCircle
 62
7
  6
CONTINUOUS
 10
112.1222435887
 20
95.4812751199
 40
12.8
100
AcDbArc
 50
148.6821874535
 51
200.0
  0
CIRCLE
  5
260
100
AcDbEntity
  8
RUNDUNGEN
100
AcDbCircle
 62
7
  6
CONTINUOUS
 10
150.3222435887
 20
99.6557986496
 40
9.0
  0
ARC
  5
261
100
AcDbEntity
  8
KONSTRUKTIONSELEMENTE
100
AcDbCircle
 62
7
  6
CONTINUOUS
 10
110.3222435887
 20
180.1557986496
 40
68.0
100
AcDbArc
 50
344.1605622604
 51
79.4953511078
  0
ARC
  5
262
100
AcDbEntity
  8
0
100
AcDbCircle
 62
7
  6
CONTINUOUS
 10
110.3222435887
 20
180.1557986496
 40
68.0
100
AcDbArc
 50
73.9670615171
 51
79.4953511078
  0
ARC
  5
263
100
AcDbEntity
  8
0
100
AcDbCircle
 62
7
  6
CONTINUOUS
 10
110.3222435887
 20
180.1557986496
 40
68.0
100
AcDbArc
 50
0.5651558465
 51
2.8093127885
  0
ARC
  5
264
100
AcDbEntity
  8
0
100
AcDbCircle
 62
7
  6
CONTINUOUS
 10
110.3222435887
 20
180.1557986496
 40
68.0
100
AcDbArc
 50
49.0101651676
 51
54.0693661991
  0
ARC
  5
265
100
AcDbEntity
  8
0
100
AcDbCircle
 62
7
  6
CONTINUOUS
 10
110.3222435887
 20
180.1557986496
 40
68.0
100
AcDbArc
 50
54.7184983003
 51
67.5378494403
  0
ARC
  5
266
100
AcDbEntity
  8
KONSTRUKTIONSELEMENTE
100
AcDbCircle
 62
7
  6
CONTINUOUS
 10
105.5222435887
 20
187.5053413925
 40
28.8
100
AcDbArc
 50
0.0
 51
57.5
  0
ARC
  5
267
100
AcDbEntity
  8
0
100
AcDbCircle
 62
7
  6
CONTINUOUS
 10
105.5222435887
 20
187.5053413925
 40
28.8
100
AcDbArc
 50
43.8429504985
 51
50.8587720654
  0
ARC
  5
268
100
AcDbEntity
  8
KONSTRUKTIONSELEMENTE
100
AcDbCircle
 62
7
  6
CONTINUOUS
 10
81.3222435887
 20
246.5557986496
 40
8.0
100
AcDbArc
 50
79.4953511078
 51
237.5
  0
ARC
  5
269
100
AcDbEntity
  8
0
100
AcDbCircle
 62
7
  6
CONTINUOUS
 10
81.3222435887
 20
246.5557986496
 40
8.0
100
AcDbArc
 50
79.4953511078
 51
169.4953511078
  0
CIRCLE
  5
26A
100
AcDbEntity
  8
BEZUGSACHSEN
100
AcDbCircle
 62
7
  6
CONTINUOUS
 10
163.1222435887
 20
193.3557986496
 40
5.0
  0
ARC
  5
26B
100
AcDbEntity
  8
RUNDUNGEN
100
AcDbCircle
 62
7
  6
CONTINUOUS
 10
248.8546140028
 20
140.8520793924
 40
76.0
100
AcDbArc
 50
164.1605622604
 51
197.4802217829
  0
ARC
  5
26C
100
AcDbEntity
  8
0
100
AcDbCircle
 62
7
  6
CONTINUOUS
 10
248.8546140028
 20
140.8520793924
 40
76.0
100
AcDbArc
 50
168.5569182292
 51
171.4464822203
  0
ARC
  5
26D
100
AcDbEntity
  8
0
100
AcDbCircle
 62
7
  6
CONTINUOUS
 10
248.8546140028
 20
140.8520793924
 40
76.0
100
AcDbArc
 50
178.1122062962
 51
178.482310377
  0
ARC
  5
26E
100
AcDbEntity
  8
0
100
AcDbCircle
 62
7
  6
CONTINUOUS
 10
248.8546140028
 20
140.8520793924
 40
76.0
100
AcDbArc
 50
180.8927586763
 51
182.0331821507
  0
ARC
  5
26F
100
AcDbEntity
  8
BEZUGSACHSEN
100
AcDbCircle
 62
7
  6
CONTINUOUS
 10
248.8546140028
 20
140.8520793924
 40
75.36
100
AcDbArc
 50
182.0504045352
 51
189.6991678213
  0
ARC
  5
270
100
AcDbEntity
  8
BEZUGSACHSEN
100
AcDbCircle
 62
7
  6
CONTINUOUS
 10
248.8546140028
 20
140.8520793924
 40
75.36
100
AcDbArc
 50
192.0218080276
 51
199.9366148066
  0
ARC
  5
271
100
AcDbEntity
  8
RUNDUNGEN
100
AcDbCircle
 62
7
  6
CONTINUOUS
 10
227.220928685
 20
95.3557986496
 40
111.2
100
AcDbArc
 50
11.1245216277
 51
13.2437506485
  0
ARC
  5
272
100
AcDbEntity
  8
RUNDUNGEN
100
AcDbCircle
 62
7
  6
CONTINUOUS
 10
227.220928685
 20
95.3557986496
 40
111.2
100
AcDbArc
 50
10.0905132882
 51
11.0233261579
  0
ARC
  5
273
100
AcDbEntity
  8
RUNDUNGEN
100
AcDbCircle
 62
7
  6
CONTINUOUS
 10
227.220928685
 20
95.3557986496
 40
111.2
100
AcDbArc
 50
353.7553243301
 51
3.4117661794
  0
ARC
  5
274
100
AcDbEntity
  8
KONSTRUKTIONSELEMENTE
100
AcDbCircle
 62
7
  6
CONTINUOUS
 10
227.220928685
 20
95.3557986496
 40
111.2
100
AcDbArc
 50
332.2477798524
 51
13.2437498085
  0
ARC
  5
275
100
AcDbEntity
  8
RUNDUNGEN
100
AcDbCircle
 62
7
  6
CONTINUOUS
 10
227.220928685
 20
95.3557986496
 40
111.2
100
AcDbArc
 50
337.0839367275
 51
351.390195486
  0
ARC
  5
276
100
AcDbEntity
  8
KONSTRUKTIONSELEMENTE
100
AcDbCircle
 62
7
  6
CONTINUOUS
 10
244.1370679611
 20
214.2991788676
 40
115.9436494808
100
AcDbArc
 50
305.5941651911
 51
306.4360865503
  0
ARC
  5
277
100
AcDbEntity
  8
KONSTRUKTIONSELEMENTE
100
AcDbCircle
 62
7
  6
CONTINUOUS
 10
238.5595494074
 20
174.2197268053
 40
89.5876843572
100
AcDbArc
 50
23.7265451507
 51
24.7982724694
  0
ARC
  5
278
100
AcDbEntity
  8
0
100
AcDbCircle
 62
7
  6
CONTINUOUS
 10
211.220928685
 20
129.8115673974
 40
39.2
100
AcDbArc
 50
346.7562501915
 51
8.0
  0
ARC
  5
279
100
AcDbEntity
  8
0
100
AcDbCircle
 62
7
  6
CONTINUOUS
 10
273.2247092379
 20
140.6088679797
 40
33.0995275296
100
AcDbArc
 50
267.8807667706
 51
269.9934558061
  0
ARC
  5
27A
100
AcDbEntity
  8
0
100
AcDbCircle
 62
7
  6
CONTINUOUS
 10
292.126244901
 20
146.4665336176
 40
32.5101957342
100
AcDbArc
 50
234.4425052387
 51
254.1021103124
  0
ARC
  5
27B
100
AcDbEntity
  8
0
100
AcDbCircle
 62
7
  6
CONTINUOUS
 10
275.620928685
 20
183.17487052
 40
32.0
100
AcDbArc
 50
180.0
 51
188.0
  0
ARC
  5
27C
100
AcDbEntity
  8
0
100
AcDbCircle
 62
7
  6
CONTINUOUS
 10
272.820928685
 20
172.5557986496
 40
8.8
100
AcDbArc
 50
90.0
 51
180.0
  0
ARC
  5
27D
100
AcDbEntity
  8
0
100
AcDbCircle
 62
7
  6
CONTINUOUS
 10
272.820928685
 20
171.7557986496
 40
8.8
100
AcDbArc
 50
180.0
 51
270.0
  0
ARC
  5
27E
100
AcDbEntity
  8
0
100
AcDbCircle
 62
7
  6
CONTINUOUS
 10
292.020928685
 20
152.1557986496
 40
8.8
100
AcDbArc
 50
180.0
 51
270.0
  0
ARC
  5
27F
100
AcDbEntity
  8
0
100
AcDbCircle
 62
7
  6
CONTINUOUS
 10
278.2500256799
 20
116.9044410442
 40
7.6320806875
100
AcDbArc
 50
147.276213072
 51
148.9107905794
  0
ARC
  5
280
100
AcDbEntity
  8
0
100
AcDbCircle
 62
7
  6
CONTINUOUS
 10
278.420928685
 20
186.1557986496
 40
4.8
100
AcDbArc
 50
270.0
 51
360.0
  0
ARC
  5
281
100
AcDbEntity
  8
0
100
AcDbCircle
 62
7
  6
CONTINUOUS
 10
278.420928685
 20
158.1557986496
 40
4.8
100
AcDbArc
 50
0.0
 51
90.0
  0
ARC
  5
282
100
AcDbEntity
  8
0
100
AcDbCircle
 62
7
  6
CONTINUOUS
 10
357.620928685
 20
95.3557986496
 40
111.2
100
AcDbArc
 50
166.7562501915
 51
207.7522201475
  0
ARC
  5
283
100
AcDbEntity
  8
0
100
AcDbCircle
 62
7
  6
CONTINUOUS
 10
292.420928685
 20
14.3068182424
 40
32.0
100
AcDbArc
 50
106.7083437157
 51
126.1203429718
  0
ARC
  5
284
100
AcDbEntity
  8
KONSTRUKTIONSELEMENTE
100
AcDbCircle
 62
7
  6
CONTINUOUS
 10
292.420928685
 20
14.3068182424
 40
32.0
100
AcDbArc
 50
53.8796570282
 51
73.2916562843
  0
ARC
  5
285
100
AcDbEntity
  8
0
100
AcDbCircle
 62
7
  6
CONTINUOUS
 10
340.7047894083
 20
214.2991788668
 40
115.9436494798
100
AcDbArc
 50
233.5639134497
 51
234.4058348089
  0
ARC
  5
286
100
AcDbEntity
  8
0
100
AcDbCircle
 62
7
  6
CONTINUOUS
 10
346.2823079638
 20
174.2197268048
 40
89.5876843586
100
AcDbArc
 50
155.2017275306
 51
156.2734548493
  0
ARC
  5
287
100
AcDbEntity
  8
RUNDUNGEN
100
AcDbCircle
 62
7
  6
CONTINUOUS
 10
373.620928685
 20
129.8115673974
 40
39.2
100
AcDbArc
 50
175.9202159824
 51
179.1494849213
  0
ARC
  5
288
100
AcDbEntity
  8
RUNDUNGEN
100
AcDbCircle
 62
7
  6
CONTINUOUS
 10
373.620928685
 20
129.8115673974
 40
39.2
100
AcDbArc
 50
181.6260120652
 51
182.30924059
  0
ARC
  5
289
100
AcDbEntity
  8
RUNDUNGEN
100
AcDbCircle
 62
7
  6
CONTINUOUS
 10
373.620928685
 20
129.8115673974
 40
39.2
100
AcDbArc
 50
186.2746221313
 51
193.2437474257
  0
ARC
  5
28A
100
AcDbEntity
  8
KONSTRUKTIONSELEMENTE
100
AcDbCircle
 62
7
  6
CONTINUOUS
 10
373.620928685
 20
129.8115673974
 40
39.2
100
AcDbArc
 50
172.0
 51
193.2437498085
  0
ARC
  5
28B
100
AcDbEntity
  8
KONSTRUKTIONSELEMENTE
100
AcDbCircle
 62
7
  6
CONTINUOUS
 10
311.6171481321
 20
140.6088679797
 40
33.0995275296
100
AcDbArc
 50
270.0065441939
 51
272.1192332294
  0
ARC
  5
28C
100
AcDbEntity
  8
KONSTRUKTIONSELEMENTE
100
AcDbCircle
 62
7
  6
CONTINUOUS
 10
292.715612469
 20
146.4665336176
 40
32.5101957342
100
AcDbArc
 50
285.8978896876
 51
305.5574947613
  0
ARC
  5
28D
100
AcDbEntity
  8
KONSTRUKTIONSELEMENTE
100
AcDbCircle
 62
7
  6
CONTINUOUS
 10
309.220928685
 20
183.17487052
 40
32.0
100
AcDbArc
 50
352.0
 51
360.0
  0
ARC
  5
28E
100
AcDbEntity
  8
0
100
AcDbCircle
 62
7
  6
CONTINUOUS
 10
292.420928685
 20
157.5020769773
 40
29.4419354143
100
AcDbArc
 50
269.2215519602
 51
270.7784480398
  0
ARC
  5
28F
100
AcDbEntity
  8
KONSTRUKTIONSELEMENTE
100
AcDbCircle
 62
7
  6
CONTINUOUS
 10
312.020928685
 20
172.5557986496
 40
8.8
100
AcDbArc
 50
0.0
 51
90.0
  0
ARC
  5
290
100
AcDbEntity
  8
KONSTRUKTIONSELEMENTE
100
AcDbCircle
 62
7
  6
CONTINUOUS
 10
312.020928685
 20
171.7557986496
 40
8.8
100
AcDbArc
 50
270.0
 51
360.0
  0
ARC
  5
291
100
AcDbEntity
  8
KONSTRUKTIONSELEMENTE
100
AcDbCircle
 62
7
  6
CONTINUOUS
 10
292.820928685
 20
152.1557986496
 40
8.8
100
AcDbArc
 50
270.0
 51
360.0
  0
ARC
  5
292
100
AcDbEntity
  8
KONSTRUKTIONSELEMENTE
100
AcDbCircle
 62
7
  6
CONTINUOUS
 10
306.59183169
 20
116.9044410442
 40
7.6320806875
100
AcDbArc
 50
31.0892094206
 51
32.723786928
  0
ARC
  5
293
100
AcDbEntity
  8
KONSTRUKTIONSELEMENTE
100
AcDbCircle
 62
7
  6
CONTINUOUS
 10
306.420928685
 20
186.1557986496
 40
4.8
100
AcDbArc
 50
180.0
 51
270.0
  0
ARC
  5
294
100
AcDbEntity
  8
KONSTRUKTIONSELEMENTE
100
AcDbCircle
 62
7
  6
CONTINUOUS
 10
306.420928685
 20
158.1557986496
 40
4.8
100
AcDbArc
 50
90.0
 51
180.0
  0
SPLINE
  5
295
100
AcDbEntity
  8
KONSTRUKTIONSELEMENTE
100
AcDbSpline
 62
8
  6
HIDDEN
 70
0
 71
3
 72
23
 73
19
 74
0
 42
0.0000001
 43
0.0000001
 44
0.0000000001
 40
0.0
 40
0.0
 40
0.0
 40
0.0
 40
0.062523655
 40
0.1250389249
 40
0.1875463319
 40
0.2500462579
 40
0.312540271
 40
0.3750294729
 40
0.4375154976
 40
0.5000000004
 40
0.5624845
 40
0.6249705216
 40
0.6874597215
 40
0.7499537421
 40
0.8124536766
 40
0.8749610832
 40
0.9374763481
 40
1.0
 40
1.0
 40
1.0
 40
1.0
 10
143.9056516011
 20
73.650297856
 30
0.0
 10
144.1671718534
 20
72.9317768682
 30
0.0
 10
144.5773183805
 20
71.4502029278
 30
0.0
 10
144.8030548622
 20
69.1559870738
 30
0.0
 10
144.606124443
 20
66.8573195554
 30
0.0
 10
143.9706886051
 20
64.6385116572
 30
0.0
 10
142.9039362634
 20
62.590811798
 30
0.0
 10
141.4377958671
 20
60.8062924188
 30
0.0
 10
139.628862924
 20
59.3696571415
 30
0.0
 10
137.5554243145
 20
58.35079473
 30
0.0
 10
135.3121660951
 20
57.7985079764
 30
0.0
 10
133.0029918162
 20
57.7362747348
 30
0.0
 10
130.7327961233
 20
58.1608789462
 30
0.0
 10
128.5993801592
 20
59.0438129276
 30
0.0
 10
126.6863856904
 20
60.3350682302
 30
0.0
 10
125.0579732536
 20
61.9693653464
 30
0.0
 10
123.7562039846
 20
63.8719371902
 30
0.0
 10
123.1180571344
 20
65.2705256943
 30
0.0
 10
122.8565368955
 20
65.9890466456
 30
0.0
  0
SPLINE
  5
296
100
AcDbEntity
  8
DEFAULT_2
100
AcDbSpline
 62
8
  6
HIDDEN
 70
0
 71
3
 72
23
 73
19
 74
0
 42
0.0000001
 43
0.0000001
 44
0.0000000001
 40
0.0
 40
0.0
 40
0.0
 40
0.0
 40
0.062523655
 40
0.1250389249
 40
0.1875463319
 40
0.2500462579
 40
0.312540271
 40
0.3750294729
 40
0.4375154976
 40
0.5000000004
 40
0.5624845
 40
0.6249705216
 40
0.6874597215
 40
0.7499537421
 40
0.8124536766
 40
0.8749610832
 40
0.9374763481
 40
1.0
 40
1.0
 40
1.0
 40
1.0
 10
143.9056516011
 20
73.650297856
 30
0.0
 10
144.1671718534
 20
72.9317768682
 30
0.0
 10
144.5773183805
 20
71.4502029278
 30
0.0
 10
144.8030548622
 20
69.1559870738
 30
0.0
 10
144.606124443
 20
66.8573195554
 30
0.0
 10
143.9706886051
 20
64.6385116572
 30
0.0
 10
142.9039362634
 20
62.590811798
 30
0.0
 10
141.4377958671
 20
60.8062924188
 30
0.0
 10
139.628862924
 20
59.3696571415
 30
0.0
 10
137.5554243145
 20
58.35079473
 30
0.0
 10
135.3121660951
 20
57.7985079764
 30
0.0
 10
133.0029918162
 20
57.7362747348
 30
0.0
 10
130.7327961233
 20
58.1608789462
 30
0.0
 10
128.5993801592
 20
59.0438129276
 30
0.0
 10
126.6863856904
 20
60.3350682302
 30
0.0
 10
125.0579732536
 20
61.9693653464
 30
0.0
 10
123.7562039846
 20
63.8719371902
 30
0.0
 10
123.1180571344
 20
65.2705256943
 30
0.0
 10
122.8565368955
 20
65.9890466456
 30
0.0
  0
SPLINE
  5
297
100
AcDbEntity
  8
DEFAULT_2
100
AcDbSpline
 62
8
  6
HIDDEN
 70
0
 71
3
 72
15
 73
11
 74
0
 42
0.0000001
 43
0.0000001
 44
0.0000000001
 40
0.0
 40
0.0
 40
0.0
 40
0.0
 40
0.1264066699
 40
0.2524114543
 40
0.377969491
 40
0.5030620598
 40
0.627724434
 40
0.7520306111
 40
0.8760790124
 40
1.0
 40
1.0
 40
1.0
 40
1.0
 10
283.2209292779
 20
57.7836386938
 30
0.0
 10
281.7106895382
 20
58.2445759445
 30
0.0
 10
278.759745989
 20
59.3954922399
 30
0.0
 10
274.659216743
 20
61.7717504747
 30
0.0
 10
270.9866261536
 20
64.7436641098
 30
0.0
 10
267.8368495134
 20
68.2427155961
 30
0.0
 10
265.2921682541
 20
72.1856392369
 30
0.0
 10
263.4217786231
 20
76.4761374569
 30
0.0
 10
262.2776590853
 20
81.0041067518
 30
0.0
 10
262.020928685
 20
84.107689155
 30
0.0
 10
262.020928685
 20
85.6556537779
 30
0.0
  0
SPLINE
  5
298
100
AcDbEntity
  8
KONSTRUKTIONSELEMENTE
100
AcDbSpline
 62
8
  6
HIDDEN
 70
0
 71
3
 72
15
 73
11
 74
0
 42
0.0000001
 43
0.0000001
 44
0.0000000001
 40
0.0
 40
0.0
 40
0.0
 40
0.0
 40
0.1264066699
 40
0.2524114543
 40
0.377969491
 40
0.5030620598
 40
0.627724434
 40
0.7520306111
 40
0.8760790124
 40
1.0
 40
1.0
 40
1.0
 40
1.0
 10
301.6209280921
 20
57.7836386938
 30
0.0
 10
303.1311678318
 20
58.2445759445
 30
0.0
 10
306.082111381
 20
59.3954922399
 30
0.0
 10
310.182640627
 20
61.7717504747
 30
0.0
 10
313.8552312164
 20
64.7436641098
 30
0.0
 10
317.0050078566
 20
68.2427155961
 30
0.0
 10
319.5496891158
 20
72.1856392369
 30
0.0
 10
321.4200787469
 20
76.4761374569
 30
0.0
 10
322.5641982847
 20
81.0041067518
 30
0.0
 10
322.820928685
 20
84.107689155
 30
0.0
 10
322.820928685
 20
85.6556537779
 30
0.0
  0
SPLINE
  5
299
100
AcDbEntity
  8
0
100
AcDbSpline
 62
7
  6
CONTINUOUS
 70
0
 71
3
 72
13
 73
9
 74
0
 42
0.0000001
 43
0.0000001
 44
0.0000000001
 40
0.0
 40
0.0
 40
0.0
 40
0.0
 40
0.2985611551
 40
0.4349961018
 40
0.5618614373
 40
0.6792925739
 40
0.788728807
 40
1.0
 40
1.0
 40
1.0
 40
1.0
 10
276.7330192841
 20
254.5113568869
 30
0.0
 10
275.1366018603
 20
254.3926307744
 30
0.0
 10
272.81364119
 20
254.1662081621
 30
0.0
 10
269.8321223212
 20
253.7307288413
 30
0.0
 10
267.8241551366
 20
253.360709039
 30
0.0
 10
265.9751496188
 20
252.9313781014
 30
0.0
 10
263.723659472
 20
252.2660039024
 30
0.0
 10
262.1249215401
 20
251.5767216204
 30
0.0
 10
261.1689863175
 20
250.9689293768
 30
0.0
  0
SPLINE
  5
29A
100
AcDbEntity
  8
KONSTRUKTIONSELEMENTE
100
AcDbSpline
 62
7
  6
CONTINUOUS
 70
0
 71
3
 72
15
 73
11
 74
0
 42
0.0000001
 43
0.0000001
 44
0.0000000001
 40
0.0
 40
0.0
 40
0.0
 40
0.0
 40
0.1636417952
 40
0.3196237153
 40
0.463952157
 40
0.5938870173
 40
0.7087038516
 40
0.8106065505
 40
0.9051769578
 40
1.0
 40
1.0
 40
1.0
 40
1.0
 10
312.8411410011
 20
107.5319793089
 30
0.0
 10
313.5150151926
 20
107.55687826
 30
0.0
 10
314.8302155368
 20
107.6460250208
 30
0.0
 10
316.725480356
 20
107.9116720369
 30
0.0
 10
318.4547486263
 20
108.3172171032
 30
0.0
 10
319.9638060341
 20
108.8752144035
 30
0.0
 10
321.2063613138
 20
109.5996630588
 30
0.0
 10
322.1384869345
 20
110.5058213775
 30
0.0
 10
322.7067508122
 20
111.5878696616
 30
0.0
 10
322.8207716349
 20
112.375829229
 30
0.0
 10
322.8209212613
 20
112.7665753668
 30
0.0
  0
SPLINE
  5
29B
100
AcDbEntity
  8
KONSTRUKTIONSELEMENTE
100
AcDbSpline
 62
7
  6
CONTINUOUS
 70
0
 71
3
 72
13
 73
9
 74
0
 42
0.0000001
 43
0.0000001
 44
0.0000000001
 40
0.0
 40
0.0
 40
0.0
 40
0.0
 40
0.2985611551
 40
0.4349961018
 40
0.5618614373
 40
0.6792925739
 40
0.788728807
 40
1.0
 40
1.0
 40
1.0
 40
1.0
 10
308.1088380859
 20
254.5113568869
 30
0.0
 10
309.7052555097
 20
254.3926307744
 30
0.0
 10
312.02821618
 20
254.1662081621
 30
0.0
 10
315.0097350488
 20
253.7307288413
 30
0.0
 10
317.0177022334
 20
253.360709039
 30
0.0
 10
318.8667077512
 20
252.9313781014
 30
0.0
 10
321.118197898
 20
252.2660039024
 30
0.0
 10
322.7169358299
 20
251.5767216204
 30
0.0
 10
323.6728710525
 20
250.9689293768
 30
0.0
  0
SPLINE
  5
29C
100
AcDbEntity
  8
KONSTRUKTIONSELEMENTE
100
AcDbSpline
 62
7
  6
CONTINUOUS
 70
0
 71
3
 72
16
 73
12
 74
0
 42
0.0000001
 43
0.0000001
 44
0.0000000001
 40
0.0
 40
0.0
 40
0.0
 40
0.0
 40
0.0150786085
 40
0.0367439552
 40
0.0661185856
 40
0.1033003443
 40
0.1999382842
 40
0.3235047864
 40
0.4701132874
 40
0.6354273765
 40
1.0
 40
1.0
 40
1.0
 40
1.0
 10
301.620928685
 20
227.6910773695
 30
0.0
 10
301.620928685
 20
227.7383483344
 30
0.0
 10
301.5746699455
 20
227.8507226806
 30
0.0
 10
301.4372188596
 20
228.0061628192
 30
0.0
 10
301.223334084
 20
228.1832977384
 30
0.0
 10
300.7965422481
 20
228.4661535819
 30
0.0
 10
300.0761128478
 20
228.834610912
 30
0.0
 10
299.0073248706
 20
229.2617436761
 30
0.0
 10
297.7002524403
 20
229.6620412018
 30
0.0
 10
295.6278638214
 20
230.1194728123
 30
0.0
 10
293.963761372
 20
230.2751819565
 30
0.0
 10
292.820928685
 20
230.2896088832
 30
0.0
  0
SPLINE
  5
29D
100
AcDbEntity
  8
KONSTRUKTIONSELEMENTE
100
AcDbSpline
 62
7
  6
CONTINUOUS
 70
0
 71
3
 72
9
 73
5
 74
0
 42
0.0000001
 43
0.0000001
 44
0.0000000001
 40
0.0
 40
0.0
 40
0.0
 40
0.0
 40
0.267409338
 40
1.0
 40
1.0
 40
1.0
 40
1.0
 10
300.2046668267
 20
68.514565969
 30
0.0
 10
300.4284457914
 20
68.1750912229
 30
0.0
 10
301.1853261017
 20
66.8587347353
 30
0.0
 10
301.620928685
 20
65.327743478
 30
0.0
 10
301.620928685
 20
64.2138397009
 30
0.0
  0
SPLINE
  5
29E
100
AcDbEntity
  8
0
100
AcDbSpline
 62
7
  6
CONTINUOUS
 70
0
 71
3
 72
15
 73
11
 74
0
 42
0.0000001
 43
0.0000001
 44
0.0000000001
 40
0.0
 40
0.0
 40
0.0
 40
0.0
 40
0.1636417952
 40
0.3196237153
 40
0.463952157
 40
0.5938870173
 40
0.7087038516
 40
0.8106065505
 40
0.9051769578
 40
1.0
 40
1.0
 40
1.0
 40
1.0
 10
272.0007163689
 20
107.5319793089
 30
0.0
 10
271.3268421774
 20
107.55687826
 30
0.0
 10
270.0116418332
 20
107.6460250208
 30
0.0
 10
268.116377014
 20
107.9116720369
 30
0.0
 10
266.3871087437
 20
108.3172171032
 30
0.0
 10
264.8780513359
 20
108.8752144035
 30
0.0
 10
263.6354960562
 20
109.5996630588
 30
0.0
 10
262.7033704355
 20
110.5058213775
 30
0.0
 10
262.1351065578
 20
111.5878696616
 30
0.0
 10
262.021085735
 20
112.375829229
 30
0.0
 10
262.0209361087
 20
112.7665753668
 30
0.0
  0
SPLINE
  5
29F
100
AcDbEntity
  8
0
100
AcDbSpline
 62
7
  6
CONTINUOUS
 70
0
 71
3
 72
16
 73
12
 74
0
 42
0.0000001
 43
0.0000001
 44
0.0000000001
 40
0.0
 40
0.0
 40
0.0
 40
0.0
 40
0.0150786085
 40
0.0367439552
 40
0.0661185856
 40
0.1033003443
 40
0.1999382842
 40
0.3235047864
 40
0.4701132874
 40
0.6354273765
 40
1.0
 40
1.0
 40
1.0
 40
1.0
 10
283.220928685
 20
227.6910773695
 30
0.0
 10
283.220928685
 20
227.7383483344
 30
0.0
 10
283.2671874244
 20
227.8507226806
 30
0.0
 10
283.4046385104
 20
228.0061628192
 30
0.0
 10
283.618523286
 20
228.1832977384
 30
0.0
 10
284.0453151219
 20
228.4661535819
 30
0.0
 10
284.7657445222
 20
228.834610912
 30
0.0
 10
285.8345324994
 20
229.2617436761
 30
0.0
 10
287.1416049296
 20
229.6620412018
 30
0.0
 10
289.2139935486
 20
230.1194728123
 30
0.0
 10
290.878095998
 20
230.2751819565
 30
0.0
 10
292.020928685
 20
230.2896088832
 30
0.0
  0
SPLINE
  5
2A0
100
AcDbEntity
  8
0
100
AcDbSpline
 62
7
  6
CONTINUOUS
 70
0
 71
3
 72
9
 73
5
 74
0
 42
0.0000001
 43
0.0000001
 44
0.0000000001
 40
0.0
 40
0.0
 40
0.0
 40
0.0
 40
0.267409338
 40
1.0
 40
1.0
 40
1.0
 40
1.0
 10
284.6371905432
 20
68.514565969
 30
0.0
 10
284.4134115786
 20
68.1750912229
 30
0.0
 10
283.6565312682
 20
66.8587347353
 30
0.0
 10
283.220928685
 20
65.327743478
 30
0.0
 10
283.220928685
 20
64.2138397009
 30
0.0
  0
SPLINE
  5
2A1
100
AcDbEntity
  8
KONSTRUKTIONSELEMENTE
100
AcDbSpline
 62
7
  6
CONTINUOUS
 70
0
 71
3
 72
14
 73
10
 74
0
 42
0.0000001
 43
0.0000001
 44
0.0000000001
 40
0.0
 40
0.0
 40
0.0
 40
0.0
 40
0.0953211637
 40
0.1991344112
 40
0.3124150944
 40
0.4349956104
 40
0.566140928
 40
0.7048610981
 40
1.0
 40
1.0
 40
1.0
 40
1.0
 10
322.8209212613
 20
112.7665753668
 30
0.0
 10
322.8210628235
 20
113.1362621434
 30
0.0
 10
322.7173088355
 20
113.9102658467
 30
0.0
 10
322.3042245061
 20
115.0563677452
 30
0.0
 10
321.6500016827
 20
116.2061901252
 30
0.0
 10
320.7715521769
 20
117.3316019203
 30
0.0
 10
319.6830969747
 20
118.4019275634
 30
0.0
 10
317.9382041765
 20
119.7332243378
 30
0.0
 10
316.4036914125
 20
120.4878432473
 30
0.0
 10
315.3163357299
 20
120.8454342552
 30
0.0
  0
SPLINE
  5
2A2
100
AcDbEntity
  8
KONSTRUKTIONSELEMENTE
100
AcDbSpline
 62
7
  6
CONTINUOUS
 70
0
 71
3
 72
9
 73
5
 74
0
 42
0.0000001
 43
0.0000001
 44
0.0000000001
 40
0.0
 40
0.0
 40
0.0
 40
0.0
 40
0.499997671
 40
1.0
 40
1.0
 40
1.0
 40
1.0
 10
323.6572868513
 20
187.5053413925
 30
0.0
 10
323.7369575392
 20
186.2822861512
 30
0.0
 10
323.8476307071
 20
183.8328819864
 30
0.0
 10
323.8818477465
 20
181.3814574646
 30
0.0
 10
323.8818477465
 20
180.1557986496
 30
0.0
  0
SPLINE
  5
2A3
100
AcDbEntity
  8
KONSTRUKTIONSELEMENTE
100
AcDbSpline
 62
7
  6
CONTINUOUS
 70
0
 71
3
 72
11
 73
7
 74
0
 42
0.0000001
 43
0.0000001
 44
0.0000000001
 40
0.0
 40
0.0
 40
0.0
 40
0.0
 40
0.2650373567
 40
0.5234292723
 40
0.7697335843
 40
1.0
 40
1.0
 40
1.0
 40
1.0
 10
321.9848626538
 20
145.1904292065
 30
0.0
 10
321.4899391705
 20
142.9481805311
 30
0.0
 10
320.3765870512
 20
138.548584551
 30
0.0
 10
318.3317486661
 20
132.1959649043
 30
0.0
 10
315.9592376563
 20
126.2810873501
 30
0.0
 10
314.1111378314
 20
122.5811520967
 30
0.0
 10
313.1276734974
 20
120.8454342552
 30
0.0
  0
SPLINE
  5
2A4
100
AcDbEntity
  8
KONSTRUKTIONSELEMENTE
100
AcDbSpline
 62
7
  6
CONTINUOUS
 70
0
 71
3
 72
11
 73
7
 74
0
 42
0.0000001
 43
0.0000001
 44
0.0000000001
 40
0.0
 40
0.0
 40
0.0
 40
0.0
 40
0.2493731986
 40
0.4990053817
 40
0.7520482488
 40
1.0
 40
1.0
 40
1.0
 40
1.0
 10
301.620928685
 20
102.1345196308
 30
0.0
 10
302.8539691641
 20
101.7294629165
 30
0.0
 10
305.2607668516
 20
100.7001079662
 30
0.0
 10
308.4207175135
 20
98.3015017121
 30
0.0
 10
310.6728768612
 20
95.0193913355
 30
0.0
 10
311.2843910371
 20
92.3938867273
 30
0.0
 10
311.2843910371
 20
91.1034172854
 30
0.0
  0
SPLINE
  5
2A5
100
AcDbEntity
  8
KONSTRUKTIONSELEMENTE
100
AcDbSpline
 62
7
  6
CONTINUOUS
 70
0
 71
3
 72
15
 73
11
 74
0
 42
0.0000001
 43
0.0000001
 44
0.0000000001
 40
0.0
 40
0.0
 40
0.0
 40
0.0
 40
0.1008944227
 40
0.2034142193
 40
0.3119927525
 40
0.4301161106
 40
0.5593947337
 40
0.6992916201
 40
0.8473958189
 40
1.0
 40
1.0
 40
1.0
 40
1.0
 10
301.620928685
 20
122.449378994
 30
0.0
 10
301.620928685
 20
122.838116216
 30
0.0
 10
301.5165585188
 20
123.6265172538
 30
0.0
 10
301.0291324427
 20
124.7415279927
 30
0.0
 10
300.2233564911
 20
125.7387767562
 30
0.0
 10
299.1294545206
 20
126.5832252372
 30
0.0
 10
297.7877997253
 20
127.2537798465
 30
0.0
 10
296.247856456
 20
127.735587929
 30
0.0
 10
294.5695161573
 20
128.0186437188
 30
0.0
 10
293.4088447275
 20
128.0708474717
 30
0.0
 10
292.820928685
 20
128.0628589011
 30
0.0
  0
SPLINE
  5
2A6
100
AcDbEntity
  8
0
100
AcDbSpline
 62
7
  6
CONTINUOUS
 70
0
 71
3
 72
9
 73
5
 74
0
 42
0.0000001
 43
0.0000001
 44
0.0000000001
 40
0.0
 40
0.0
 40
0.0
 40
0.0
 40
0.2377581068
 40
1.0
 40
1.0
 40
1.0
 40
1.0
 10
264.2669086203
 20
210.2672989734
 30
0.0
 10
264.160783121
 20
210.0250024929
 30
0.0
 10
263.7489398123
 20
208.9908933471
 30
0.0
 10
263.4737129647
 20
207.9044608616
 30
0.0
 10
263.3302401221
 20
207.0686499789
 30
0.0
  0
SPLINE
  5
2A7
100
AcDbEntity
  8
0
100
AcDbSpline
 62
7
  6
CONTINUOUS
 70
0
 71
3
 72
10
 73
6
 74
0
 42
0.0000001
 43
0.0000001
 44
0.0000000001
 40
0.0
 40
0.0
 40
0.0
 40
0.0
 40
0.2185443832
 40
0.4636375554
 40
1.0
 40
1.0
 40
1.0
 40
1.0
 10
263.3302401221
 20
207.0686499789
 30
0.0
 10
263.0875942262
 20
205.6550996744
 30
0.0
 10
262.6324032829
 20
202.6459528585
 30
0.0
 10
261.8405487871
 20
196.1307133943
 30
0.0
 10
261.4133773759
 20
191.0178430817
 30
0.0
 10
261.1845705187
 20
187.5053413925
 30
0.0
  0
SPLINE
  5
2A8
100
AcDbEntity
  8
0
100
AcDbSpline
 62
7
  6
CONTINUOUS
 70
0
 71
3
 72
9
 73
5
 74
0
 42
0.0000001
 43
0.0000001
 44
0.0000000001
 40
0.0
 40
0.0
 40
0.0
 40
0.0
 40
0.499997671
 40
1.0
 40
1.0
 40
1.0
 40
1.0
 10
261.1845705187
 20
187.5053413925
 30
0.0
 10
261.1048998307
 20
186.2822861512
 30
0.0
 10
260.9942266629
 20
183.8328819864
 30
0.0
 10
260.9600096235
 20
181.3814574646
 30
0.0
 10
260.9600096235
 20
180.1557986496
 30
0.0
  0
SPLINE
  5
2A9
100
AcDbEntity
  8
0
100
AcDbSpline
 62
7
  6
CONTINUOUS
 70
0
 71
3
 72
10
 73
6
 74
0
 42
0.0000001
 43
0.0000001
 44
0.0000000001
 40
0.0
 40
0.0
 40
0.0
 40
0.0
 40
0.250103363
 40
0.5001986168
 40
1.0
 40
1.0
 40
1.0
 40
1.0
 10
260.9600096235
 20
167.3557986496
 30
0.0
 10
260.9600096235
 20
165.4984788215
 30
0.0
 10
261.0128831839
 20
161.7830212798
 30
0.0
 10
261.3724796886
 20
154.3672178283
 30
0.0
 10
262.0569963558
 20
148.8148182773
 30
0.0
 10
262.8569947161
 20
145.1904292065
 30
0.0
  0
SPLINE
  5
2AA
100
AcDbEntity
  8
0
100
AcDbSpline
 62
7
  6
CONTINUOUS
 70
0
 71
3
 72
11
 73
7
 74
0
 42
0.0000001
 43
0.0000001
 44
0.0000000001
 40
0.0
 40
0.0
 40
0.0
 40
0.0
 40
0.2650373567
 40
0.5234292723
 40
0.7697335843
 40
1.0
 40
1.0
 40
1.0
 40
1.0
 10
262.8569947161
 20
145.1904292065
 30
0.0
 10
263.3519181995
 20
142.9481805311
 30
0.0
 10
264.4652703188
 20
138.548584551
 30
0.0
 10
266.5101087039
 20
132.1959649043
 30
0.0
 10
268.8826197137
 20
126.2810873501
 30
0.0
 10
270.7307195386
 20
122.5811520967
 30
0.0
 10
271.7141838725
 20
120.8454342552
 30
0.0
  0
SPLINE
  5
2AB
100
AcDbEntity
  8
0
100
AcDbSpline
 62
7
  6
CONTINUOUS
 70
0
 71
3
 72
11
 73
7
 74
0
 42
0.0000001
 43
0.0000001
 44
0.0000000001
 40
0.0
 40
0.0
 40
0.0
 40
0.0
 40
0.2493731986
 40
0.4990053817
 40
0.7520482488
 40
1.0
 40
1.0
 40
1.0
 40
1.0
 10
283.220928685
 20
102.1345196308
 30
0.0
 10
281.9878882058
 20
101.7294629165
 30
0.0
 10
279.5810905183
 20
100.7001079662
 30
0.0
 10
276.4211398565
 20
98.3015017121
 30
0.0
 10
274.1689805088
 20
95.0193913355
 30
0.0
 10
273.5574663329
 20
92.3938867273
 30
0.0
 10
273.5574663329
 20
91.1034172854
 30
0.0
  0
LINE
  5
2AC
100
AcDbEntity
  8
KONSTRUKTIONSELEMENTE
100
AcDbLine
 62
7
  6
CONTINUOUS
 10
313.0125975528
 20
121.0302647627
 11
312.9989828115
 21
121.0202072927
  0
SPLINE
  5
2AD
100
AcDbEntity
  8
KONSTRUKTIONSELEMENTE
100
AcDbSpline
 62
7
  6
CONTINUOUS
 70
0
 71
3
 72
10
 73
6
 74
0
 42
0.0000001
 43
0.0000001
 44
0.0000000001
 40
0.0
 40
0.0
 40
0.0
 40
0.0
 40
0.2185443832
 40
0.4636375554
 40
1.0
 40
1.0
 40
1.0
 40
1.0
 10
321.5116172479
 20
207.0686499789
 30
0.0
 10
321.7542631438
 20
205.6550996744
 30
0.0
 10
322.2094540871
 20
202.6459528585
 30
0.0
 10
323.0013085829
 20
196.1307133943
 30
0.0
 10
323.4284799941
 20
191.0178430817
 30
0.0
 10
323.6572868513
 20
187.5053413925
 30
0.0
  0
SPLINE
  5
2AE
100
AcDbEntity
  8
0
100
AcDbSpline
 62
7
  6
CONTINUOUS
 70
0
 71
3
 72
14
 73
10
 74
0
 42
0.0000001
 43
0.0000001
 44
0.0000000001
 40
0.0
 40
0.0
 40
0.0
 40
0.0
 40
0.0953211637
 40
0.1991344112
 40
0.3124150944
 40
0.4349956104
 40
0.566140928
 40
0.7048610981
 40
1.0
 40
1.0
 40
1.0
 40
1.0
 10
262.0209361087
 20
112.7665753668
 30
0.0
 10
262.0207945465
 20
113.1362621434
 30
0.0
 10
262.1245485345
 20
113.9102658467
 30
0.0
 10
262.5376328639
 20
115.0563677452
 30
0.0
 10
263.1918556872
 20
116.2061901252
 30
0.0
 10
264.0703051931
 20
117.3316019203
 30
0.0
 10
265.1587603953
 20
118.4019275634
 30
0.0
 10
266.9036531935
 20
119.7332243378
 30
0.0
 10
268.4381659575
 20
120.4878432473
 30
0.0
 10
269.5255216401
 20
120.8454342552
 30
0.0
  0
SPLINE
  5
2AF
100
AcDbEntity
  8
KONSTRUKTIONSELEMENTE
100
AcDbSpline
 62
7
  6
CONTINUOUS
 70
0
 71
3
 72
9
 73
5
 74
0
 42
0.0000001
 43
0.0000001
 44
0.0000000001
 40
0.0
 40
0.0
 40
0.0
 40
0.0
 40
0.2377581068
 40
1.0
 40
1.0
 40
1.0
 40
1.0
 10
320.5749487496
 20
210.2672989734
 30
0.0
 10
320.6810742489
 20
210.0250024929
 30
0.0
 10
321.0929175577
 20
208.9908933471
 30
0.0
 10
321.3681444053
 20
207.9044608616
 30
0.0
 10
321.5116172479
 20
207.0686499789
 30
0.0
  0
SPLINE
  5
2B0
100
AcDbEntity
  8
0
100
AcDbSpline
 62
7
  6
CONTINUOUS
 70
0
 71
3
 72
15
 73
11
 74
0
 42
0.0000001
 43
0.0000001
 44
0.0000000001
 40
0.0
 40
0.0
 40
0.0
 40
0.0
 40
0.1008944227
 40
0.2034142193
 40
0.3119927525
 40
0.4301161106
 40
0.5593947337
 40
0.6992916201
 40
0.8473958189
 40
1.0
 40
1.0
 40
1.0
 40
1.0
 10
283.220928685
 20
122.449378994
 30
0.0
 10
283.220928685
 20
122.838116216
 30
0.0
 10
283.3252988512
 20
123.6265172538
 30
0.0
 10
283.8127249272
 20
124.7415279927
 30
0.0
 10
284.6185008789
 20
125.7387767562
 30
0.0
 10
285.7124028494
 20
126.5832252372
 30
0.0
 10
287.0540576447
 20
127.2537798465
 30
0.0
 10
288.594000914
 20
127.735587929
 30
0.0
 10
290.2723412127
 20
128.0186437188
 30
0.0
 10
291.4330126425
 20
128.0708474717
 30
0.0
 10
292.020928685
 20
128.0628589011
 30
0.0
  0
LINE
  5
2B1
100
AcDbEntity
  8
0
100
AcDbLine
 62
7
  6
CONTINUOUS
 10
271.8292598172
 20
121.0302647627
 11
271.8428745585
 21
121.0202072927
  0
SPLINE
  5
2B2
100
AcDbEntity
  8
KONSTRUKTIONSELEMENTE
100
AcDbSpline
 62
7
  6
CONTINUOUS
 70
0
 71
3
 72
10
 73
6
 74
0
 42
0.0000001
 43
0.0000001
 44
0.0000000001
 40
0.0
 40
0.0
 40
0.0
 40
0.0
 40
0.250103363
 40
0.5001986168
 40
1.0
 40
1.0
 40
1.0
 40
1.0
 10
323.8818477465
 20
167.3557986496
 30
0.0
 10
323.8818477465
 20
165.4984788215
 30
0.0
 10
323.8289741861
 20
161.7830212798
 30
0.0
 10
323.4693776813
 20
154.3672178283
 30
0.0
 10
322.7848610142
 20
148.8148182773
 30
0.0
 10
321.9848626538
 20
145.1904292065
 30
0.0
  0
ELLIPSE
  5
2B3
100
AcDbEntity
  8
KONSTRUKTIONSELEMENTE
100
AcDbEllipse
 62
7
  6
CONTINUOUS
 10
292.820928685
 20
63.1062034668
 30
0.0
 11
0.0
 21
9.9411645895
 31
0.0
 40
0.8852081585
 41
-0.9955552139
 42
0.0
  0
ELLIPSE
  5
2B4
100
AcDbEntity
  8
0
100
AcDbEllipse
 62
7
  6
CONTINUOUS
 10
292.420928685
 20
197.9776512301
 30
0.0
 11
0.0
 21
-32.3144823206
 31
0.0
 40
0.9902680687
 41
3.129092328
 42
3.1540929791
  0
ELLIPSE
  5
2B5
100
AcDbEntity
  8
0
100
AcDbEllipse
 62
7
  6
CONTINUOUS
 10
292.020928685
 20
63.1062034668
 30
0.0
 11
-0.0
 21
9.9411645895
 31
0.0
 40
0.8852081585
 41
-0.0
 42
0.9955552139
  0
ELLIPSE
  5
2B6
100
AcDbEntity
  8
0
100
AcDbEllipse
 62
7
  6
CONTINUOUS
 10
292.420928685
 20
190.5190321833
 30
0.0
 11
0.0
 21
41.4609781364
 31
0.0
 40
0.7718100594
 41
-1.0319375608
 42
1.0319375608
  0
ENDSEC
  0
SECTION
  2
OBJECTS
  0
DICTIONARY
  5
C
100
AcDbDictionary
280
0
281
1
  3
ACAD_GROUP
350
D
  3
ACAD_MLINESTYLE
350
17
  3
ACAD_LAYOUT
350
1A
  3
ACAD_PLOTSETTINGS
350
19
  3
ACAD_PLOTSTYLENAME
350
E
  0
DICTIONARY
  5
D
102
{ACAD_REACTORS
330
C
102
}
100
AcDbDictionary
280
0
281
1
  0
ACDBDICTIONARYWDFLT
  5
E
102
{ACAD_REACTORS
330
C
102
}
100
AcDbDictionary
281
1
  3
Normal
350
F
100
AcDbDictionaryWithDefault
340
F
  0
DICTIONARY
  5
17
102
{ACAD_REACTORS
330
C
102
}
100
AcDbDictionary
280
0
281
1
  3
Standard
350
18
  0
DICTIONARY
  5
19
102
{ACAD_REACTORS
330
C
102
}
100
AcDbDictionary
281
1
  0
DICTIONARY
  5
1A
102
{ACAD_REACTORS
330
C
102
}
100
AcDbDictionary
281
1
  3
Model
350
2B7
  3
Layout1
350
2B8
  0
ACDBPLACEHOLDER
  5
F
102
{ACAD_REACTORS
330
E
102
}
  0
MLINESTYLE
  5
18
102
{ACAD_REACTORS
330
17
102
}
100
AcDbMlineStyle
  2
STANDARD
 70
0
  3

 62
256
 51
90.0
 52
90.0
 71
2
 49
0.5
 62
256
  6
BYLAYER
 49
-0.5
 62
256
  6
BYLAYER
  0
LAYOUT
  5
2B7
102
{ACAD_REACTORS
330
1A
102
}
100
AcDbPlotSettings
  1

  2
none_device
  4
ISO_A3_(420.00_x_297.00_MM)
  6

 40
0.0
 41
0.0
 42
0.0
 43
0.0
 44
420.0
 45
297.0
 46
0.0
 47
0.0
 48
0.0
 49
0.0
140
0.0
141
0.0
142
1.0
143
1.0
 70
1024
 72
1
 73
0
 74
0
  7

 75
0
147
1.0
148
0.0
149
0.0
100
AcDbLayout
  1
Model
 70
0
 71
0
 10
0.0
 20
0.0
 11
420.0
 21
297.0
 12
0.0
 22
0.0
 32
0.0
 14
0.0
 24
0.0
 34
0.0
 15
0.0
 25
0.0
 35
0.0
146
0.0
 13
0.0
 23
0.0
 33
0.0
 16
1.0
 26
0.0
 36
0.0
 17
0.0
 27
1.0
 37
0.0
 76
0
330
208
345
0
346
0
  0
LAYOUT
  5
2B8
102
{ACAD_REACTORS
330
1A
102
}
100
AcDbPlotSettings
  1

  2
none_device
  4
ISO_A3_(420.00_x_297.00_MM)
  6

 40
0.0
 41
0.0
 42
0.0
 43
0.0
 44
420.0
 45
297.0
 46
0.0
 47
0.0
 48
0.0
 49
0.0
140
0.0
141
0.0
142
1.0
143
1.0
 70
0
 72
1
 73
0
 74
0
  7

 75
0
147
1.0
148
0.0
149
0.0
100
AcDbLayout
  1
Layout1
 70
0
 71
1
 10
0.0
 20
0.0
 11
420.0
 21
297.0
 12
0.0
 22
0.0
 32
0.0
 14
0.0
 24
0.0
 34
0.0
 15
0.0
 25
0.0
 35
0.0
146
0.0
 13
0.0
 23
0.0
 33
0.0
 16
1.0
 26
0.0
 36
0.0
 17
0.0
 27
1.0
 37
0.0
 76
0
330
209
345
0
346
0
  0
ENDSEC
  0
EOF
