999
DXF file: IMK-2S-13_7904657_M34963-P-4.dxf
999
Pro/ENGINEER 2011490 by Parametric Technology Corporation
  0
SECTION
  2
HEADER
  9
$ACADVER
  1
AC1015
  9
$DWGCODEPAGE
  3
ANSI_1252
  9
$EXTMAX
 10
1189.0
 20
841.0
 30
0.0
  9
$EXTMIN
 10
0.0
 20
0.0
 30
0.0
  9
$LIMMIN
 10
0.0
 20
0.0
  9
$LIMMAX
 10
1189.0
 20
841.0
  9
$VIEWCTR
 10
594.5
 20
420.5
  9
$VIEWSIZE
 40
841.0
  9
$CLAYER
  8
0
  9
$LTSCALE
 40
65.395
  9
$CELTYPE
  6
BYLAYER
  9
$DIMSCALE
 40
1.0
  9
$DIMASZ
 40
3.5
  9
$DIMEXO
 40
7.43125
  9
$DIMDLI
 40
45.182
  9
$DIMEXE
 40
21.402
  9
$DIMCEN
 40
10.701
  9
$DIMLFAC
 40
1.0
  9
$DIMBLK
  1
_FILLED
  9
$DIMTXT
 40
3.5
  9
$DIMTOL
 70
1
  9
$DIMLIM
 70
0
  9
$DIMTFAC
 40
1.0
  9
$DIMTP
 40
0.005
  9
$DIMTM
 40
0.005
  9
$PDMODE
 70
3
  9
$PDSIZE
 40
0.3125
  9
$HANDSEED
  5
89E
  9
$TILEMODE
 70
1
  9
$MEASUREMENT
 70
1
  9
$INSUNITS
 70
4
  0
ENDSEC
  0
SECTION
  2
CLASSES
  0
CLASS
  1
ACDBDICTIONARYWDFLT
  2
AcDbDictionaryWithDefault
  3
AutoCAD 2000
 90
0
280
0
281
0
  0
CLASS
  1
ACDBPLACEHOLDER
  2
AcDbPlaceHolder
  3
AutoCAD 2000
 90
0
280
0
281
0
  0
CLASS
  1
LAYOUT
  2
AcDbLayout
  3
AutoCAD 2000
 90
0
280
0
281
0
  0
ENDSEC
  0
SECTION
  2
TABLES
  0
TABLE
  2
VPORT
  5
8
100
AcDbSymbolTable
 70
2
  0
VPORT
  5
1F4
100
AcDbSymbolTableRecord
100
AcDbViewportTableRecord
  2
*ACTIVE
 70
0
 10
0.0
 20
0.0
 11
1.0
 21
1.0
 12
594.5
 22
420.5
 13
0.0
 23
0.0
 14
1.0
 24
1.0
 15
0.0
 25
0.0
 16
0.0
 26
0.0
 36
1.0
 17
0.0
 27
0.0
 37
0.0
 40
841.0
 41
1.4137931034
 42
50.0
 43
0.0
 44
0.0
 50
0.0
 51
0.0
 71
0
 72
100
 73
1
 74
1
 75
0
 76
0
 77
0
 78
0
  0
ENDTAB
  0
TABLE
  2
LTYPE
  5
5
100
AcDbSymbolTable
 70
6
  0
LTYPE
  5
14
100
AcDbSymbolTableRecord
100
AcDbLinetypeTableRecord
  2
BYBLOCK
 70
0
  3

 72
65
 73
0
 40
0.0
  0
LTYPE
  5
15
100
AcDbSymbolTableRecord
100
AcDbLinetypeTableRecord
  2
BYLAYER
 70
0
  3

 72
65
 73
0
 40
0.0
  0
LTYPE
  5
16
100
AcDbSymbolTableRecord
100
AcDbLinetypeTableRecord
  2
CONTINUOUS
 70
64
  3
Solid line
 72
65
 73
0
 40
0.0
  0
LTYPE
  5
1F5
100
AcDbSymbolTableRecord
100
AcDbLinetypeTableRecord
  2
CENTER
 70
64
  3
____ _ ____ _ ____ _ ____ _ ____ _ ____ _ ____
 72
65
 73
4
 40
0.6
 49
0.375
 74
0
 49
-0.075
 74
0
 49
0.075
 74
0
 49
-0.075
 74
0
  0
LTYPE
  5
1F6
100
AcDbSymbolTableRecord
100
AcDbLinetypeTableRecord
  2
HIDDEN
 70
64
  3
- - - - - - - - - - - - - - - - - - - -
 72
65
 73
2
 40
0.2
 49
0.1
 74
0
 49
-0.1
 74
0
  0
LTYPE
  5
1F7
100
AcDbSymbolTableRecord
100
AcDbLinetypeTableRecord
  2
PHANTOM
 70
64
  3
_____ _ _ _____ _ _ _____ _ _ _____
 72
65
 73
6
 40
0.8
 49
0.45
 74
0
 49
-0.05
 74
0
 49
0.1
 74
0
 49
-0.05
 74
0
 49
0.1
 74
0
 49
-0.05
 74
0
  0
LTYPE
  5
1F8
100
AcDbSymbolTableRecord
100
AcDbLinetypeTableRecord
  2
DOT
 70
64
  3
. . . . . . . . . . . . . . . . . . . .
 72
65
 73
2
 40
0.2
 49
0.1
 74
0
 49
-0.1
 74
0
  0
LTYPE
  5
1F9
100
AcDbSymbolTableRecord
100
AcDbLinetypeTableRecord
  2
DASHED
 70
64
  3
- - - - - - - - - - - - - - - - - - - -
 72
65
 73
2
 40
0.2
 49
0.1
 74
0
 49
-0.1
 74
0
  0
ENDTAB
  0
TABLE
  2
LAYER
  5
2
100
AcDbSymbolTable
 70
36
  0
LAYER
  5
10
100
AcDbSymbolTableRecord
100
AcDbLayerTableRecord
  2
0
 70
0
 62
7
  6
CONTINUOUS
370
-3
390
F
  0
LAYER
  5
1FA
100
AcDbSymbolTableRecord
100
AcDbLayerTableRecord
  2
DEFAULT_1
 70
0
 62
7
  6
CENTER
370
-3
390
F
  0
LAYER
  5
1FB
100
AcDbSymbolTableRecord
100
AcDbLayerTableRecord
  2
DEFAULT_2
 70
0
 62
8
  6
HIDDEN
370
-3
390
F
  0
LAYER
  5
1FC
100
AcDbSymbolTableRecord
100
AcDbLayerTableRecord
  2
DEFAULT_3
 70
0
 62
7
  6
PHANTOM
370
-3
390
F
  0
LAYER
  5
1FD
100
AcDbSymbolTableRecord
100
AcDbLayerTableRecord
  2
AUSFORMSCHRAEGEN
 70
0
 62
7
  6
CONTINUOUS
370
-3
390
F
  0
LAYER
  5
1FE
100
AcDbSymbolTableRecord
100
AcDbLayerTableRecord
  2
BEZUGSACHSEN
 70
0
 62
7
  6
CONTINUOUS
370
-3
390
F
  0
LAYER
  5
1FF
100
AcDbSymbolTableRecord
100
AcDbLayerTableRecord
  2
BEZUGSEBENEN
 70
0
 62
7
  6
CONTINUOUS
370
-3
390
F
  0
LAYER
  5
200
100
AcDbSymbolTableRecord
100
AcDbLayerTableRecord
  2
BG_STARTBEZUEGE
 70
0
 62
7
  6
CONTINUOUS
370
-3
390
F
  0
LAYER
  5
201
100
AcDbSymbolTableRecord
100
AcDbLayerTableRecord
  2
BOHRUNGEN
 70
0
 62
7
  6
CONTINUOUS
370
-3
390
F
  0
LAYER
  5
202
100
AcDbSymbolTableRecord
100
AcDbLayerTableRecord
  2
FASEN
 70
0
 62
7
  6
CONTINUOUS
370
-3
390
F
  0
LAYER
  5
203
100
AcDbSymbolTableRecord
100
AcDbLayerTableRecord
  2
HILFEN
 70
0
 62
7
  6
CONTINUOUS
370
-3
390
F
  0
LAYER
  5
204
100
AcDbSymbolTableRecord
100
AcDbLayerTableRecord
  2
KONSTRUKTIONSELEMENTE
 70
0
 62
7
  6
CONTINUOUS
370
-3
390
F
  0
LAYER
  5
205
100
AcDbSymbolTableRecord
100
AcDbLayerTableRecord
  2
KURVEN
 70
0
 62
7
  6
CONTINUOUS
370
-3
390
F
  0
LAYER
  5
206
100
AcDbSymbolTableRecord
100
AcDbLayerTableRecord
  2
NORM
 70
0
 62
7
  6
CONTINUOUS
370
-3
390
F
  0
LAYER
  5
207
100
AcDbSymbolTableRecord
100
AcDbLayerTableRecord
  2
PLATZIERUNG
 70
0
 62
7
  6
CONTINUOUS
370
-3
390
F
  0
LAYER
  5
208
100
AcDbSymbolTableRecord
100
AcDbLayerTableRecord
  2
RUNDUNGEN
 70
0
 62
7
  6
CONTINUOUS
370
-3
390
F
  0
LAYER
  5
209
100
AcDbSymbolTableRecord
100
AcDbLayerTableRecord
  2
TEIL_STARTBEZUEGE
 70
0
 62
7
  6
CONTINUOUS
370
-3
390
F
  0
LAYER
  5
20A
100
AcDbSymbolTableRecord
100
AcDbLayerTableRecord
  2
T_STARTBEZUEGE
 70
0
 62
7
  6
CONTINUOUS
370
-3
390
F
  0
LAYER
  5
20B
100
AcDbSymbolTableRecord
100
AcDbLayerTableRecord
  2
ZEICHNUNGSBEMASSUNGEN
 70
0
 62
7
  6
CONTINUOUS
370
-3
390
F
  0
ENDTAB
  0
TABLE
  2
STYLE
  5
3
100
AcDbSymbolTable
 70
1
  0
STYLE
  5
11
100
AcDbSymbolTableRecord
100
AcDbTextStyleTableRecord
  2
STANDARD
 70
0
 40
0.0
 41
0.7
 50
0.0
 71
0
 42
0.2
  3
txt
  4

  0
STYLE
  5
20C
100
AcDbSymbolTableRecord
100
AcDbTextStyleTableRecord
  2
TEXTSTYLE_1
 70
0
 40
0.0
 41
0.8
 50
0.0
 71
0
 42
0.2
  3
gdt
  4

  0
ENDTAB
  0
TABLE
  2
VIEW
  5
6
100
AcDbSymbolTable
 70
0
  0
ENDTAB
  0
TABLE
  2
UCS
  5
7
100
AcDbSymbolTable
 70
0
  0
ENDTAB
  0
TABLE
  2
APPID
  5
9
100
AcDbSymbolTable
 70
1
  0
APPID
  5
20D
100
AcDbSymbolTableRecord
100
AcDbRegAppTableRecord
  2
ACAD
 70
0
  0
ENDTAB
  0
TABLE
  2
BLOCK_RECORD
  5
1
100
AcDbSymbolTable
 70
0
  0
BLOCK_RECORD
  5
20E
100
AcDbSymbolTableRecord
100
AcDbBlockTableRecord
  2
*Model_Space
  0
BLOCK_RECORD
  5
20F
100
AcDbSymbolTableRecord
100
AcDbBlockTableRecord
  2
*Paper_Space
  0
ENDTAB
  0
TABLE
  2
DIMSTYLE
  5
A
100
AcDbSymbolTable
 70
1
100
AcDbDimStyleTable
 71
0
  0
DIMSTYLE
105
210
100
AcDbSymbolTableRecord
100
AcDbDimStyleTableRecord
  2
STANDARD
 70
0
  3

  4

 40
1.0
 41
3.5
 42
0.0625
 43
0.38
 44
0.18
 45
0.0
 46
0.0
 47
0.005
 48
0.005
140
3.5
141
0.09
142
0.0
143
25.4
144
1.0
145
0.0
146
1.0
147
0.09
 71
1.0
 72
0.0
 73
0
 74
0
 75
0
 76
0
 77
1
 78
8
170
0
171
2
172
0
173
0
174
0
175
0
176
0
177
0
178
5
270
2
271
3
272
3
273
2
274
2
275
0
280
0
281
0
282
0
283
1
284
8
285
0
286
0
287
3
288
0
340
11
  0
ENDTAB
  0
ENDSEC
  0
SECTION
  2
BLOCKS
  0
BLOCK
  5
20
100
AcDbEntity
  8
0
100
AcDbBlockBegin
  2
*Model_Space
 70
0
 10
0.0
 20
0.0
 30
0.0
  3
*Model_Space
  1

  0
ENDBLK
  5
21
100
AcDbEntity
  8
0
100
AcDbBlockEnd
  0
BLOCK
  5
1C
100
AcDbEntity
  8
0
100
AcDbBlockBegin
  2
*Paper_Space
 70
0
 10
0.0
 20
0.0
 30
0.0
  3
*Paper_Space
  1

  0
ENDBLK
  5
1D
100
AcDbEntity
  8
0
100
AcDbBlockEnd
  0
ENDSEC
  0
SECTION
  2
ENTITIES
  0
MTEXT
  5
211
100
AcDbEntity
  8
0
100
AcDbMText
 62
5
  6
CONTINUOUS
  7
STANDARD
 71
1
 72
1
 10
341.6254498622
 20
478.5409032238
 30
0.0
 11
1.0
 21
0.0
 31
0.0
 44
0.9
  1
IWK-2S-13
 40
10.0
 41
72.619047619
  0
MTEXT
  5
212
100
AcDbEntity
  8
0
100
AcDbMText
 62
5
  6
CONTINUOUS
  7
STANDARD
 71
1
 72
1
 10
777.0248026102
 20
563.5076315026
 30
0.0
 11
0.0
 21
1.0
 31
0.0
 44
0.9
  1
IWK-2S-13
 40
10.0
 41
72.619047619
  0
LINE
  5
213
100
AcDbEntity
  8
0
100
AcDbLine
 62
7
  6
CONTINUOUS
 10
0.0
 20
0.0
 11
0.0
 21
841.0
  0
LINE
  5
214
100
AcDbEntity
  8
0
100
AcDbLine
 62
7
  6
CONTINUOUS
 10
0.0
 20
0.0
 11
1189.0
 21
0.0
  0
LINE
  5
215
100
AcDbEntity
  8
0
100
AcDbLine
 62
7
  6
CONTINUOUS
 10
0.0
 20
841.0
 11
1189.0
 21
841.0
  0
LINE
  5
216
100
AcDbEntity
  8
0
100
AcDbLine
 62
7
  6
CONTINUOUS
 10
1189.0
 20
0.0
 11
1189.0
 21
841.0
  0
LINE
  5
217
100
AcDbEntity
  8
BEZUGSACHSEN
100
AcDbLine
 62
7
  6
CONTINUOUS
 10
492.2082463271
 20
168.7550471997
 11
497.5295821091
 21
169.3143421277
  0
LINE
  5
218
100
AcDbEntity
  8
AUSFORMSCHRAEGEN
100
AcDbLine
 62
7
  6
CONTINUOUS
 10
492.2082463271
 20
168.7550471997
 11
497.5295821091
 21
169.3143421277
  0
LINE
  5
219
100
AcDbEntity
  8
BEZUGSACHSEN
100
AcDbLine
 62
7
  6
CONTINUOUS
 10
252.2082463271
 20
168.7550471997
 11
246.8869105452
 21
169.3143421277
  0
LINE
  5
21A
100
AcDbEntity
  8
BEZUGSACHSEN
100
AcDbLine
 62
7
  6
CONTINUOUS
 10
252.2082463271
 20
168.7550471997
 11
257.5295821091
 21
169.3143421277
  0
LINE
  5
21B
100
AcDbEntity
  8
AUSFORMSCHRAEGEN
100
AcDbLine
 62
7
  6
CONTINUOUS
 10
252.2082463271
 20
168.7550471997
 11
257.5295821091
 21
169.3143421277
  0
LINE
  5
21C
100
AcDbEntity
  8
BEZUGSACHSEN
100
AcDbLine
 62
7
  6
CONTINUOUS
 10
492.2082463271
 20
168.7550471997
 11
486.8869105452
 21
169.3143421277
  0
LINE
  5
21D
100
AcDbEntity
  8
RUNDUNGEN
100
AcDbLine
 62
7
  6
CONTINUOUS
 10
176.9458323331
 20
273.9614028734
 11
172.8500721117
 21
276.8292850552
  0
LINE
  5
21E
100
AcDbEntity
  8
BEZUGSACHSEN
100
AcDbLine
 62
7
  6
CONTINUOUS
 10
239.5046671832
 20
218.4332455329
 11
240.3966956099
 21
217.5412171062
  0
LINE
  5
21F
100
AcDbEntity
  8
BEZUGSACHSEN
100
AcDbLine
 62
7
  6
CONTINUOUS
 10
239.3033942568
 20
218.6503470881
 11
239.3189634247
 21
218.6323356806
  0
LINE
  5
220
100
AcDbEntity
  8
RUNDUNGEN
100
AcDbLine
 62
7
  6
CONTINUOUS
 10
264.0197888998
 20
258.8260854379
 11
264.9118591182
 21
257.9340152196
  0
LINE
  5
221
100
AcDbEntity
  8
BEZUGSACHSEN
100
AcDbLine
 62
7
  6
CONTINUOUS
 10
264.0197888998
 20
258.8260854379
 11
264.9118591182
 21
257.9340152196
  0
LINE
  5
222
100
AcDbEntity
  8
0
100
AcDbLine
 62
7
  6
CONTINUOUS
 10
383.7407454927
 20
288.457476957
 11
382.8657463271
 21
288.2340727283
  0
LINE
  5
223
100
AcDbEntity
  8
0
100
AcDbLine
 62
7
  6
CONTINUOUS
 10
373.2407467444
 20
288.457476957
 11
372.3657463271
 21
288.2340727283
  0
LINE
  5
224
100
AcDbEntity
  8
0
100
AcDbLine
 62
7
  6
CONTINUOUS
 10
382.8657463271
 20
286.8936471997
 11
383.9594971616
 21
287.117051448
  0
LINE
  5
225
100
AcDbEntity
  8
0
100
AcDbLine
 62
7
  6
CONTINUOUS
 10
372.3657463271
 20
286.8936471997
 11
373.4594959099
 21
287.117051448
  0
LINE
  5
226
100
AcDbEntity
  8
BEZUGSACHSEN
100
AcDbLine
 62
7
  6
CONTINUOUS
 10
260.1582463271
 20
265.0455152804
 11
372.2082463271
 21
284.8029534687
  0
LINE
  5
227
100
AcDbEntity
  8
0
100
AcDbLine
 62
7
  6
CONTINUOUS
 10
303.8378276043
 20
286.8121427993
 11
302.8066410795
 21
286.7815505255
  0
LINE
  5
228
100
AcDbEntity
  8
0
100
AcDbLine
 62
7
  6
CONTINUOUS
 10
303.596820688
 20
283.1400367695
 11
304.4843899633
 21
283.1453054473
  0
LINE
  5
229
100
AcDbEntity
  8
0
100
AcDbLine
 62
7
  6
CONTINUOUS
 10
357.9282463271
 20
286.8936471997
 11
359.2407463271
 21
286.8936471997
  0
LINE
  5
22A
100
AcDbEntity
  8
0
100
AcDbLine
 62
7
  6
CONTINUOUS
 10
364.7094961185
 20
286.8936471997
 11
366.2407465358
 21
286.8936471997
  0
LINE
  5
22B
100
AcDbEntity
  8
0
100
AcDbLine
 62
7
  6
CONTINUOUS
 10
371.4907459099
 20
286.8936471997
 11
372.3657463271
 21
286.8936471997
  0
LINE
  5
22C
100
AcDbEntity
  8
0
100
AcDbLine
 62
7
  6
CONTINUOUS
 10
377.6157463271
 20
286.8936471997
 11
382.8657463271
 21
286.8936471997
  0
LINE
  5
22D
100
AcDbEntity
  8
0
100
AcDbLine
 62
7
  6
CONTINUOUS
 10
382.8657463271
 20
288.2340727283
 11
378.9282463271
 21
288.2340727283
  0
LINE
  5
22E
100
AcDbEntity
  8
0
100
AcDbLine
 62
7
  6
CONTINUOUS
 10
372.3657463271
 20
288.2340727283
 11
371.4907459099
 21
288.2340727283
  0
LINE
  5
22F
100
AcDbEntity
  8
0
100
AcDbLine
 62
7
  6
CONTINUOUS
 10
303.3183935628
 20
280.5199687819
 11
302.5744431805
 21
280.5400239898
  0
LINE
  5
230
100
AcDbEntity
  8
0
100
AcDbLine
 62
7
  6
CONTINUOUS
 10
318.0708605141
 20
282.516291714
 11
318.8148108987
 21
282.4962364932
  0
LINE
  5
231
100
AcDbEntity
  8
0
100
AcDbLine
 62
7
  6
CONTINUOUS
 10
303.0795707863
 20
286.0735067333
 11
303.8235228122
 21
286.0534518151
  0
LINE
  5
232
100
AcDbEntity
  8
0
100
AcDbLine
 62
7
  6
CONTINUOUS
 10
319.6357842132
 20
289.5977487895
 11
318.8918338308
 21
289.6178039975
  0
LINE
  5
233
100
AcDbEntity
  8
0
100
AcDbLine
 62
7
  6
CONTINUOUS
 10
302.7037556536
 20
279.8066565117
 11
303.3040887887
 21
279.7612776949
  0
LINE
  5
234
100
AcDbEntity
  8
0
100
AcDbLine
 62
7
  6
CONTINUOUS
 10
318.6596359318
 20
283.3762774618
 11
318.0593011554
 21
283.4216559759
  0
LINE
  5
235
100
AcDbEntity
  8
0
100
AcDbLine
 62
7
  6
CONTINUOUS
 10
319.0470087796
 20
288.7377631316
 11
319.6473435561
 21
288.6923846175
  0
LINE
  5
236
100
AcDbEntity
  8
0
100
AcDbLine
 62
7
  6
CONTINUOUS
 10
305.4638515052
 20
283.4692446764
 11
304.6940386314
 21
283.635973362
  0
LINE
  5
237
100
AcDbEntity
  8
0
100
AcDbLine
 62
7
  6
CONTINUOUS
 10
302.0775583789
 20
279.998708542
 11
302.7037556536
 21
279.8066565117
  0
LINE
  5
238
100
AcDbEntity
  8
0
100
AcDbLine
 62
7
  6
CONTINUOUS
 10
302.5744431805
 20
280.5400239898
 11
302.2613445465
 21
280.6360499857
  0
LINE
  5
239
100
AcDbEntity
  8
0
100
AcDbLine
 62
7
  6
CONTINUOUS
 10
304.4640232286
 20
286.6200905177
 11
303.8378276043
 21
286.8121427993
  0
LINE
  5
23A
100
AcDbEntity
  8
0
100
AcDbLine
 62
7
  6
CONTINUOUS
 10
317.4446632394
 20
282.7083437443
 11
318.0708605141
 21
282.516291714
  0
LINE
  5
23B
100
AcDbEntity
  8
0
100
AcDbLine
 62
7
  6
CONTINUOUS
 10
320.2619814811
 20
289.4056967977
 11
319.6357842132
 21
289.5977487895
  0
LINE
  5
23C
100
AcDbEntity
  8
0
100
AcDbLine
 62
7
  6
CONTINUOUS
 10
301.594979995
 20
280.2160844709
 11
302.0775583789
 21
279.998708542
  0
LINE
  5
23D
100
AcDbEntity
  8
0
100
AcDbLine
 62
7
  6
CONTINUOUS
 10
304.4843899633
 20
283.1453054473
 11
304.9669683382
 21
282.9279295697
  0
LINE
  5
23E
100
AcDbEntity
  8
0
100
AcDbLine
 62
7
  6
CONTINUOUS
 10
303.8235228122
 20
286.0534518151
 11
304.306101187
 21
285.8360759375
  0
LINE
  5
23F
100
AcDbEntity
  8
0
100
AcDbLine
 62
7
  6
CONTINUOUS
 10
318.0593011554
 20
283.4216559759
 11
317.5767227624
 21
283.6390319562
  0
LINE
  5
240
100
AcDbEntity
  8
0
100
AcDbLine
 62
7
  6
CONTINUOUS
 10
302.2613445465
 20
280.6360499857
 11
301.922383403
 21
280.878749562
  0
LINE
  5
241
100
AcDbEntity
  8
RUNDUNGEN
100
AcDbLine
 62
7
  6
CONTINUOUS
 10
265.1059502826
 20
257.725239499
 11
265.1015197031
 21
257.7303554285
  0
LINE
  5
242
100
AcDbEntity
  8
RUNDUNGEN
100
AcDbLine
 62
7
  6
CONTINUOUS
 10
265.1437987497
 20
257.6807414496
 11
265.1255393548
 21
257.7023821026
  0
LINE
  5
243
100
AcDbEntity
  8
RUNDUNGEN
100
AcDbLine
 62
7
  6
CONTINUOUS
 10
265.1846647922
 20
257.6312013481
 11
265.1657989795
 21
257.6542891465
  0
LWPOLYLINE
  5
244
100
AcDbEntity
  8
RUNDUNGEN
100
AcDbPolyline
 62
7
  6
CONTINUOUS
 90
9
 70
0
 10
265.3878762832
 20
257.3568888615
 10
265.3592238114
 20
257.398736433
 10
265.3310633802
 20
257.4387614819
 10
265.3036634746
 20
257.4767044636
 10
265.2772572089
 20
257.5123826705
 10
265.2519999206
 20
257.5457351097
 10
265.2280500083
 20
257.5766961764
 10
265.2055955551
 20
257.6051552739
 10
265.1846647922
 20
257.6312013481
  0
LWPOLYLINE
  5
245
100
AcDbEntity
  8
RUNDUNGEN
100
AcDbPolyline
 62
7
  6
CONTINUOUS
 90
4
 70
0
 10
265.4772033426
 20
257.218435036
 10
265.4469579708
 20
257.2667622506
 10
265.417110581
 20
257.3129661395
 10
265.3878762832
 20
257.3568888615
  0
LINE
  5
246
100
AcDbEntity
  8
0
100
AcDbLine
 62
7
  6
CONTINUOUS
 10
285.2082463271
 20
276.5704924303
 11
286.069953111
 21
276.7224345858
  0
LINE
  5
247
100
AcDbEntity
  8
0
100
AcDbLine
 62
7
  6
CONTINUOUS
 10
288.3678379365
 20
277.1276136791
 11
289.5167802466
 21
277.3302032076
  0
LINE
  5
248
100
AcDbEntity
  8
0
100
AcDbLine
 62
7
  6
CONTINUOUS
 10
291.8146648666
 20
277.7353822647
 11
292.9636073821
 21
277.9379718294
  0
LINE
  5
249
100
AcDbEntity
  8
0
100
AcDbLine
 62
7
  6
CONTINUOUS
 10
299.2827910118
 20
279.0522143994
 11
300.1444977957
 21
279.2041565549
  0
LINE
  5
24A
100
AcDbEntity
  8
0
100
AcDbLine
 62
7
  6
CONTINUOUS
 10
303.3040887887
 20
279.7612776949
 11
304.4530317151
 21
279.9638673322
  0
LINE
  5
24B
100
AcDbEntity
  8
0
100
AcDbLine
 62
7
  6
CONTINUOUS
 10
314.5062769793
 20
281.7365257159
 11
315.3679837631
 21
281.8884678714
  0
LINE
  5
24C
100
AcDbEntity
  8
0
100
AcDbLine
 62
7
  6
CONTINUOUS
 10
318.8148108987
 20
282.4962364932
 11
320.1073710745
 21
282.7241497264
  0
LINE
  5
24D
100
AcDbEntity
  8
0
100
AcDbLine
 62
7
  6
CONTINUOUS
 10
323.2669637111
 20
283.2812711563
 11
328.4372044145
 21
284.192924089
  0
LINE
  5
24E
100
AcDbEntity
  8
0
100
AcDbLine
 62
7
  6
CONTINUOUS
 10
304.1801003467
 20
280.6719109373
 11
303.3183935628
 21
280.5199687819
  0
LINE
  5
24F
100
AcDbEntity
  8
0
100
AcDbLine
 62
7
  6
CONTINUOUS
 10
328.2820294476
 20
285.0729650576
 11
323.9734955281
 21
284.3132542803
  0
LINE
  5
250
100
AcDbEntity
  8
0
100
AcDbLine
 62
7
  6
CONTINUOUS
 10
319.9521961076
 20
283.604190695
 11
318.6596359318
 21
283.3762774618
  0
LINE
  5
251
100
AcDbEntity
  8
0
100
AcDbLine
 62
7
  6
CONTINUOUS
 10
301.7270411706
 20
281.1467729213
 11
301.0089516362
 21
281.0201543618
  0
LINE
  5
252
100
AcDbEntity
  8
0
100
AcDbLine
 62
7
  6
CONTINUOUS
 10
321.8076692074
 20
284.8387631664
 11
320.9459624235
 21
284.686821011
  0
LINE
  5
253
100
AcDbEntity
  8
0
100
AcDbLine
 62
7
  6
CONTINUOUS
 10
294.821830022
 20
280.8366002844
 11
296.8324789104
 21
281.1911319321
  0
LINE
  5
254
100
AcDbEntity
  8
0
100
AcDbLine
 62
7
  6
CONTINUOUS
 10
296.7031664169
 20
281.9244995258
 11
294.6925175284
 21
281.569967878
  0
LINE
  5
255
100
AcDbEntity
  8
0
100
AcDbLine
 62
7
  6
CONTINUOUS
 10
303.0223500466
 20
283.0387420958
 11
303.596820688
 21
283.1400367695
  0
LINE
  5
256
100
AcDbEntity
  8
0
100
AcDbLine
 62
7
  6
CONTINUOUS
 10
323.5596956104
 20
286.6600302308
 11
327.2937572448
 21
287.3184460446
  0
LINE
  5
257
100
AcDbEntity
  8
0
100
AcDbLine
 62
7
  6
CONTINUOUS
 10
303.4933707221
 20
283.7267306801
 11
302.9189000807
 21
283.6254360064
  0
LINE
  5
258
100
AcDbEntity
  8
0
100
AcDbLine
 62
7
  6
CONTINUOUS
 10
327.1385822961
 20
288.1984869105
 11
323.4045206616
 21
287.5400710967
  0
LINE
  5
259
100
AcDbEntity
  8
0
100
AcDbLine
 62
7
  6
CONTINUOUS
 10
320.3511250837
 20
288.0603112022
 11
321.2128318675
 21
288.2122533577
  0
LINE
  5
25A
100
AcDbEntity
  8
0
100
AcDbLine
 62
7
  6
CONTINUOUS
 10
300.5060081339
 20
284.712315805
 11
301.2240960248
 21
284.8389340747
  0
LINE
  5
25B
100
AcDbEntity
  8
0
100
AcDbLine
 62
7
  6
CONTINUOUS
 10
317.7544486038
 20
288.5098498984
 11
319.0470087796
 21
288.7377631316
  0
LINE
  5
25C
100
AcDbEntity
  8
0
100
AcDbLine
 62
7
  6
CONTINUOUS
 10
323.0683082001
 20
289.4468267169
 11
327.3768421196
 21
290.2065374942
  0
LINE
  5
25D
100
AcDbEntity
  8
0
100
AcDbLine
 62
7
  6
CONTINUOUS
 10
302.5051001449
 20
285.9722120596
 11
303.0795707863
 21
286.0735067333
  0
LINE
  5
25E
100
AcDbEntity
  8
0
100
AcDbLine
 62
7
  6
CONTINUOUS
 10
327.2216671708
 20
291.0865783601
 11
322.0514264675
 21
290.1749254274
  0
LINE
  5
25F
100
AcDbEntity
  8
0
100
AcDbLine
 62
7
  6
CONTINUOUS
 10
318.8918338308
 20
289.6178039975
 11
317.599273655
 21
289.3898907643
  0
LINE
  5
260
100
AcDbEntity
  8
0
100
AcDbLine
 62
7
  6
CONTINUOUS
 10
314.1524465195
 20
288.7821221424
 11
313.2907397356
 21
288.630179987
  0
LINE
  5
261
100
AcDbEntity
  8
0
100
AcDbLine
 62
7
  6
CONTINUOUS
 10
302.8066410795
 20
286.7815505255
 11
302.519404937
 21
286.7309030438
  0
LINE
  5
262
100
AcDbEntity
  8
0
100
AcDbLine
 62
7
  6
CONTINUOUS
 10
298.928960552
 20
286.0978108259
 11
298.0672537681
 21
285.9458686705
  0
LINE
  5
263
100
AcDbEntity
  8
0
100
AcDbLine
 62
7
  6
CONTINUOUS
 10
292.897012243
 20
285.0342155928
 11
292.0353054591
 21
284.8822734374
  0
LINE
  5
264
100
AcDbEntity
  8
0
100
AcDbLine
 62
7
  6
CONTINUOUS
 10
290.0246565707
 20
284.5277417896
 11
288.8757140552
 21
284.3251522248
  0
LINE
  5
265
100
AcDbEntity
  8
0
100
AcDbLine
 62
7
  6
CONTINUOUS
 10
286.8650649613
 20
283.9706205409
 11
286.0033581774
 21
283.8186783854
  0
LINE
  5
266
100
AcDbEntity
  8
0
100
AcDbLine
 62
7
  6
CONTINUOUS
 10
284.8544158674
 20
283.6160888569
 11
283.9927090835
 21
283.4641467014
  0
LINE
  5
267
100
AcDbEntity
  8
BEZUGSACHSEN
100
AcDbLine
 62
7
  6
CONTINUOUS
 10
492.2082463271
 20
307.6122471997
 11
486.8869105452
 21
307.0529522718
  0
LINE
  5
268
100
AcDbEntity
  8
0
100
AcDbLine
 62
7
  6
CONTINUOUS
 10
359.2407463271
 20
291.585136628
 11
362.9594962228
 21
291.585136628
  0
LINE
  5
269
100
AcDbEntity
  8
0
100
AcDbLine
 62
7
  6
CONTINUOUS
 10
363.3969961185
 20
292.9255620001
 11
359.2407463271
 21
292.9255620001
  0
LINE
  5
26A
100
AcDbEntity
  8
0
100
AcDbLine
 62
7
  6
CONTINUOUS
 10
378.9282463271
 20
296.0532218276
 11
382.8657463271
 21
296.0532218276
  0
LINE
  5
26B
100
AcDbEntity
  8
0
100
AcDbLine
 62
7
  6
CONTINUOUS
 10
359.2407463271
 20
296.2766260563
 11
363.3969961185
 21
296.2766260563
  0
LINE
  5
26C
100
AcDbEntity
  8
0
100
AcDbLine
 62
7
  6
CONTINUOUS
 10
382.8657463271
 20
297.3936471997
 11
377.6157463271
 21
297.3936471997
  0
LINE
  5
26D
100
AcDbEntity
  8
0
100
AcDbLine
 62
7
  6
CONTINUOUS
 10
375.8657467444
 20
297.3936471997
 11
374.5532467444
 21
297.3936471997
  0
LINE
  5
26E
100
AcDbEntity
  8
0
100
AcDbLine
 62
7
  6
CONTINUOUS
 10
369.3032467444
 20
297.3936471997
 11
367.9907461185
 21
297.3936471997
  0
LINE
  5
26F
100
AcDbEntity
  8
0
100
AcDbLine
 62
7
  6
CONTINUOUS
 10
363.1782463271
 20
297.3936471997
 11
357.9282463271
 21
297.3936471997
  0
LINE
  5
270
100
AcDbEntity
  8
AUSFORMSCHRAEGEN
100
AcDbLine
 62
7
  6
CONTINUOUS
 10
252.2082463271
 20
307.6122471997
 11
257.5295821091
 21
307.0529522718
  0
LINE
  5
271
100
AcDbEntity
  8
BEZUGSACHSEN
100
AcDbLine
 62
7
  6
CONTINUOUS
 10
252.2082463271
 20
307.6122471997
 11
257.5295821091
 21
307.0529522718
  0
LINE
  5
272
100
AcDbEntity
  8
BEZUGSACHSEN
100
AcDbLine
 62
7
  6
CONTINUOUS
 10
484.2582463271
 20
265.0455152804
 11
372.2082463271
 21
284.8029534687
  0
LINE
  5
273
100
AcDbEntity
  8
0
100
AcDbLine
 62
7
  6
CONTINUOUS
 10
370.3969963271
 20
287.117051448
 11
371.4907459099
 21
286.8936471997
  0
LINE
  5
274
100
AcDbEntity
  8
0
100
AcDbLine
 62
7
  6
CONTINUOUS
 10
364.2719965358
 20
297.170242971
 11
363.1782463271
 21
297.3936471997
  0
LINE
  5
275
100
AcDbEntity
  8
0
100
AcDbLine
 62
7
  6
CONTINUOUS
 10
383.9594971616
 20
297.170242971
 11
382.8657463271
 21
297.3936471997
  0
LINE
  5
276
100
AcDbEntity
  8
0
100
AcDbLine
 62
7
  6
CONTINUOUS
 10
371.4907459099
 20
288.2340727283
 11
370.6157467444
 21
288.457476957
  0
LINE
  5
277
100
AcDbEntity
  8
0
100
AcDbLine
 62
7
  6
CONTINUOUS
 10
382.8657463271
 20
296.0532218276
 11
383.7407454927
 21
295.8298175989
  0
LINE
  5
278
100
AcDbEntity
  8
0
100
AcDbLine
 62
7
  6
CONTINUOUS
 10
363.3969961185
 20
296.2766260563
 11
364.0532461185
 21
296.0532218276
  0
LINE
  5
279
100
AcDbEntity
  8
0
100
AcDbLine
 62
7
  6
CONTINUOUS
 10
319.6473435561
 20
288.6923846175
 11
320.1299219309
 21
288.4750087399
  0
LINE
  5
27A
100
AcDbEntity
  8
0
100
AcDbLine
 62
7
  6
CONTINUOUS
 10
305.1419454795
 20
286.1346915706
 11
304.4640232286
 21
286.6200905177
  0
LINE
  5
27B
100
AcDbEntity
  8
0
100
AcDbLine
 62
7
  6
CONTINUOUS
 10
316.7667409795
 20
283.1937427427
 11
317.4446632394
 21
282.7083437443
  0
LINE
  5
27C
100
AcDbEntity
  8
0
100
AcDbLine
 62
7
  6
CONTINUOUS
 10
320.9399037319
 20
288.9202978507
 11
320.2619814811
 21
289.4056967977
  0
LINE
  5
27D
100
AcDbEntity
  8
0
100
AcDbLine
 62
7
  6
CONTINUOUS
 10
301.2301580217
 20
280.6054577119
 11
301.594979995
 21
280.2160844709
  0
LINE
  5
27E
100
AcDbEntity
  8
0
100
AcDbLine
 62
7
  6
CONTINUOUS
 10
305.8286751221
 20
283.0798717252
 11
305.4638515052
 21
283.4692446764
  0
LINE
  5
27F
100
AcDbEntity
  8
0
100
AcDbLine
 62
7
  6
CONTINUOUS
 10
304.306101187
 20
285.8360759375
 11
304.6709231603
 21
285.4467026966
  0
LINE
  5
280
100
AcDbEntity
  8
RUNDUNGEN
100
AcDbLine
 62
7
  6
CONTINUOUS
 10
265.5077053323
 20
257.1680453969
 11
265.4772033426
 21
257.218435036
  0
LINE
  5
281
100
AcDbEntity
  8
BEZUGSACHSEN
100
AcDbLine
 62
7
  6
CONTINUOUS
 10
252.2082463271
 20
307.6122471997
 11
246.8869105452
 21
307.0529522718
  0
LINE
  5
282
100
AcDbEntity
  8
0
100
AcDbLine
 62
7
  6
CONTINUOUS
 10
347.3263135232
 20
332.1836471997
 11
338.5130988151
 21
332.1836471997
  0
LINE
  5
283
100
AcDbEntity
  8
BEZUGSACHSEN
100
AcDbLine
 62
7
  6
CONTINUOUS
 10
397.0902555536
 20
332.1836471997
 11
405.9033938392
 21
332.1836471997
  0
LINE
  5
284
100
AcDbEntity
  8
AUSFORMSCHRAEGEN
100
AcDbLine
 62
7
  6
CONTINUOUS
 10
492.2082463271
 20
307.6122471997
 11
497.5295821091
 21
307.0529522718
  0
LINE
  5
285
100
AcDbEntity
  8
BEZUGSACHSEN
100
AcDbLine
 62
7
  6
CONTINUOUS
 10
492.2082463271
 20
307.6122471997
 11
497.5295821091
 21
307.0529522718
  0
LINE
  5
286
100
AcDbEntity
  8
0
100
AcDbLine
 62
7
  6
CONTINUOUS
 10
369.5219959099
 20
287.563859964
 11
370.3969963271
 21
287.117051448
  0
LINE
  5
287
100
AcDbEntity
  8
0
100
AcDbLine
 62
7
  6
CONTINUOUS
 10
384.8344963271
 20
296.7234345137
 11
383.9594971616
 21
297.170242971
  0
LINE
  5
288
100
AcDbEntity
  8
0
100
AcDbLine
 62
7
  6
CONTINUOUS
 10
370.6157467444
 20
288.457476957
 11
369.9594967444
 21
288.9042855708
  0
LINE
  5
289
100
AcDbEntity
  8
RUNDUNGEN
100
AcDbLine
 62
7
  6
CONTINUOUS
 10
235.9805865585
 20
366.989003427
 11
240.0763467799
 21
364.1211212452
  0
LINE
  5
28A
100
AcDbEntity
  8
0
100
AcDbLine
 62
7
  6
CONTINUOUS
 10
317.5767227624
 20
283.6390319562
 11
317.2119007891
 21
284.0284051972
  0
LINE
  5
28B
100
AcDbEntity
  8
0
100
AcDbLine
 62
7
  6
CONTINUOUS
 10
301.922383403
 20
280.878749562
 11
301.7270411706
 21
281.1467729213
  0
LINE
  5
28C
100
AcDbEntity
  8
0
100
AcDbLine
 62
7
  6
CONTINUOUS
 10
304.9669683382
 20
282.9279295697
 11
305.3576544828
 21
282.3918829355
  0
LINE
  5
28D
100
AcDbEntity
  8
0
100
AcDbLine
 62
7
  6
CONTINUOUS
 10
316.3760564967
 20
283.7297895641
 11
316.7667409795
 21
283.1937427427
  0
LINE
  5
28E
100
AcDbEntity
  8
BEZUGSACHSEN
100
AcDbLine
 62
7
  6
CONTINUOUS
 10
241.5050006037
 20
215.3183084586
 11
244.1630186571
 21
196.4055272797
  0
LWPOLYLINE
  5
28F
100
AcDbEntity
  8
RUNDUNGEN
100
AcDbPolyline
 62
7
  6
CONTINUOUS
 90
3
 70
0
 10
244.2582463271
 20
255.9357840196
 10
244.2660970289
 20
255.7606843878
 10
244.2814766207
 20
255.635175171
  0
LINE
  5
290
100
AcDbEntity
  8
0
100
AcDbLine
 62
7
  6
CONTINUOUS
 10
383.7407454927
 20
295.8298175989
 11
384.3969954927
 21
295.3830091415
  0
LINE
  5
291
100
AcDbEntity
  8
KONSTRUKTIONSELEMENTE
100
AcDbLine
 62
7
  6
CONTINUOUS
 10
239.7758635069
 20
384.7005205451
 11
243.8716237284
 21
381.8326383633
  0
LINE
  5
292
100
AcDbEntity
  8
KONSTRUKTIONSELEMENTE
100
AcDbLine
 62
7
  6
CONTINUOUS
 10
240.0626517251
 20
385.1100965672
 11
244.1584119465
 21
382.2422143855
  0
LINE
  5
293
100
AcDbEntity
  8
RUNDUNGEN
100
AcDbLine
 62
7
  6
CONTINUOUS
 10
250.7140002047
 20
379.3132647803
 11
246.6182399833
 21
382.1811469621
  0
LINE
  5
294
100
AcDbEntity
  8
0
100
AcDbLine
 62
7
  6
CONTINUOUS
 10
365.1469963271
 20
296.500030285
 11
364.2719965358
 21
297.170242971
  0
LINE
  5
295
100
AcDbEntity
  8
0
100
AcDbLine
 62
7
  6
CONTINUOUS
 10
368.6469967444
 20
288.457476957
 11
369.5219959099
 21
287.563859964
  0
LINE
  5
296
100
AcDbEntity
  8
0
100
AcDbLine
 62
7
  6
CONTINUOUS
 10
364.0532461185
 20
296.0532218276
 11
364.4907463271
 21
295.6064133702
  0
LINE
  5
297
100
AcDbEntity
  8
0
100
AcDbLine
 62
7
  6
CONTINUOUS
 10
301.0089516362
 20
281.0201543618
 11
301.2301580217
 21
280.6054577119
  0
LINE
  5
298
100
AcDbEntity
  8
RUNDUNGEN
100
AcDbLine
 62
7
  6
CONTINUOUS
 10
279.9509523539
 20
324.2574405865
 11
291.0293208106
 21
300.4998027632
  0
LINE
  5
299
100
AcDbEntity
  8
0
100
AcDbLine
 62
7
  6
CONTINUOUS
 10
306.0757423736
 20
282.5185012051
 11
305.8286751221
 21
283.0798717252
  0
LINE
  5
29A
100
AcDbEntity
  8
0
100
AcDbLine
 62
7
  6
CONTINUOUS
 10
305.3890126948
 20
285.573321256
 11
305.1419454795
 21
286.1346915706
  0
LINE
  5
29B
100
AcDbEntity
  8
0
100
AcDbLine
 62
7
  6
CONTINUOUS
 10
292.1046484766
 20
279.4500854704
 11
290.0246565707
 21
284.5277417896
  0
LINE
  5
29C
100
AcDbEntity
  8
0
100
AcDbLine
 62
7
  6
CONTINUOUS
 10
289.6829479416
 20
283.1063857447
 11
291.8146648666
 21
277.7353822647
  0
LINE
  5
29D
100
AcDbEntity
  8
0
100
AcDbLine
 62
7
  6
CONTINUOUS
 10
286.0033581774
 20
283.8186783854
 11
288.3678379365
 21
277.1276136791
  0
LINE
  5
29E
100
AcDbEntity
  8
0
100
AcDbLine
 62
7
  6
CONTINUOUS
 10
288.657821752
 20
278.842316921
 11
286.8650649613
 21
283.9706205409
  0
LINE
  5
29F
100
AcDbEntity
  8
RUNDUNGEN
100
AcDbLine
 62
7
  6
CONTINUOUS
 10
262.296820181
 20
265.422603551
 11
262.9114918852
 21
261.0489871175
  0
LINE
  5
2A0
100
AcDbEntity
  8
BEZUGSACHSEN
100
AcDbLine
 62
7
  6
CONTINUOUS
 10
262.296820181
 20
265.422603551
 11
262.9114918852
 21
261.0489871175
  0
LINE
  5
2A1
100
AcDbEntity
  8
BEZUGSACHSEN
100
AcDbLine
 62
7
  6
CONTINUOUS
 10
244.2644502004
 20
255.7800964391
 11
244.2814766225
 21
255.6351751594
  0
LWPOLYLINE
  5
2A2
100
AcDbEntity
  8
RUNDUNGEN
100
AcDbPolyline
 62
7
  6
CONTINUOUS
 90
25
 70
0
 10
266.048022298
 20
255.4484953361
 10
266.0478301745
 20
255.4516791093
 10
266.0395094953
 20
255.5488669442
 10
266.0289909285
 20
255.6440409806
 10
266.016407488
 20
255.7371821293
 10
266.0018845164
 20
255.8282820537
 10
265.9855418198
 20
255.9173461153
 10
265.9675045113
 20
256.0043445819
 10
265.9478993025
 20
256.0892455004
 10
265.9268451683
 20
256.1720509793
 10
265.9044630581
 20
256.2527494429
 10
265.8808588573
 20
256.3313608575
 10
265.8561287027
 20
256.4079128341
 10
265.8303786752
 20
256.4823986831
 10
265.8037159082
 20
256.5548119561
 10
265.7762417231
 20
256.6251636164
 10
265.7480682005
 20
256.6934385092
 10
265.7192706189
 20
256.7597018821
 10
265.6899055936
 20
256.8240311706
 10
265.6600791455
 20
256.8863905418
 10
265.6298844922
 20
256.9467800646
 10
265.599444576
 20
257.0051486056
 10
265.568910784
 20
257.0614060896
 10
265.5383273305
 20
257.1156609915
 10
265.5077053323
 20
257.1680453969
  0
LINE
  5
2A3
100
AcDbEntity
  8
BEZUGSACHSEN
100
AcDbLine
 62
7
  6
CONTINUOUS
 10
244.2582463271
 20
255.9357840215
 11
244.2644502004
 21
255.7800964391
  0
LINE
  5
2A4
100
AcDbEntity
  8
RUNDUNGEN
100
AcDbLine
 62
7
  6
CONTINUOUS
 10
238.3582463271
 20
252.7057590504
 11
238.3582463271
 21
246.1088454552
  0
LINE
  5
2A5
100
AcDbEntity
  8
BEZUGSACHSEN
100
AcDbLine
 62
7
  6
CONTINUOUS
 10
238.3582463271
 20
221.2009029112
 11
238.3582463271
 21
255.1663914658
  0
LINE
  5
2A6
100
AcDbEntity
  8
BEZUGSACHSEN
100
AcDbLine
 62
7
  6
CONTINUOUS
 10
244.2582463271
 20
195.043708742
 11
244.2582463271
 21
172.2337695055
  0
LINE
  5
2A7
100
AcDbEntity
  8
RUNDUNGEN
100
AcDbLine
 62
7
  6
CONTINUOUS
 10
244.2582463271
 20
255.9355228127
 11
244.2582463271
 21
304.1335248939
  0
LINE
  5
2A8
100
AcDbEntity
  8
BEZUGSACHSEN
100
AcDbLine
 62
7
  6
CONTINUOUS
 10
244.2582463271
 20
255.9355227796
 11
244.2582463271
 21
304.1335248939
  0
LINE
  5
2A9
100
AcDbEntity
  8
0
100
AcDbLine
 62
7
  6
CONTINUOUS
 10
385.7094954927
 20
295.8298175989
 11
384.8344963271
 21
296.7234345137
  0
LINE
  5
2AA
100
AcDbEntity
  8
0
100
AcDbLine
 62
7
  6
CONTINUOUS
 10
365.8032463271
 20
295.6064133702
 11
365.1469963271
 21
296.500030285
  0
LINE
  5
2AB
100
AcDbEntity
  8
0
100
AcDbLine
 62
7
  6
CONTINUOUS
 10
320.1299219309
 20
288.4750087399
 11
320.3511250837
 21
288.0603112022
  0
LINE
  5
2AC
100
AcDbEntity
  8
0
100
AcDbLine
 62
7
  6
CONTINUOUS
 10
317.2119007891
 20
284.0284051972
 11
316.9648319302
 21
284.589775222
  0
LINE
  5
2AD
100
AcDbEntity
  8
0
100
AcDbLine
 62
7
  6
CONTINUOUS
 10
316.1031251463
 20
284.4378330665
 11
316.3760564967
 21
283.7297895641
  0
LINE
  5
2AE
100
AcDbEntity
  8
0
100
AcDbLine
 62
7
  6
CONTINUOUS
 10
321.2128318675
 20
288.2122533577
 11
320.9399037319
 21
288.9202978507
  0
LINE
  5
2AF
100
AcDbEntity
  8
0
100
AcDbLine
 62
7
  6
CONTINUOUS
 10
283.9927090835
 20
283.4641467014
 11
285.2082463271
 21
276.5704924303
  0
LINE
  5
2B0
100
AcDbEntity
  8
0
100
AcDbLine
 62
7
  6
CONTINUOUS
 10
286.069953111
 20
276.7224345858
 11
284.8544158674
 21
283.6160888569
  0
LINE
  5
2B1
100
AcDbEntity
  8
RUNDUNGEN
100
AcDbLine
 62
7
  6
CONTINUOUS
 10
260.1582463271
 20
304.1335248939
 11
260.1582463271
 21
255.9357820937
  0
LINE
  5
2B2
100
AcDbEntity
  8
BEZUGSACHSEN
100
AcDbLine
 62
7
  6
CONTINUOUS
 10
260.1582463271
 20
304.1335248939
 11
260.1582463271
 21
255.9357820918
  0
LINE
  5
2B3
100
AcDbEntity
  8
RUNDUNGEN
100
AcDbLine
 62
7
  6
CONTINUOUS
 10
260.1582463271
 20
195.043708742
 11
260.1582463271
 21
172.2337695055
  0
LINE
  5
2B4
100
AcDbEntity
  8
BEZUGSACHSEN
100
AcDbLine
 62
7
  6
CONTINUOUS
 10
266.0582463271
 20
255.1663914658
 11
266.0582463271
 21
248.223918971
  0
LINE
  5
2B5
100
AcDbEntity
  8
RUNDUNGEN
100
AcDbLine
 62
7
  6
CONTINUOUS
 10
266.0582463271
 20
255.1663914658
 11
266.0582463271
 21
221.2009029112
  0
LINE
  5
2B6
100
AcDbEntity
  8
0
100
AcDbLine
 62
7
  6
CONTINUOUS
 10
266.2082463271
 20
677.1836471997
 11
266.2082463271
 21
557.1836471997
  0
LINE
  5
2B7
100
AcDbEntity
  8
RUNDUNGEN
100
AcDbLine
 62
7
  6
CONTINUOUS
 10
260.1503955215
 20
255.7606794398
 11
260.1582463271
 21
255.9357820918
  0
LINE
  5
2B8
100
AcDbEntity
  8
BEZUGSACHSEN
100
AcDbLine
 62
7
  6
CONTINUOUS
 10
242.1535919493
 20
265.6639531633
 11
241.5050007691
 21
261.0489871175
  0
LINE
  5
2B9
100
AcDbEntity
  8
BEZUGSACHSEN
100
AcDbLine
 62
7
  6
CONTINUOUS
 10
431.2122694641
 20
347.487340869
 11
461.0797136234
 21
333.559922928
  0
LINE
  5
2BA
100
AcDbEntity
  8
BEZUGSACHSEN
100
AcDbLine
 62
7
  6
CONTINUOUS
 10
479.5046671832
 20
218.4332455329
 11
480.3966956099
 21
217.5412171062
  0
LINE
  5
2BB
100
AcDbEntity
  8
BEZUGSACHSEN
100
AcDbLine
 62
7
  6
CONTINUOUS
 10
479.3033942568
 20
218.6503470881
 11
479.3189634247
 21
218.6323356806
  0
LINE
  5
2BC
100
AcDbEntity
  8
0
100
AcDbLine
 62
7
  6
CONTINUOUS
 10
369.9594967444
 20
288.9042855708
 11
369.5219959099
 21
289.5744982569
  0
LINE
  5
2BD
100
AcDbEntity
  8
0
100
AcDbLine
 62
7
  6
CONTINUOUS
 10
384.3969954927
 20
295.3830091415
 11
384.8344963271
 21
294.7127958296
  0
LINE
  5
2BE
100
AcDbEntity
  8
0
100
AcDbLine
 62
7
  6
CONTINUOUS
 10
294.6925175284
 20
281.569967878
 11
294.821830022
 21
280.8366002844
  0
LINE
  5
2BF
100
AcDbEntity
  8
0
100
AcDbLine
 62
7
  6
CONTINUOUS
 10
296.8324789104
 20
281.1911319321
 11
296.7031664169
 21
281.9244995258
  0
LINE
  5
2C0
100
AcDbEntity
  8
0
100
AcDbLine
 62
7
  6
CONTINUOUS
 10
297.3865836027
 20
284.7672120266
 11
297.5934836069
 21
283.5938237946
  0
LINE
  5
2C1
100
AcDbEntity
  8
0
100
AcDbLine
 62
7
  6
CONTINUOUS
 10
298.2741536998
 20
284.7724808493
 11
299.2827910118
 21
279.0522143994
  0
LINE
  5
2C2
100
AcDbEntity
  8
0
100
AcDbLine
 62
7
  6
CONTINUOUS
 10
300.1444977957
 20
279.2041565549
 11
298.928960552
 21
286.0978108259
  0
LINE
  5
2C3
100
AcDbEntity
  8
0
100
AcDbLine
 62
7
  6
CONTINUOUS
 10
302.9189000807
 20
283.6254360064
 11
303.0223500466
 21
283.0387420958
  0
LINE
  5
2C4
100
AcDbEntity
  8
0
100
AcDbLine
 62
7
  6
CONTINUOUS
 10
304.6709231603
 20
285.4467026966
 11
304.7226482157
 21
285.1533553304
  0
LINE
  5
2C5
100
AcDbEntity
  8
0
100
AcDbLine
 62
7
  6
CONTINUOUS
 10
305.3576544828
 20
282.3918829355
 11
305.4611044486
 21
281.8051890249
  0
LINE
  5
2C6
100
AcDbEntity
  8
0
100
AcDbLine
 62
7
  6
CONTINUOUS
 10
305.4407377501
 20
285.2799738899
 11
305.3890126948
 21
285.573321256
  0
LINE
  5
2C7
100
AcDbEntity
  8
0
100
AcDbLine
 62
7
  6
CONTINUOUS
 10
306.1791923395
 20
281.9318072946
 11
306.0757423736
 21
282.5185012051
  0
LINE
  5
2C8
100
AcDbEntity
  8
0
100
AcDbLine
 62
7
  6
CONTINUOUS
 10
313.2907397356
 20
288.630179987
 11
314.5062769793
 21
281.7365257159
  0
LINE
  5
2C9
100
AcDbEntity
  8
0
100
AcDbLine
 62
7
  6
CONTINUOUS
 10
315.3679837631
 20
281.8884678714
 11
314.1524465195
 21
288.7821221424
  0
LINE
  5
2CA
100
AcDbEntity
  8
0
100
AcDbLine
 62
7
  6
CONTINUOUS
 10
292.0353054591
 20
284.8822734374
 11
292.1046484766
 21
279.4500854704
  0
LINE
  5
2CB
100
AcDbEntity
  8
0
100
AcDbLine
 62
7
  6
CONTINUOUS
 10
292.9636073821
 20
277.9379718294
 11
292.897012243
 21
285.0342155928
  0
LINE
  5
2CC
100
AcDbEntity
  8
0
100
AcDbLine
 62
7
  6
CONTINUOUS
 10
302.2082463271
 20
677.1836471997
 11
302.2082463271
 21
557.1836471997
  0
LINE
  5
2CD
100
AcDbEntity
  8
0
100
AcDbLine
 62
7
  6
CONTINUOUS
 10
289.5167802466
 20
277.3302032076
 11
289.6829479416
 21
283.1063857447
  0
LINE
  5
2CE
100
AcDbEntity
  8
0
100
AcDbLine
 62
7
  6
CONTINUOUS
 10
288.8757140552
 20
284.3251522248
 11
288.657821752
 21
278.842316921
  0
LWPOLYLINE
  5
2CF
100
AcDbEntity
  8
BEZUGSACHSEN
100
AcDbPolyline
 62
7
  6
CONTINUOUS
 90
3
 70
0
 10
260.1350157929
 20
255.6351684978
 10
260.1520423695
 20
255.7800917967
 10
260.1582463271
 20
255.9357820937
  0
LINE
  5
2D0
100
AcDbEntity
  8
RUNDUNGEN
100
AcDbLine
 62
7
  6
CONTINUOUS
 10
260.1350157946
 20
255.6351685089
 11
260.1503955215
 21
255.7606794398
  0
LINE
  5
2D1
100
AcDbEntity
  8
RUNDUNGEN
100
AcDbLine
 62
7
  6
CONTINUOUS
 10
262.9114920506
 20
215.3183084586
 11
260.2534739972
 21
196.4055272797
  0
LINE
  5
2D2
100
AcDbEntity
  8
KONSTRUKTIONSELEMENTE
100
AcDbLine
 62
7
  6
CONTINUOUS
 10
387.7082463271
 20
410.1836471997
 11
386.3503819509
 21
410.1836471997
  0
LINE
  5
2D3
100
AcDbEntity
  8
KONSTRUKTIONSELEMENTE
100
AcDbLine
 62
7
  6
CONTINUOUS
 10
387.7082463271
 20
411.4336471997
 11
386.3503819509
 21
411.4336471997
  0
LINE
  5
2D4
100
AcDbEntity
  8
KONSTRUKTIONSELEMENTE
100
AcDbLine
 62
7
  6
CONTINUOUS
 10
387.7082463271
 20
414.3503137671
 11
387.2082463271
 21
414.3503137671
  0
LINE
  5
2D5
100
AcDbEntity
  8
KONSTRUKTIONSELEMENTE
100
AcDbLine
 62
7
  6
CONTINUOUS
 10
387.7082463271
 20
417.2669803344
 11
386.3503819509
 21
417.2669803344
  0
LINE
  5
2D6
100
AcDbEntity
  8
KONSTRUKTIONSELEMENTE
100
AcDbLine
 62
7
  6
CONTINUOUS
 10
387.7082463271
 20
418.5169803344
 11
386.3503819509
 21
418.5169803344
  0
LINE
  5
2D7
100
AcDbEntity
  8
KONSTRUKTIONSELEMENTE
100
AcDbLine
 62
7
  6
CONTINUOUS
 10
387.7082463271
 20
419.3503140651
 11
387.2082463271
 21
419.3503140651
  0
LINE
  5
2D8
100
AcDbEntity
  8
KONSTRUKTIONSELEMENTE
100
AcDbLine
 62
7
  6
CONTINUOUS
 10
387.7082463271
 20
420.1836471997
 11
387.1231247886
 21
420.1836471997
  0
LINE
  5
2D9
100
AcDbEntity
  8
KONSTRUKTIONSELEMENTE
100
AcDbLine
 62
7
  6
CONTINUOUS
 10
387.7082463271
 20
420.3919809304
 11
386.970585646
 21
420.3919809304
  0
LINE
  5
2DA
100
AcDbEntity
  8
KONSTRUKTIONSELEMENTE
100
AcDbLine
 62
7
  6
CONTINUOUS
 10
387.7082463271
 20
420.8086471997
 11
386.7916415935
 21
420.8086471997
  0
LINE
  5
2DB
100
AcDbEntity
  8
KONSTRUKTIONSELEMENTE
100
AcDbLine
 62
7
  6
CONTINUOUS
 10
387.7082463271
 20
421.6419809304
 11
386.5600947755
 21
421.6419809304
  0
LINE
  5
2DC
100
AcDbEntity
  8
KONSTRUKTIONSELEMENTE
100
AcDbLine
 62
7
  6
CONTINUOUS
 10
387.7082463271
 20
422.475313469
 11
386.4238149046
 21
422.475313469
  0
LINE
  5
2DD
100
AcDbEntity
  8
KONSTRUKTIONSELEMENTE
100
AcDbLine
 62
7
  6
CONTINUOUS
 10
387.7082463271
 20
423.5169809304
 11
386.3503819509
 21
423.5169809304
  0
LINE
  5
2DE
100
AcDbEntity
  8
KONSTRUKTIONSELEMENTE
100
AcDbLine
 62
7
  6
CONTINUOUS
 10
387.7082463271
 20
425.3919809304
 11
386.3503819509
 21
425.3919809304
  0
LINE
  5
2DF
100
AcDbEntity
  8
KONSTRUKTIONSELEMENTE
100
AcDbLine
 62
7
  6
CONTINUOUS
 10
387.7082463271
 20
426.4336471997
 11
386.4238149046
 21
426.4336471997
  0
LINE
  5
2E0
100
AcDbEntity
  8
KONSTRUKTIONSELEMENTE
100
AcDbLine
 62
7
  6
CONTINUOUS
 10
387.7082463271
 20
427.2669809304
 11
386.5600947755
 21
427.2669809304
  0
LINE
  5
2E1
100
AcDbEntity
  8
KONSTRUKTIONSELEMENTE
100
AcDbLine
 62
7
  6
CONTINUOUS
 10
387.7082463271
 20
428.100313469
 11
386.7916415935
 21
428.100313469
  0
LINE
  5
2E2
100
AcDbEntity
  8
KONSTRUKTIONSELEMENTE
100
AcDbLine
 62
7
  6
CONTINUOUS
 10
387.7082463271
 20
428.3086471997
 11
387.0073385135
 21
428.3086471997
  0
LINE
  5
2E3
100
AcDbEntity
  8
KONSTRUKTIONSELEMENTE
100
AcDbLine
 62
7
  6
CONTINUOUS
 10
387.7082463271
 20
428.725313469
 11
387.2082463271
 21
428.725313469
  0
LINE
  5
2E4
100
AcDbEntity
  8
KONSTRUKTIONSELEMENTE
100
AcDbLine
 62
7
  6
CONTINUOUS
 10
387.7082463271
 20
429.1419809304
 11
387.2082463271
 21
429.1419809304
  0
LINE
  5
2E5
100
AcDbEntity
  8
KONSTRUKTIONSELEMENTE
100
AcDbLine
 62
7
  6
CONTINUOUS
 10
387.7082463271
 20
429.350313469
 11
387.2082463271
 21
429.350313469
  0
LINE
  5
2E6
100
AcDbEntity
  8
KONSTRUKTIONSELEMENTE
100
AcDbLine
 62
7
  6
CONTINUOUS
 10
387.7082463271
 20
429.5586471997
 11
387.2082463271
 21
429.5586471997
  0
LINE
  5
2E7
100
AcDbEntity
  8
KONSTRUKTIONSELEMENTE
100
AcDbLine
 62
7
  6
CONTINUOUS
 10
387.7082463271
 20
429.975313469
 11
387.2048507422
 21
429.975313469
  0
LINE
  5
2E8
100
AcDbEntity
  8
BEZUGSACHSEN
100
AcDbLine
 62
7
  6
CONTINUOUS
 10
420.1426519979
 20
371.4066128886
 11
506.9998854881
 21
330.904419746
  0
LINE
  5
2E9
100
AcDbEntity
  8
KONSTRUKTIONSELEMENTE
100
AcDbLine
 62
7
  6
CONTINUOUS
 10
289.3902252513
 20
455.5571723761
 11
293.4859854727
 21
452.6892901943
  0
LINE
  5
2EA
100
AcDbEntity
  8
KONSTRUKTIONSELEMENTE
100
AcDbLine
 62
7
  6
CONTINUOUS
 10
289.6770134695
 20
455.9667483982
 11
293.7727736909
 21
453.0988662165
  0
LINE
  5
2EB
100
AcDbEntity
  8
RUNDUNGEN
100
AcDbLine
 62
7
  6
CONTINUOUS
 10
504.0197888998
 20
258.8260854379
 11
504.9118591182
 21
257.9340152196
  0
LINE
  5
2EC
100
AcDbEntity
  8
BEZUGSACHSEN
100
AcDbLine
 62
7
  6
CONTINUOUS
 10
504.0197888998
 20
258.8260854379
 11
504.9118591182
 21
257.9340152196
  0
LINE
  5
2ED
100
AcDbEntity
  8
0
100
AcDbLine
 62
7
  6
CONTINUOUS
 10
368.2094965358
 20
289.3510940282
 11
368.6469967444
 21
288.457476957
  0
LINE
  5
2EE
100
AcDbEntity
  8
0
100
AcDbLine
 62
7
  6
CONTINUOUS
 10
386.1469963271
 20
294.9362006842
 11
385.7094954927
 21
295.8298175989
  0
LINE
  5
2EF
100
AcDbEntity
  8
0
100
AcDbLine
 62
7
  6
CONTINUOUS
 10
366.2407465358
 20
286.8936471997
 11
364.2719965358
 21
292.0319450854
  0
LINE
  5
2F0
100
AcDbEntity
  8
0
100
AcDbLine
 62
7
  6
CONTINUOUS
 10
362.9594962228
 20
291.585136628
 11
364.7094961185
 21
286.8936471997
  0
LINE
  5
2F1
100
AcDbEntity
  8
0
100
AcDbLine
 62
7
  6
CONTINUOUS
 10
315.7151877381
 20
286.6379354366
 11
316.1031251463
 21
284.4378330665
  0
LINE
  5
2F2
100
AcDbEntity
  8
0
100
AcDbLine
 62
7
  6
CONTINUOUS
 10
316.9648319302
 20
284.589775222
 11
316.576894522
 21
286.7898775921
  0
LINE
  5
2F3
100
AcDbEntity
  8
0
100
AcDbLine
 62
7
  6
CONTINUOUS
 10
322.0514264675
 20
290.1749254274
 11
323.2669637111
 21
283.2812711563
  0
LINE
  5
2F4
100
AcDbEntity
  8
0
100
AcDbLine
 62
7
  6
CONTINUOUS
 10
323.9734955281
 20
284.3132542803
 11
323.5596956104
 21
286.6600302308
  0
LINE
  5
2F5
100
AcDbEntity
  8
0
100
AcDbLine
 62
7
  6
CONTINUOUS
 10
323.4045206616
 20
287.5400710967
 11
323.0683082001
 21
289.4468267169
  0
LINE
  5
2F6
100
AcDbEntity
  8
0
100
AcDbLine
 62
7
  6
CONTINUOUS
 10
327.2937572448
 20
287.3184460446
 11
327.1385822961
 21
288.1984869105
  0
LINE
  5
2F7
100
AcDbEntity
  8
0
100
AcDbLine
 62
7
  6
CONTINUOUS
 10
328.4372044145
 20
284.192924089
 11
328.2820294476
 21
285.0729650576
  0
LINE
  5
2F8
100
AcDbEntity
  8
0
100
AcDbLine
 62
7
  6
CONTINUOUS
 10
327.3768421196
 20
290.2065374942
 11
327.2216671708
 21
291.0865783601
  0
LINE
  5
2F9
100
AcDbEntity
  8
0
100
AcDbLine
 62
7
  6
CONTINUOUS
 10
315.7294941014
 20
287.3966271215
 11
315.7151877381
 21
286.6379354366
  0
LINE
  5
2FA
100
AcDbEntity
  8
0
100
AcDbLine
 62
7
  6
CONTINUOUS
 10
321.793366077
 20
284.0800723693
 11
321.8076692074
 21
284.8387631664
  0
LINE
  5
2FB
100
AcDbEntity
  8
0
100
AcDbLine
 62
7
  6
CONTINUOUS
 10
300.5461754175
 20
285.3243333116
 11
300.5060081339
 21
284.712315805
  0
LINE
  5
2FC
100
AcDbEntity
  8
0
100
AcDbLine
 62
7
  6
CONTINUOUS
 10
305.4005704665
 20
284.6679563833
 11
305.4407377501
 21
285.2799738899
  0
LINE
  5
2FD
100
AcDbEntity
  8
0
100
AcDbLine
 62
7
  6
CONTINUOUS
 10
316.576894522
 20
286.7898775921
 11
316.6170634492
 21
287.4018953885
  0
LINE
  5
2FE
100
AcDbEntity
  8
KONSTRUKTIONSELEMENTE
100
AcDbLine
 62
7
  6
CONTINUOUS
 10
236.5064778197
 20
380.0313538927
 11
239.7758635069
 21
384.7005205451
  0
LINE
  5
2FF
100
AcDbEntity
  8
KONSTRUKTIONSELEMENTE
100
AcDbLine
 62
7
  6
CONTINUOUS
 10
240.0626517251
 20
385.1100965672
 11
243.3320374123
 21
389.7792632197
  0
LINE
  5
300
100
AcDbEntity
  8
KONSTRUKTIONSELEMENTE
100
AcDbLine
 62
7
  6
CONTINUOUS
 10
286.1208395641
 20
450.8880057237
 11
289.3902252513
 21
455.5571723761
  0
LINE
  5
301
100
AcDbEntity
  8
KONSTRUKTIONSELEMENTE
100
AcDbLine
 62
7
  6
CONTINUOUS
 10
289.6770134695
 20
455.9667483982
 11
292.9463991567
 21
460.6359150507
  0
LINE
  5
302
100
AcDbEntity
  8
KONSTRUKTIONSELEMENTE
100
AcDbLine
 62
7
  6
CONTINUOUS
 10
261.5509067751
 20
413.0961626521
 11
270.1545533204
 21
425.3834433164
  0
LINE
  5
303
100
AcDbEntity
  8
KONSTRUKTIONSELEMENTE
100
AcDbLine
 62
7
  6
CONTINUOUS
 10
240.6022380412
 20
377.1634717109
 11
243.8716237284
 21
381.8326383633
  0
LINE
  5
304
100
AcDbEntity
  8
KONSTRUKTIONSELEMENTE
100
AcDbLine
 62
7
  6
CONTINUOUS
 10
244.1584119465
 20
382.2422143855
 11
247.4277976337
 21
386.9113810379
  0
LINE
  5
305
100
AcDbEntity
  8
KONSTRUKTIONSELEMENTE
100
AcDbLine
 62
7
  6
CONTINUOUS
 10
290.2165997855
 20
448.0201235419
 11
293.4859854727
 21
452.6892901943
  0
LINE
  5
306
100
AcDbEntity
  8
KONSTRUKTIONSELEMENTE
100
AcDbLine
 62
7
  6
CONTINUOUS
 10
293.7727736909
 20
453.0988662165
 11
297.0421593781
 21
457.7680328689
  0
LINE
  5
307
100
AcDbEntity
  8
KONSTRUKTIONSELEMENTE
100
AcDbLine
 62
7
  6
CONTINUOUS
 10
297.8081600425
 20
457.9030994533
 11
331.0368163181
 21
505.3585386801
  0
LINE
  5
308
100
AcDbEntity
  8
KONSTRUKTIONSELEMENTE
100
AcDbLine
 62
7
  6
CONTINUOUS
 10
265.2370909744
 20
410.5150686885
 11
273.8407375197
 21
422.8023493528
  0
LINE
  5
309
100
AcDbEntity
  8
RUNDUNGEN
100
AcDbLine
 62
7
  6
CONTINUOUS
 10
172.8500721117
 20
276.8292850552
 11
246.6183726936
 21
382.1813364921
  0
LINE
  5
30A
100
AcDbEntity
  8
KONSTRUKTIONSELEMENTE
100
AcDbLine
 62
7
  6
CONTINUOUS
 10
290.7814236838
 20
444.8168480364
 11
275.6056947241
 21
423.1436609717
  0
LINE
  5
30B
100
AcDbEntity
  8
KONSTRUKTIONSELEMENTE
100
AcDbLine
 62
7
  6
CONTINUOUS
 10
265.5440604843
 20
408.7741580877
 11
250.3683315246
 21
387.100971023
  0
LINE
  5
30C
100
AcDbEntity
  8
KONSTRUKTIONSELEMENTE
100
AcDbLine
 62
7
  6
CONTINUOUS
 10
294.4676078831
 20
442.2357540728
 11
279.2918789234
 21
420.5625670081
  0
LINE
  5
30D
100
AcDbEntity
  8
KONSTRUKTIONSELEMENTE
100
AcDbLine
 62
7
  6
CONTINUOUS
 10
269.2302446836
 20
406.1930641241
 11
254.0545157239
 21
384.5198770594
  0
LINE
  5
30E
100
AcDbEntity
  8
RUNDUNGEN
100
AcDbLine
 62
7
  6
CONTINUOUS
 10
176.9458323331
 20
273.9614028734
 11
250.7141233647
 21
379.313440671
  0
LINE
  5
30F
100
AcDbEntity
  8
KONSTRUKTIONSELEMENTE
100
AcDbLine
 62
7
  6
CONTINUOUS
 10
279.5748018297
 20
418.7873142984
 11
270.9711552844
 21
406.5000336341
  0
LINE
  5
310
100
AcDbEntity
  8
KONSTRUKTIONSELEMENTE
100
AcDbLine
 62
7
  6
CONTINUOUS
 10
304.4001534295
 20
453.3698673045
 11
337.5900326724
 21
500.7699271892
  0
LINE
  5
311
100
AcDbEntity
  8
KONSTRUKTIONSELEMENTE
100
AcDbLine
 62
7
  6
CONTINUOUS
 10
304.4964429811
 20
452.5484872981
 11
297.6708833886
 21
442.8005779711
  0
LINE
  5
312
100
AcDbEntity
  8
KONSTRUKTIONSELEMENTE
100
AcDbLine
 62
7
  6
CONTINUOUS
 10
254.8820812368
 20
381.6918354671
 11
248.0565216442
 21
371.9439261401
  0
LINE
  5
313
100
AcDbEntity
  8
KONSTRUKTIONSELEMENTE
100
AcDbLine
 62
7
  6
CONTINUOUS
 10
387.7082463271
 20
432.8919797383
 11
387.2048507422
 21
432.8919797383
  0
LINE
  5
314
100
AcDbEntity
  8
KONSTRUKTIONSELEMENTE
100
AcDbLine
 62
7
  6
CONTINUOUS
 10
387.7082463271
 20
433.9336471997
 11
387.2082463271
 21
433.9336471997
  0
LINE
  5
315
100
AcDbEntity
  8
KONSTRUKTIONSELEMENTE
100
AcDbLine
 62
7
  6
CONTINUOUS
 10
387.7082463271
 20
434.5586471997
 11
387.2082463271
 21
434.5586471997
  0
LINE
  5
316
100
AcDbEntity
  8
KONSTRUKTIONSELEMENTE
100
AcDbLine
 62
7
  6
CONTINUOUS
 10
387.7082463271
 20
435.1836471997
 11
386.970585646
 21
435.1836471997
  0
LINE
  5
317
100
AcDbEntity
  8
KONSTRUKTIONSELEMENTE
100
AcDbLine
 62
7
  6
CONTINUOUS
 10
387.7082463271
 20
435.3919797383
 11
386.7916415935
 21
435.3919797383
  0
LINE
  5
318
100
AcDbEntity
  8
KONSTRUKTIONSELEMENTE
100
AcDbLine
 62
7
  6
CONTINUOUS
 10
387.7082463271
 20
436.2253146611
 11
386.5600947755
 21
436.2253146611
  0
LINE
  5
319
100
AcDbEntity
  8
KONSTRUKTIONSELEMENTE
100
AcDbLine
 62
7
  6
CONTINUOUS
 10
387.7082463271
 20
437.0586471997
 11
386.4238149046
 21
437.0586471997
  0
LINE
  5
31A
100
AcDbEntity
  8
KONSTRUKTIONSELEMENTE
100
AcDbLine
 62
7
  6
CONTINUOUS
 10
387.7082463271
 20
437.8919797383
 11
386.3503819509
 21
437.8919797383
  0
LINE
  5
31B
100
AcDbEntity
  8
KONSTRUKTIONSELEMENTE
100
AcDbLine
 62
7
  6
CONTINUOUS
 10
387.7082463271
 20
438.9336471997
 11
386.3503819509
 21
438.9336471997
  0
LINE
  5
31C
100
AcDbEntity
  8
KONSTRUKTIONSELEMENTE
100
AcDbLine
 62
7
  6
CONTINUOUS
 10
387.7082463271
 20
439.9753146611
 11
386.4238149046
 21
439.9753146611
  0
LINE
  5
31D
100
AcDbEntity
  8
KONSTRUKTIONSELEMENTE
100
AcDbLine
 62
7
  6
CONTINUOUS
 10
387.7082463271
 20
440.8086471997
 11
386.6230417754
 21
440.8086471997
  0
LINE
  5
31E
100
AcDbEntity
  8
KONSTRUKTIONSELEMENTE
100
AcDbLine
 62
7
  6
CONTINUOUS
 10
387.7082463271
 20
441.4336471997
 11
386.8412240381
 21
441.4336471997
  0
LINE
  5
31F
100
AcDbEntity
  8
KONSTRUKTIONSELEMENTE
100
AcDbLine
 62
7
  6
CONTINUOUS
 10
387.7082463271
 20
441.6419797383
 11
386.970585646
 21
441.6419797383
  0
LINE
  5
320
100
AcDbEntity
  8
KONSTRUKTIONSELEMENTE
100
AcDbLine
 62
7
  6
CONTINUOUS
 10
387.7082463271
 20
441.8503146611
 11
387.2082463271
 21
441.8503146611
  0
LINE
  5
321
100
AcDbEntity
  8
KONSTRUKTIONSELEMENTE
100
AcDbLine
 62
7
  6
CONTINUOUS
 10
387.7082463271
 20
442.2669797383
 11
387.2082463271
 21
442.2669797383
  0
LINE
  5
322
100
AcDbEntity
  8
KONSTRUKTIONSELEMENTE
100
AcDbLine
 62
7
  6
CONTINUOUS
 10
387.7082463271
 20
443.3086471997
 11
387.2082463271
 21
443.3086471997
  0
LINE
  5
323
100
AcDbEntity
  8
KONSTRUKTIONSELEMENTE
100
AcDbLine
 62
7
  6
CONTINUOUS
 10
387.7082463271
 20
443.9336471997
 11
387.1231247886
 21
443.9336471997
  0
LINE
  5
324
100
AcDbEntity
  8
KONSTRUKTIONSELEMENTE
100
AcDbLine
 62
7
  6
CONTINUOUS
 10
387.7082463271
 20
444.1419797383
 11
386.970585646
 21
444.1419797383
  0
LINE
  5
325
100
AcDbEntity
  8
KONSTRUKTIONSELEMENTE
100
AcDbLine
 62
7
  6
CONTINUOUS
 10
387.7082463271
 20
444.5586471997
 11
386.7916415935
 21
444.5586471997
  0
LINE
  5
326
100
AcDbEntity
  8
KONSTRUKTIONSELEMENTE
100
AcDbLine
 62
7
  6
CONTINUOUS
 10
387.7082463271
 20
445.3919797383
 11
386.5600947755
 21
445.3919797383
  0
LINE
  5
327
100
AcDbEntity
  8
KONSTRUKTIONSELEMENTE
100
AcDbLine
 62
7
  6
CONTINUOUS
 10
387.7082463271
 20
446.2253146611
 11
386.4238149046
 21
446.2253146611
  0
LINE
  5
328
100
AcDbEntity
  8
KONSTRUKTIONSELEMENTE
100
AcDbLine
 62
7
  6
CONTINUOUS
 10
387.7082463271
 20
447.2669797383
 11
386.3503819509
 21
447.2669797383
  0
LINE
  5
329
100
AcDbEntity
  8
KONSTRUKTIONSELEMENTE
100
AcDbLine
 62
7
  6
CONTINUOUS
 10
387.7082463271
 20
449.1419797383
 11
386.3503819509
 21
449.1419797383
  0
LINE
  5
32A
100
AcDbEntity
  8
KONSTRUKTIONSELEMENTE
100
AcDbLine
 62
7
  6
CONTINUOUS
 10
387.7082463271
 20
450.1836471997
 11
386.4238149046
 21
450.1836471997
  0
LINE
  5
32B
100
AcDbEntity
  8
KONSTRUKTIONSELEMENTE
100
AcDbLine
 62
7
  6
CONTINUOUS
 10
387.7082463271
 20
451.0169821225
 11
386.5600947755
 21
451.0169821225
  0
LINE
  5
32C
100
AcDbEntity
  8
KONSTRUKTIONSELEMENTE
100
AcDbLine
 62
7
  6
CONTINUOUS
 10
387.7082463271
 20
451.8503122769
 11
386.7916415935
 21
451.8503122769
  0
LINE
  5
32D
100
AcDbEntity
  8
KONSTRUKTIONSELEMENTE
100
AcDbLine
 62
7
  6
CONTINUOUS
 10
387.7082463271
 20
452.0586471997
 11
387.0073385135
 21
452.0586471997
  0
LINE
  5
32E
100
AcDbEntity
  8
KONSTRUKTIONSELEMENTE
100
AcDbLine
 62
7
  6
CONTINUOUS
 10
387.7082463271
 20
453.7253122769
 11
386.3503819509
 21
453.7253122769
  0
LINE
  5
32F
100
AcDbEntity
  8
KONSTRUKTIONSELEMENTE
100
AcDbLine
 62
7
  6
CONTINUOUS
 10
387.7082463271
 20
454.9753122769
 11
386.3503819509
 21
454.9753122769
  0
LWPOLYLINE
  5
330
100
AcDbEntity
  8
KONSTRUKTIONSELEMENTE
100
AcDbPolyline
 62
7
  6
CONTINUOUS
 90
17
 70
0
 10
394.7082408224
 20
386.2862029503
 10
393.8856785009
 20
386.9819494223
 10
393.0632499832
 20
387.7594142836
 10
392.2860373882
 20
388.5822418075
 10
391.5565568602
 20
389.4477946185
 10
390.8771651811
 20
390.353300116
 10
390.2500583647
 20
391.2958530297
 10
389.6772625613
 20
392.2724268922
 10
389.1606273036
 20
393.27988424
 10
388.7018197274
 20
394.3149864157
 10
388.3023189217
 20
395.3744044101
 10
387.963411004
 20
396.4547298912
 10
387.6861848477
 20
397.5524865076
 10
387.4715284809
 20
398.6641414262
 10
387.3201261709
 20
399.7861170538
 10
387.2324565491
 20
400.9147958195
 10
387.208242366
 20
401.8986533685
  0
LINE
  5
331
100
AcDbEntity
  8
RUNDUNGEN
100
AcDbLine
 62
7
  6
CONTINUOUS
 10
505.1059502826
 20
257.725239499
 11
505.1015197031
 21
257.7303554285
  0
LINE
  5
332
100
AcDbEntity
  8
RUNDUNGEN
100
AcDbLine
 62
7
  6
CONTINUOUS
 10
505.1437987497
 20
257.6807414496
 11
505.1255393548
 21
257.7023821026
  0
LINE
  5
333
100
AcDbEntity
  8
0
100
AcDbLine
 62
7
  6
CONTINUOUS
 10
364.4907463271
 20
295.6064133702
 11
364.7094961185
 21
294.9362006842
  0
LINE
  5
334
100
AcDbEntity
  8
0
100
AcDbLine
 62
7
  6
CONTINUOUS
 10
366.0219961185
 20
294.9362006842
 11
365.8032463271
 21
295.6064133702
  0
LINE
  5
335
100
AcDbEntity
  8
0
100
AcDbLine
 62
7
  6
CONTINUOUS
 10
369.5219959099
 20
289.5744982569
 11
369.3032467444
 21
290.4681151717
  0
LINE
  5
336
100
AcDbEntity
  8
0
100
AcDbLine
 62
7
  6
CONTINUOUS
 10
306.1131625825
 20
281.4664631629
 11
306.1791923395
 21
281.9318072946
  0
LINE
  5
337
100
AcDbEntity
  8
0
100
AcDbLine
 62
7
  6
CONTINUOUS
 10
320.9459624235
 20
284.686821011
 11
320.879934292
 21
284.2214772719
  0
LINE
  5
338
100
AcDbEntity
  8
KONSTRUKTIONSELEMENTE
100
AcDbLine
 62
7
  6
CONTINUOUS
 10
283.260986029
 20
416.2062203348
 11
274.6573394837
 21
403.9189396705
  0
LINE
  5
339
100
AcDbEntity
  8
KONSTRUKTIONSELEMENTE
100
AcDbLine
 62
7
  6
CONTINUOUS
 10
308.5922032026
 20
449.6806051164
 11
301.76664361
 21
439.9326957893
  0
LINE
  5
33A
100
AcDbEntity
  8
KONSTRUKTIONSELEMENTE
100
AcDbLine
 62
7
  6
CONTINUOUS
 10
258.9778414582
 20
378.8239532854
 11
252.1522818656
 21
369.0760439584
  0
LINE
  5
33B
100
AcDbEntity
  8
KONSTRUKTIONSELEMENTE
100
AcDbLine
 62
7
  6
CONTINUOUS
 10
387.7082463271
 20
460.8086471997
 11
386.3503819509
 21
460.8086471997
  0
LINE
  5
33C
100
AcDbEntity
  8
KONSTRUKTIONSELEMENTE
100
AcDbLine
 62
7
  6
CONTINUOUS
 10
387.7082463271
 20
462.0586471997
 11
386.3503819509
 21
462.0586471997
  0
LINE
  5
33D
100
AcDbEntity
  8
RUNDUNGEN
100
AcDbLine
 62
7
  6
CONTINUOUS
 10
505.1846647922
 20
257.6312013481
 11
505.1657989795
 21
257.6542891465
  0
LINE
  5
33E
100
AcDbEntity
  8
BEZUGSACHSEN
100
AcDbLine
 62
7
  6
CONTINUOUS
 10
405.9033938392
 20
332.1836471997
 11
414.1352526747
 21
315.6730926535
  0
LINE
  5
33F
100
AcDbEntity
  8
BEZUGSACHSEN
100
AcDbLine
 62
7
  6
CONTINUOUS
 10
440.7784768032
 20
300.3347459036
 11
421.9894011007
 21
338.0198016679
  0
LINE
  5
340
100
AcDbEntity
  8
0
100
AcDbLine
 62
7
  6
CONTINUOUS
 10
384.8344963271
 20
294.7127958296
 11
385.0532454927
 21
293.8191789149
  0
LINE
  5
341
100
AcDbEntity
  8
0
100
AcDbLine
 62
7
  6
CONTINUOUS
 10
367.9907461185
 20
290.4681151717
 11
368.2094965358
 21
289.3510940282
  0
LINE
  5
342
100
AcDbEntity
  8
0
100
AcDbLine
 62
7
  6
CONTINUOUS
 10
386.3657454927
 20
293.8191789149
 11
386.1469963271
 21
294.9362006842
  0
LINE
  5
343
100
AcDbEntity
  8
BEZUGSACHSEN
100
AcDbLine
 62
7
  6
CONTINUOUS
 10
382.4534888095
 20
299.079989772
 11
380.8038311217
 21
308.4356634256
  0
LINE
  5
344
100
AcDbEntity
  8
BEZUGSACHSEN
100
AcDbLine
 62
7
  6
CONTINUOUS
 10
357.2082463271
 20
463.6836471997
 11
357.2082463271
 21
401.9184417726
  0
LINE
  5
345
100
AcDbEntity
  8
KONSTRUKTIONSELEMENTE
100
AcDbLine
 62
7
  6
CONTINUOUS
 10
357.2082463271
 20
463.6836471997
 11
357.2082463271
 21
505.1835734686
  0
LINE
  5
346
100
AcDbEntity
  8
0
100
AcDbLine
 62
7
  6
CONTINUOUS
 10
357.9282463271
 20
297.3936471997
 11
357.9282463271
 21
286.8936471997
  0
LINE
  5
347
100
AcDbEntity
  8
0
100
AcDbLine
 62
7
  6
CONTINUOUS
 10
359.2407463271
 20
286.8936471997
 11
359.2407463271
 21
291.585136628
  0
LINE
  5
348
100
AcDbEntity
  8
0
100
AcDbLine
 62
7
  6
CONTINUOUS
 10
359.2407463271
 20
292.9255620001
 11
359.2407463271
 21
296.2766260563
  0
LINE
  5
349
100
AcDbEntity
  8
0
100
AcDbLine
 62
7
  6
CONTINUOUS
 10
364.7094961185
 20
294.9362006842
 11
364.7094961185
 21
294.2659873723
  0
LINE
  5
34A
100
AcDbEntity
  8
0
100
AcDbLine
 62
7
  6
CONTINUOUS
 10
366.0219961185
 20
294.0425831436
 11
366.0219961185
 21
294.9362006842
  0
LINE
  5
34B
100
AcDbEntity
  8
KONSTRUKTIONSELEMENTE
100
AcDbLine
 62
7
  6
CONTINUOUS
 10
367.2082463271
 20
380.6335915204
 11
367.2082463271
 21
335.7337028791
  0
LINE
  5
34C
100
AcDbEntity
  8
0
100
AcDbLine
 62
7
  6
CONTINUOUS
 10
367.9907461185
 20
297.3936471997
 11
367.9907461185
 21
290.4681151717
  0
LINE
  5
34D
100
AcDbEntity
  8
0
100
AcDbLine
 62
7
  6
CONTINUOUS
 10
369.3032467444
 20
290.4681151717
 11
369.3032467444
 21
297.3936471997
  0
LINE
  5
34E
100
AcDbEntity
  8
0
100
AcDbLine
 62
7
  6
CONTINUOUS
 10
374.5532467444
 20
297.3936471997
 11
374.5532467444
 21
290.4681151717
  0
LINE
  5
34F
100
AcDbEntity
  8
0
100
AcDbLine
 62
7
  6
CONTINUOUS
 10
375.8657467444
 20
290.4681151717
 11
375.8657467444
 21
297.3936471997
  0
LINE
  5
350
100
AcDbEntity
  8
0
100
AcDbLine
 62
7
  6
CONTINUOUS
 10
304.7226482157
 20
285.1533553304
 11
304.5388636827
 21
284.5160142278
  0
LINE
  5
351
100
AcDbEntity
  8
0
100
AcDbLine
 62
7
  6
CONTINUOUS
 10
305.4611044486
 20
281.8051890249
 11
305.3692105385
 21
281.4865181838
  0
LINE
  5
352
100
AcDbEntity
  8
0
100
AcDbLine
 62
7
  6
CONTINUOUS
 10
315.9132786345
 20
288.0339682241
 11
315.7294941014
 21
287.3966271215
  0
LWPOLYLINE
  5
353
100
AcDbEntity
  8
RUNDUNGEN
100
AcDbPolyline
 62
7
  6
CONTINUOUS
 90
9
 70
0
 10
505.3878762832
 20
257.3568888615
 10
505.3592238114
 20
257.398736433
 10
505.3310633802
 20
257.4387614819
 10
505.3036634746
 20
257.4767044636
 10
505.2772572089
 20
257.5123826705
 10
505.2519999206
 20
257.5457351097
 10
505.2280500083
 20
257.5766961764
 10
505.2055955551
 20
257.6051552739
 10
505.1846647922
 20
257.6312013481
  0
LWPOLYLINE
  5
354
100
AcDbEntity
  8
RUNDUNGEN
100
AcDbPolyline
 62
7
  6
CONTINUOUS
 90
4
 70
0
 10
505.4772033426
 20
257.218435036
 10
505.4469579708
 20
257.2667622506
 10
505.417110581
 20
257.3129661395
 10
505.3878762832
 20
257.3568888615
  0
LINE
  5
355
100
AcDbEntity
  8
RUNDUNGEN
100
AcDbLine
 62
7
  6
CONTINUOUS
 10
505.5077053323
 20
257.1680453969
 11
505.4772033426
 21
257.218435036
  0
LINE
  5
356
100
AcDbEntity
  8
KONSTRUKTIONSELEMENTE
100
AcDbLine
 62
7
  6
CONTINUOUS
 10
377.2082463271
 20
335.7337028791
 11
377.2082463271
 21
380.6335915204
  0
LINE
  5
357
100
AcDbEntity
  8
0
100
AcDbLine
 62
7
  6
CONTINUOUS
 10
377.6157463271
 20
297.3936471997
 11
377.6157463271
 21
286.8936471997
  0
LINE
  5
358
100
AcDbEntity
  8
0
100
AcDbLine
 62
7
  6
CONTINUOUS
 10
378.9282463271
 20
288.2340727283
 11
378.9282463271
 21
296.0532218276
  0
LINE
  5
359
100
AcDbEntity
  8
0
100
AcDbLine
 62
7
  6
CONTINUOUS
 10
385.0532454927
 20
293.8191789149
 11
385.0532454927
 21
290.4681151717
  0
LINE
  5
35A
100
AcDbEntity
  8
KONSTRUKTIONSELEMENTE
100
AcDbLine
 62
7
  6
CONTINUOUS
 10
386.3503819509
 20
462.0586471997
 11
386.3503819509
 21
460.8086471997
  0
LINE
  5
35B
100
AcDbEntity
  8
KONSTRUKTIONSELEMENTE
100
AcDbLine
 62
7
  6
CONTINUOUS
 10
386.3503819509
 20
454.9753122769
 11
386.3503819509
 21
453.7253122769
  0
LINE
  5
35C
100
AcDbEntity
  8
KONSTRUKTIONSELEMENTE
100
AcDbLine
 62
7
  6
CONTINUOUS
 10
386.3503819509
 20
449.1419797383
 11
386.3503819509
 21
447.2669797383
  0
LINE
  5
35D
100
AcDbEntity
  8
KONSTRUKTIONSELEMENTE
100
AcDbLine
 62
7
  6
CONTINUOUS
 10
386.3503819509
 20
438.9336471997
 11
386.3503819509
 21
437.8919797383
  0
LINE
  5
35E
100
AcDbEntity
  8
KONSTRUKTIONSELEMENTE
100
AcDbLine
 62
7
  6
CONTINUOUS
 10
386.3503819509
 20
425.3919809304
 11
386.3503819509
 21
423.5169809304
  0
LINE
  5
35F
100
AcDbEntity
  8
KONSTRUKTIONSELEMENTE
100
AcDbLine
 62
7
  6
CONTINUOUS
 10
386.3503819509
 20
418.5169803344
 11
386.3503819509
 21
417.2669803344
  0
LINE
  5
360
100
AcDbEntity
  8
KONSTRUKTIONSELEMENTE
100
AcDbLine
 62
7
  6
CONTINUOUS
 10
386.3503819509
 20
411.4336471997
 11
386.3503819509
 21
410.1836471997
  0
LINE
  5
361
100
AcDbEntity
  8
0
100
AcDbLine
 62
7
  6
CONTINUOUS
 10
386.3657454927
 20
290.4681151717
 11
386.3657454927
 21
293.8191789149
  0
LINE
  5
362
100
AcDbEntity
  8
KONSTRUKTIONSELEMENTE
100
AcDbLine
 62
7
  6
CONTINUOUS
 10
387.1776583339
 20
460.8086471997
 11
387.1776583339
 21
454.9753122769
  0
LINE
  5
363
100
AcDbEntity
  8
KONSTRUKTIONSELEMENTE
100
AcDbLine
 62
7
  6
CONTINUOUS
 10
387.2082463271
 20
505.1835734686
 11
387.2082463271
 21
463.6836471997
  0
LINE
  5
364
100
AcDbEntity
  8
BEZUGSACHSEN
100
AcDbLine
 62
7
  6
CONTINUOUS
 10
387.2082463271
 20
463.6836471997
 11
387.2082463271
 21
462.0586471997
  0
LINE
  5
365
100
AcDbEntity
  8
BEZUGSACHSEN
100
AcDbLine
 62
7
  6
CONTINUOUS
 10
387.2082463271
 20
453.7253122769
 11
387.2082463271
 21
452.0586471997
  0
LINE
  5
366
100
AcDbEntity
  8
BEZUGSACHSEN
100
AcDbLine
 62
7
  6
CONTINUOUS
 10
387.2082463271
 20
443.9336471997
 11
387.2082463271
 21
441.6419797383
  0
LINE
  5
367
100
AcDbEntity
  8
BEZUGSACHSEN
100
AcDbLine
 62
7
  6
CONTINUOUS
 10
387.2082463271
 20
435.1836471997
 11
387.2082463271
 21
428.3086471997
  0
LINE
  5
368
100
AcDbEntity
  8
BEZUGSACHSEN
100
AcDbLine
 62
7
  6
CONTINUOUS
 10
387.2082463271
 20
420.1836471997
 11
387.2082463271
 21
418.5169803344
  0
LINE
  5
369
100
AcDbEntity
  8
BEZUGSACHSEN
100
AcDbLine
 62
7
  6
CONTINUOUS
 10
387.2082463271
 20
415.5951200865
 11
387.2082463271
 21
413.1055074476
  0
LINE
  5
36A
100
AcDbEntity
  8
BEZUGSACHSEN
100
AcDbLine
 62
7
  6
CONTINUOUS
 10
387.2082463271
 20
410.1836471997
 11
387.2082463271
 21
401.9181635588
  0
LINE
  5
36B
100
AcDbEntity
  8
KONSTRUKTIONSELEMENTE
100
AcDbLine
 62
7
  6
CONTINUOUS
 10
387.7082463271
 20
410.1836471997
 11
387.7082463271
 21
418.5169803344
  0
LINE
  5
36C
100
AcDbEntity
  8
KONSTRUKTIONSELEMENTE
100
AcDbLine
 62
7
  6
CONTINUOUS
 10
387.7082463271
 20
419.3503140651
 11
387.7082463271
 21
429.5586471997
  0
LINE
  5
36D
100
AcDbEntity
  8
KONSTRUKTIONSELEMENTE
100
AcDbLine
 62
7
  6
CONTINUOUS
 10
387.7082463271
 20
429.975313469
 11
387.7082463271
 21
452.3429438245
  0
LINE
  5
36E
100
AcDbEntity
  8
KONSTRUKTIONSELEMENTE
100
AcDbLine
 62
7
  6
CONTINUOUS
 10
387.7082463271
 20
453.7253122769
 11
387.7082463271
 21
462.0586471997
  0
LINE
  5
36F
100
AcDbEntity
  8
0
100
AcDbLine
 62
7
  6
CONTINUOUS
 10
361.9630038448
 20
299.079989772
 11
363.6126615326
 21
308.4356634256
  0
LINE
  5
370
100
AcDbEntity
  8
0
100
AcDbLine
 62
7
  6
CONTINUOUS
 10
301.2240960248
 20
284.8389340747
 11
301.4337446929
 21
285.3296019894
  0
LINE
  5
371
100
AcDbEntity
  8
0
100
AcDbLine
 62
7
  6
CONTINUOUS
 10
305.1909217984
 20
284.1772884686
 11
305.4005704665
 21
284.6679563833
  0
LINE
  5
372
100
AcDbEntity
  8
0
100
AcDbLine
 62
7
  6
CONTINUOUS
 10
305.9035139144
 20
280.9757952482
 11
306.1131625825
 21
281.4664631629
  0
LINE
  5
373
100
AcDbEntity
  8
0
100
AcDbLine
 62
7
  6
CONTINUOUS
 10
316.6170634492
 20
287.4018953885
 11
316.8267104013
 21
287.8925634242
  0
LINE
  5
374
100
AcDbEntity
  8
RUNDUNGEN
100
AcDbLine
 62
7
  6
CONTINUOUS
 10
303.638015851
 20
300.3347459036
 11
322.4270915536
 21
338.0198016679
  0
LINE
  5
375
100
AcDbEntity
  8
0
100
AcDbLine
 62
7
  6
CONTINUOUS
 10
298.0672537681
 20
285.9458686705
 11
297.3865836027
 21
284.7672120266
  0
LINE
  5
376
100
AcDbEntity
  8
0
100
AcDbLine
 62
7
  6
CONTINUOUS
 10
375.6469963271
 20
289.3510940282
 11
375.8657467444
 21
290.4681151717
  0
LINE
  5
377
100
AcDbEntity
  8
0
100
AcDbLine
 62
7
  6
CONTINUOUS
 10
386.1469963271
 20
289.3510940282
 11
386.3657454927
 21
290.4681151717
  0
LINE
  5
378
100
AcDbEntity
  8
0
100
AcDbLine
 62
7
  6
CONTINUOUS
 10
374.5532467444
 20
290.4681151717
 11
374.3344963271
 21
289.5744982569
  0
LINE
  5
379
100
AcDbEntity
  8
0
100
AcDbLine
 62
7
  6
CONTINUOUS
 10
364.7094961185
 20
294.2659873723
 11
364.4907463271
 21
293.5957746862
  0
LINE
  5
37A
100
AcDbEntity
  8
0
100
AcDbLine
 62
7
  6
CONTINUOUS
 10
365.8032463271
 20
293.3723704575
 11
366.0219961185
 21
294.0425831436
  0
LINE
  5
37B
100
AcDbEntity
  8
0
100
AcDbLine
 62
7
  6
CONTINUOUS
 10
338.5130988151
 20
332.1836471997
 11
330.2812399796
 21
315.6730926535
  0
LINE
  5
37C
100
AcDbEntity
  8
0
100
AcDbLine
 62
7
  6
CONTINUOUS
 10
297.5934836069
 20
283.5938237946
 11
298.2741536998
 21
284.7724808493
  0
LINE
  5
37D
100
AcDbEntity
  8
0
100
AcDbLine
 62
7
  6
CONTINUOUS
 10
301.0171960931
 20
286.0123218959
 11
300.5461754175
 21
285.3243333116
  0
LINE
  5
37E
100
AcDbEntity
  8
0
100
AcDbLine
 62
7
  6
CONTINUOUS
 10
304.5388636827
 20
284.5160142278
 11
304.3033525231
 21
284.1720197908
  0
LINE
  5
37F
100
AcDbEntity
  8
0
100
AcDbLine
 62
7
  6
CONTINUOUS
 10
305.3692105385
 20
281.4865181838
 11
305.1337010406
 21
281.1425239339
  0
LINE
  5
380
100
AcDbEntity
  8
0
100
AcDbLine
 62
7
  6
CONTINUOUS
 10
442.2082463271
 20
557.1836471997
 11
442.2082463271
 21
677.1836471997
  0
LINE
  5
381
100
AcDbEntity
  8
0
100
AcDbLine
 62
7
  6
CONTINUOUS
 10
385.0532454927
 20
290.4681151717
 11
384.8344963271
 21
289.5744982569
  0
LINE
  5
382
100
AcDbEntity
  8
0
100
AcDbLine
 62
7
  6
CONTINUOUS
 10
316.3843009536
 20
288.7219570982
 11
315.9132786345
 21
288.0339682241
  0
LINE
  5
383
100
AcDbEntity
  8
0
100
AcDbLine
 62
7
  6
CONTINUOUS
 10
321.3223437669
 20
283.3920834439
 11
321.793366077
 21
284.0800723693
  0
LINE
  5
384
100
AcDbEntity
  8
0
100
AcDbLine
 62
7
  6
CONTINUOUS
 10
304.6940386314
 20
283.635973362
 11
305.1909217984
 21
284.1772884686
  0
LINE
  5
385
100
AcDbEntity
  8
BEZUGSACHSEN
100
AcDbLine
 62
7
  6
CONTINUOUS
 10
240.3967037544
 20
258.8260854379
 11
239.5046335361
 21
257.9340152196
  0
LINE
  5
386
100
AcDbEntity
  8
BEZUGSACHSEN
100
AcDbLine
 62
7
  6
CONTINUOUS
 10
324.2738406563
 20
371.4066128886
 11
237.4166071662
 21
330.904419746
  0
LINE
  5
387
100
AcDbEntity
  8
BEZUGSACHSEN
100
AcDbLine
 62
7
  6
CONTINUOUS
 10
481.5050006037
 20
215.3183084586
 11
484.1630186571
 21
196.4055272797
  0
LINE
  5
388
100
AcDbEntity
  8
0
100
AcDbLine
 62
7
  6
CONTINUOUS
 10
375.2094967444
 20
288.457476957
 11
375.6469963271
 21
289.3510940282
  0
LINE
  5
389
100
AcDbEntity
  8
0
100
AcDbLine
 62
7
  6
CONTINUOUS
 10
385.7094954927
 20
288.457476957
 11
386.1469963271
 21
289.3510940282
  0
LINE
  5
38A
100
AcDbEntity
  8
0
100
AcDbLine
 62
7
  6
CONTINUOUS
 10
365.1469963271
 20
292.4787535428
 11
365.8032463271
 21
293.3723704575
  0
LINE
  5
38B
100
AcDbEntity
  8
RUNDUNGEN
100
AcDbLine
 62
7
  6
CONTINUOUS
 10
265.1010809985
 20
218.6364323761
 11
265.1131007408
 21
218.6503498165
  0
LINE
  5
38C
100
AcDbEntity
  8
0
100
AcDbLine
 62
7
  6
CONTINUOUS
 10
301.4337446929
 20
285.3296019894
 11
301.8128731019
 21
285.6989200224
  0
LINE
  5
38D
100
AcDbEntity
  8
0
100
AcDbLine
 62
7
  6
CONTINUOUS
 10
305.5243855145
 20
280.6064771639
 11
305.9035139144
 21
280.9757952482
  0
LINE
  5
38E
100
AcDbEntity
  8
0
100
AcDbLine
 62
7
  6
CONTINUOUS
 10
316.8267104013
 20
287.8925634242
 11
317.2058388103
 21
288.2618814573
  0
LINE
  5
38F
100
AcDbEntity
  8
0
100
AcDbLine
 62
7
  6
CONTINUOUS
 10
320.879934292
 20
284.2214772719
 11
320.5008059011
 21
283.8521591361
  0
LINE
  5
390
100
AcDbEntity
  8
RUNDUNGEN
100
AcDbLine
 62
7
  6
CONTINUOUS
 10
313.2042231902
 20
347.487340869
 11
283.3367790309
 21
333.559922928
  0
LINE
  5
391
100
AcDbEntity
  8
BEZUGSACHSEN
100
AcDbLine
 62
7
  6
CONTINUOUS
 10
484.2644502004
 20
255.7800964391
 11
484.2814766225
 21
255.6351751594
  0
LWPOLYLINE
  5
392
100
AcDbEntity
  8
RUNDUNGEN
100
AcDbPolyline
 62
7
  6
CONTINUOUS
 90
25
 70
0
 10
506.048022298
 20
255.4484953361
 10
506.0478301745
 20
255.4516791093
 10
506.0395094953
 20
255.5488669442
 10
506.0289909285
 20
255.6440409806
 10
506.016407488
 20
255.7371821293
 10
506.0018845164
 20
255.8282820537
 10
505.9855418198
 20
255.9173461153
 10
505.9675045113
 20
256.0043445819
 10
505.9478993025
 20
256.0892455004
 10
505.9268451683
 20
256.1720509793
 10
505.9044630581
 20
256.2527494429
 10
505.8808588573
 20
256.3313608575
 10
505.8561287027
 20
256.4079128341
 10
505.8303786752
 20
256.4823986831
 10
505.8037159082
 20
256.5548119561
 10
505.7762417231
 20
256.6251636164
 10
505.7480682005
 20
256.6934385092
 10
505.7192706189
 20
256.7597018821
 10
505.6899055936
 20
256.8240311706
 10
505.6600791455
 20
256.8863905418
 10
505.6298844922
 20
256.9467800646
 10
505.599444576
 20
257.0051486056
 10
505.568910784
 20
257.0614060896
 10
505.5383273305
 20
257.1156609915
 10
505.5077053323
 20
257.1680453969
  0
LWPOLYLINE
  5
393
100
AcDbEntity
  8
RUNDUNGEN
100
AcDbPolyline
 62
7
  6
CONTINUOUS
 90
3
 70
0
 10
484.2582463271
 20
255.9357840196
 10
484.2660970289
 20
255.7606843878
 10
484.2814766207
 20
255.635175171
  0
LINE
  5
394
100
AcDbEntity
  8
BEZUGSACHSEN
100
AcDbLine
 62
7
  6
CONTINUOUS
 10
484.2582463271
 20
255.9357840215
 11
484.2644502004
 21
255.7800964391
  0
LINE
  5
395
100
AcDbEntity
  8
0
100
AcDbLine
 62
7
  6
CONTINUOUS
 10
478.2082463271
 20
557.1836471997
 11
478.2082463271
 21
677.1836471997
  0
LINE
  5
396
100
AcDbEntity
  8
RUNDUNGEN
100
AcDbLine
 62
7
  6
CONTINUOUS
 10
478.3582463271
 20
252.7057590504
 11
478.3582463271
 21
246.1088454552
  0
LINE
  5
397
100
AcDbEntity
  8
BEZUGSACHSEN
100
AcDbLine
 62
7
  6
CONTINUOUS
 10
478.3582463271
 20
221.2009029112
 11
478.3582463271
 21
255.1663914658
  0
LINE
  5
398
100
AcDbEntity
  8
BEZUGSACHSEN
100
AcDbLine
 62
7
  6
CONTINUOUS
 10
484.2582463271
 20
195.043708742
 11
484.2582463271
 21
172.2337695055
  0
LINE
  5
399
100
AcDbEntity
  8
RUNDUNGEN
100
AcDbLine
 62
7
  6
CONTINUOUS
 10
484.2582463271
 20
255.9355228127
 11
484.2582463271
 21
304.1335248939
  0
LINE
  5
39A
100
AcDbEntity
  8
BEZUGSACHSEN
100
AcDbLine
 62
7
  6
CONTINUOUS
 10
484.2582463271
 20
255.9355227796
 11
484.2582463271
 21
304.1335248939
  0
LINE
  5
39B
100
AcDbEntity
  8
0
100
AcDbLine
 62
7
  6
CONTINUOUS
 10
374.3344963271
 20
289.5744982569
 11
373.8969967444
 21
288.9042855708
  0
LINE
  5
39C
100
AcDbEntity
  8
0
100
AcDbLine
 62
7
  6
CONTINUOUS
 10
384.8344963271
 20
289.5744982569
 11
384.3969954927
 21
288.9042855708
  0
LINE
  5
39D
100
AcDbEntity
  8
0
100
AcDbLine
 62
7
  6
CONTINUOUS
 10
364.4907463271
 20
293.5957746862
 11
364.0532461185
 21
293.1489662288
  0
LINE
  5
39E
100
AcDbEntity
  8
RUNDUNGEN
100
AcDbLine
 62
7
  6
CONTINUOUS
 10
264.9118254711
 20
218.4332455329
 11
264.0197970444
 21
217.5412171062
  0
LINE
  5
39F
100
AcDbEntity
  8
0
100
AcDbLine
 62
7
  6
CONTINUOUS
 10
301.5399433951
 20
286.4069638147
 11
301.0171960931
 21
286.0123218959
  0
LINE
  5
3A0
100
AcDbEntity
  8
0
100
AcDbLine
 62
7
  6
CONTINUOUS
 10
305.1337010406
 20
281.1425239339
 11
304.8723273896
 21
280.9452029745
  0
LINE
  5
3A1
100
AcDbEntity
  8
0
100
AcDbLine
 62
7
  6
CONTINUOUS
 10
305.0016398628
 20
280.2118354963
 11
305.5243855145
 21
280.6064771639
  0
LINE
  5
3A2
100
AcDbEntity
  8
0
100
AcDbLine
 62
7
  6
CONTINUOUS
 10
316.9070482556
 20
289.116599017
 11
316.3843009536
 21
288.7219570982
  0
LINE
  5
3A3
100
AcDbEntity
  8
0
100
AcDbLine
 62
7
  6
CONTINUOUS
 10
320.7995964716
 20
282.9974414865
 11
321.3223437669
 21
283.3920834439
  0
LINE
  5
3A4
100
AcDbEntity
  8
RUNDUNGEN
100
AcDbLine
 62
7
  6
CONTINUOUS
 10
502.262900705
 20
265.6639531633
 11
502.9114918852
 21
261.0489871175
  0
LINE
  5
3A5
100
AcDbEntity
  8
BEZUGSACHSEN
100
AcDbLine
 62
7
  6
CONTINUOUS
 10
502.262900705
 20
265.6639531633
 11
502.9114918852
 21
261.0489871175
  0
LINE
  5
3A6
100
AcDbEntity
  8
RUNDUNGEN
100
AcDbLine
 62
7
  6
CONTINUOUS
 10
500.1582463271
 20
304.1335248939
 11
500.1582463271
 21
255.9357820937
  0
LINE
  5
3A7
100
AcDbEntity
  8
BEZUGSACHSEN
100
AcDbLine
 62
7
  6
CONTINUOUS
 10
500.1582463271
 20
304.1335248939
 11
500.1582463271
 21
255.9357820918
  0
LINE
  5
3A8
100
AcDbEntity
  8
RUNDUNGEN
100
AcDbLine
 62
7
  6
CONTINUOUS
 10
500.1582463271
 20
195.043708742
 11
500.1582463271
 21
172.2337695055
  0
LINE
  5
3A9
100
AcDbEntity
  8
BEZUGSACHSEN
100
AcDbLine
 62
7
  6
CONTINUOUS
 10
506.0582463271
 20
255.1663914658
 11
506.0582463271
 21
248.223918971
  0
LINE
  5
3AA
100
AcDbEntity
  8
RUNDUNGEN
100
AcDbLine
 62
7
  6
CONTINUOUS
 10
506.0582463271
 20
255.1663914658
 11
506.0582463271
 21
221.2009029112
  0
LINE
  5
3AB
100
AcDbEntity
  8
RUNDUNGEN
100
AcDbLine
 62
7
  6
CONTINUOUS
 10
500.1503955215
 20
255.7606794398
 11
500.1582463271
 21
255.9357820918
  0
LINE
  5
3AC
100
AcDbEntity
  8
BEZUGSACHSEN
100
AcDbLine
 62
7
  6
CONTINUOUS
 10
482.1196724733
 20
265.422603551
 11
481.5050007691
 21
261.0489871175
  0
LINE
  5
3AD
100
AcDbEntity
  8
BEZUGSACHSEN
100
AcDbLine
 62
7
  6
CONTINUOUS
 10
464.4655403004
 20
324.2574405865
 11
453.3871718437
 21
300.4998027632
  0
LINE
  5
3AE
100
AcDbEntity
  8
0
100
AcDbLine
 62
7
  6
CONTINUOUS
 10
374.3344963271
 20
287.563859964
 11
375.2094967444
 21
288.457476957
  0
LINE
  5
3AF
100
AcDbEntity
  8
0
100
AcDbLine
 62
7
  6
CONTINUOUS
 10
384.8344963271
 20
287.563859964
 11
385.7094954927
 21
288.457476957
  0
LINE
  5
3B0
100
AcDbEntity
  8
0
100
AcDbLine
 62
7
  6
CONTINUOUS
 10
373.8969967444
 20
288.9042855708
 11
373.2407467444
 21
288.457476957
  0
LINE
  5
3B1
100
AcDbEntity
  8
0
100
AcDbLine
 62
7
  6
CONTINUOUS
 10
304.3033525231
 20
284.1720197908
 11
303.4933707221
 21
283.7267306801
  0
LINE
  5
3B2
100
AcDbEntity
  8
0
100
AcDbLine
 62
7
  6
CONTINUOUS
 10
317.2058388103
 20
288.2618814573
 11
317.7544486038
 21
288.5098498984
  0
LINE
  5
3B3
100
AcDbEntity
  8
0
100
AcDbLine
 62
7
  6
CONTINUOUS
 10
304.4530317151
 20
279.9638673322
 11
305.0016398628
 21
280.2118354963
  0
LINE
  5
3B4
100
AcDbEntity
  8
0
100
AcDbLine
 62
7
  6
CONTINUOUS
 10
320.5008059011
 20
283.8521591361
 11
319.9521961076
 21
283.604190695
  0
LINE
  5
3B5
100
AcDbEntity
  8
0
100
AcDbLine
 62
7
  6
CONTINUOUS
 10
301.8128731019
 20
285.6989200224
 11
302.5051001449
 21
285.9722120596
  0
LINE
  5
3B6
100
AcDbEntity
  8
0
100
AcDbLine
 62
7
  6
CONTINUOUS
 10
317.599273655
 20
289.3898907643
 11
316.9070482556
 21
289.116599017
  0
LINE
  5
3B7
100
AcDbEntity
  8
0
100
AcDbLine
 62
7
  6
CONTINUOUS
 10
304.8723273896
 20
280.9452029745
 11
304.1801003467
 21
280.6719109373
  0
LINE
  5
3B8
100
AcDbEntity
  8
0
100
AcDbLine
 62
7
  6
CONTINUOUS
 10
302.519404937
 20
286.7309030438
 11
301.5399433951
 21
286.4069638147
  0
LWPOLYLINE
  5
3B9
100
AcDbEntity
  8
BEZUGSACHSEN
100
AcDbPolyline
 62
7
  6
CONTINUOUS
 90
3
 70
0
 10
500.1350157929
 20
255.6351684978
 10
500.1520423695
 20
255.7800917967
 10
500.1582463271
 20
255.9357820937
  0
LINE
  5
3BA
100
AcDbEntity
  8
RUNDUNGEN
100
AcDbLine
 62
7
  6
CONTINUOUS
 10
500.1350157946
 20
255.6351685089
 11
500.1503955215
 21
255.7606794398
  0
LINE
  5
3BB
100
AcDbEntity
  8
RUNDUNGEN
100
AcDbLine
 62
7
  6
CONTINUOUS
 10
502.9114920506
 20
215.3183084586
 11
500.2534739972
 21
196.4055272797
  0
LINE
  5
3BC
100
AcDbEntity
  8
0
100
AcDbLine
 62
7
  6
CONTINUOUS
 10
384.3969954927
 20
288.9042855708
 11
383.7407454927
 21
288.457476957
  0
LINE
  5
3BD
100
AcDbEntity
  8
0
100
AcDbLine
 62
7
  6
CONTINUOUS
 10
364.2719965358
 20
292.0319450854
 11
365.1469963271
 21
292.4787535428
  0
LINE
  5
3BE
100
AcDbEntity
  8
0
100
AcDbLine
 62
7
  6
CONTINUOUS
 10
373.4594959099
 20
287.117051448
 11
374.3344963271
 21
287.563859964
  0
LINE
  5
3BF
100
AcDbEntity
  8
0
100
AcDbLine
 62
7
  6
CONTINUOUS
 10
383.9594971616
 20
287.117051448
 11
384.8344963271
 21
287.563859964
  0
LINE
  5
3C0
100
AcDbEntity
  8
0
100
AcDbLine
 62
7
  6
CONTINUOUS
 10
320.1073710745
 20
282.7241497264
 11
320.7995964716
 21
282.9974414865
  0
LINE
  5
3C1
100
AcDbEntity
  8
0
100
AcDbLine
 62
7
  6
CONTINUOUS
 10
364.0532461185
 20
293.1489662288
 11
363.3969961185
 21
292.9255620001
  0
LINE
  5
3C2
100
AcDbEntity
  8
BEZUGSACHSEN
100
AcDbLine
 62
7
  6
CONTINUOUS
 10
480.3967037544
 20
258.8260854379
 11
479.5046335361
 21
257.9340152196
  0
LINE
  5
3C3
100
AcDbEntity
  8
RUNDUNGEN
100
AcDbLine
 62
7
  6
CONTINUOUS
 10
505.1010809985
 20
218.6364323761
 11
505.1131007408
 21
218.6503498165
  0
LINE
  5
3C4
100
AcDbEntity
  8
RUNDUNGEN
100
AcDbLine
 62
7
  6
CONTINUOUS
 10
504.9118254711
 20
218.4332455329
 11
504.0197970444
 21
217.5412171062
  0
LINE
  5
3C5
100
AcDbEntity
  8
BEZUGSACHSEN
100
AcDbLine
 62
7
  6
CONTINUOUS
 10
768.5568488561
 20
220.6622471997
 11
762.3561143771
 21
220.6622471997
  0
LINE
  5
3C6
100
AcDbEntity
  8
BEZUGSACHSEN
100
AcDbLine
 62
7
  6
CONTINUOUS
 10
739.5729031771
 20
220.6622471997
 11
733.566556366
 21
220.6622471997
  0
LINE
  5
3C7
100
AcDbEntity
  8
BEZUGSACHSEN
100
AcDbLine
 62
7
  6
CONTINUOUS
 10
806.2943594618
 20
222.6839471997
 11
821.2495724397
 21
222.6839471997
  0
LINE
  5
3C8
100
AcDbEntity
  8
0
100
AcDbLine
 62
7
  6
CONTINUOUS
 10
820.9126331771
 20
224.0317471997
 11
806.4965643771
 21
224.0317471997
  0
LINE
  5
3C9
100
AcDbEntity
  8
BEZUGSACHSEN
100
AcDbLine
 62
7
  6
CONTINUOUS
 10
820.9126331771
 20
224.0317471997
 11
806.4965643771
 21
224.0317471997
  0
LINE
  5
3CA
100
AcDbEntity
  8
0
100
AcDbLine
 62
7
  6
CONTINUOUS
 10
823.2065887771
 20
232.6836471997
 11
822.8696387771
 21
232.6836471997
  0
LINE
  5
3CB
100
AcDbEntity
  8
0
100
AcDbLine
 62
7
  6
CONTINUOUS
 10
804.5395587771
 20
232.6836471997
 11
804.3373887771
 21
232.6836471997
  0
LINE
  5
3CC
100
AcDbEntity
  8
0
100
AcDbLine
 62
7
  6
CONTINUOUS
 10
794.1982487771
 20
232.6836471997
 11
770.5382487771
 21
232.6836471997
  0
LINE
  5
3CD
100
AcDbEntity
  8
0
100
AcDbLine
 62
7
  6
CONTINUOUS
 10
760.3991087771
 20
232.6836471997
 11
760.1969387771
 21
232.6836471997
  0
LINE
  5
3CE
100
AcDbEntity
  8
0
100
AcDbLine
 62
7
  6
CONTINUOUS
 10
741.8668587771
 20
232.6836471997
 11
741.5299087771
 21
232.6836471997
  0
LINE
  5
3CF
100
AcDbEntity
  8
0
100
AcDbLine
 62
7
  6
CONTINUOUS
 10
823.2065887771
 20
243.6836471997
 11
822.8696387771
 21
243.6836471997
  0
LINE
  5
3D0
100
AcDbEntity
  8
0
100
AcDbLine
 62
7
  6
CONTINUOUS
 10
804.5395587771
 20
243.6836471997
 11
804.3373887771
 21
243.6836471997
  0
LINE
  5
3D1
100
AcDbEntity
  8
0
100
AcDbLine
 62
7
  6
CONTINUOUS
 10
794.1982487771
 20
243.6836471997
 11
770.5382487771
 21
243.6836471997
  0
LINE
  5
3D2
100
AcDbEntity
  8
0
100
AcDbLine
 62
7
  6
CONTINUOUS
 10
760.3991087771
 20
243.6836471997
 11
760.1969387771
 21
243.6836471997
  0
LINE
  5
3D3
100
AcDbEntity
  8
0
100
AcDbLine
 62
7
  6
CONTINUOUS
 10
741.8668587771
 20
243.6836471997
 11
741.5299087771
 21
243.6836471997
  0
LINE
  5
3D4
100
AcDbEntity
  8
0
100
AcDbLine
 62
7
  6
CONTINUOUS
 10
743.8238643771
 20
252.3355471997
 11
758.2399331771
 21
252.3355471997
  0
LINE
  5
3D5
100
AcDbEntity
  8
BEZUGSACHSEN
100
AcDbLine
 62
7
  6
CONTINUOUS
 10
758.4421368897
 20
253.6833471997
 11
743.4869198046
 21
253.6833471997
  0
LINE
  5
3D6
100
AcDbEntity
  8
BEZUGSACHSEN
100
AcDbLine
 62
7
  6
CONTINUOUS
 10
796.1796486981
 20
255.7050471997
 11
802.3803831771
 21
255.7050471997
  0
LINE
  5
3D7
100
AcDbEntity
  8
BEZUGSACHSEN
100
AcDbLine
 62
7
  6
CONTINUOUS
 10
825.1635943771
 20
255.7050471997
 11
831.1699411882
 21
255.7050471997
  0
LINE
  5
3D8
100
AcDbEntity
  8
BEZUGSACHSEN
100
AcDbLine
 62
7
  6
CONTINUOUS
 10
767.3682487771
 20
264.1836471997
 11
797.3682487771
 21
264.1836471997
  0
LINE
  5
3D9
100
AcDbEntity
  8
RUNDUNGEN
100
AcDbLine
 62
7
  6
CONTINUOUS
 10
820.3682487771
 20
273.9614028734
 11
816.8682487771
 21
273.9614028734
  0
LINE
  5
3DA
100
AcDbEntity
  8
RUNDUNGEN
100
AcDbLine
 62
7
  6
CONTINUOUS
 10
747.8682487771
 20
273.9614028734
 11
744.3682487771
 21
273.9614028734
  0
LINE
  5
3DB
100
AcDbEntity
  8
RUNDUNGEN
100
AcDbLine
 62
7
  6
CONTINUOUS
 10
820.3682487771
 20
276.8292850552
 11
816.8682487771
 21
276.8292850552
  0
LINE
  5
3DC
100
AcDbEntity
  8
RUNDUNGEN
100
AcDbLine
 62
7
  6
CONTINUOUS
 10
747.8682487771
 20
276.8292850552
 11
744.3682487771
 21
276.8292850552
  0
LINE
  5
3DD
100
AcDbEntity
  8
RUNDUNGEN
100
AcDbLine
 62
7
  6
CONTINUOUS
 10
810.3682487771
 20
286.2486835378
 11
801.5128329889
 21
286.2486835378
  0
LINE
  5
3DE
100
AcDbEntity
  8
RUNDUNGEN
100
AcDbLine
 62
7
  6
CONTINUOUS
 10
763.2236645653
 20
286.2486835378
 11
754.3682487771
 21
286.2486835378
  0
LINE
  5
3DF
100
AcDbEntity
  8
RUNDUNGEN
100
AcDbLine
 62
7
  6
CONTINUOUS
 10
810.3682487771
 20
289.1165657195
 11
801.5128329889
 21
289.1165657195
  0
LINE
  5
3E0
100
AcDbEntity
  8
RUNDUNGEN
100
AcDbLine
 62
7
  6
CONTINUOUS
 10
763.2236645653
 20
289.1165657195
 11
754.3682487771
 21
289.1165657195
  0
LINE
  5
3E1
100
AcDbEntity
  8
0
100
AcDbLine
 62
7
  6
CONTINUOUS
 10
766.8682487771
 20
305.4996066053
 11
797.8682487771
 21
305.4996066053
  0
LINE
  5
3E2
100
AcDbEntity
  8
0
100
AcDbLine
 62
7
  6
CONTINUOUS
 10
797.3682487771
 20
305.5363579438
 11
767.3682487771
 21
305.5363579438
  0
LINE
  5
3E3
100
AcDbEntity
  8
0
100
AcDbLine
 62
7
  6
CONTINUOUS
 10
797.3682487771
 20
305.9091826275
 11
767.3682487771
 21
305.9091826275
  0
LINE
  5
3E4
100
AcDbEntity
  8
RUNDUNGEN
100
AcDbLine
 62
7
  6
CONTINUOUS
 10
731.9450646169
 20
221.5042539741
 11
727.248202899
 21
228.2120676745
  0
LINE
  5
3E5
100
AcDbEntity
  8
BEZUGSACHSEN
100
AcDbLine
 62
7
  6
CONTINUOUS
 10
731.9450646169
 20
221.5042539741
 11
727.248202899
 21
228.2120676745
  0
LINE
  5
3E6
100
AcDbEntity
  8
0
100
AcDbLine
 62
7
  6
CONTINUOUS
 10
776.7160513849
 20
321.9555640346
 11
776.281302296
 21
321.839239217
  0
LINE
  5
3E7
100
AcDbEntity
  8
0
100
AcDbLine
 62
7
  6
CONTINUOUS
 10
776.3061560262
 20
323.4995704503
 11
776.7409054779
 21
323.61589517
  0
LINE
  5
3E8
100
AcDbEntity
  8
0
100
AcDbLine
 62
7
  6
CONTINUOUS
 10
774.0513128049
 20
323.1295279497
 11
773.8264216362
 21
323.105267004
  0
LINE
  5
3E9
100
AcDbEntity
  8
0
100
AcDbLine
 62
7
  6
CONTINUOUS
 10
773.3930371715
 20
324.2209940967
 11
773.6179283401
 21
324.2452550423
  0
LINE
  5
3EA
100
AcDbEntity
  8
0
100
AcDbLine
 62
7
  6
CONTINUOUS
 10
773.7057470655
 20
324.5017557844
 11
773.2559647082
 21
324.4532339014
  0
LINE
  5
3EB
100
AcDbEntity
  8
0
100
AcDbLine
 62
7
  6
CONTINUOUS
 10
773.8813845567
 20
325.0147574157
 11
774.1062757253
 21
325.0390183613
  0
LINE
  5
3EC
100
AcDbEntity
  8
0
100
AcDbLine
 62
7
  6
CONTINUOUS
 10
776.2675805705
 20
321.5799988473
 11
776.5336806996
 21
321.6060981518
  0
LINE
  5
3ED
100
AcDbEntity
  8
0
100
AcDbLine
 62
7
  6
CONTINUOUS
 10
776.7546271893
 20
323.8751355254
 11
776.4885270742
 21
323.8490362352
  0
LINE
  5
3EE
100
AcDbEntity
  8
0
100
AcDbLine
 62
7
  6
CONTINUOUS
 10
773.7386030131
 20
322.848766184
 11
774.1038460912
 21
322.8736371655
  0
LINE
  5
3EF
100
AcDbEntity
  8
0
100
AcDbLine
 62
7
  6
CONTINUOUS
 10
774.1940944507
 20
325.2955191033
 11
773.8288512603
 21
325.2706481835
  0
LINE
  5
3F0
100
AcDbEntity
  8
0
100
AcDbLine
 62
7
  6
CONTINUOUS
 10
792.7682487771
 20
309.1185157158
 11
793.6349154696
 21
309.1185157158
  0
LINE
  5
3F1
100
AcDbEntity
  8
0
100
AcDbLine
 62
7
  6
CONTINUOUS
 10
794.1765821621
 20
309.1185157158
 11
795.3682487771
 21
309.1185157158
  0
LINE
  5
3F2
100
AcDbEntity
  8
0
100
AcDbLine
 62
7
  6
CONTINUOUS
 10
795.3682487771
 20
309.4810340241
 11
794.1765821621
 21
309.4810340241
  0
LINE
  5
3F3
100
AcDbEntity
  8
0
100
AcDbLine
 62
7
  6
CONTINUOUS
 10
793.6349154696
 20
309.4810340241
 11
792.7682487771
 21
309.4810340241
  0
LINE
  5
3F4
100
AcDbEntity
  8
0
100
AcDbLine
 62
7
  6
CONTINUOUS
 10
794.1765821621
 20
309.8332462109
 11
793.6349154696
 21
309.8332462109
  0
LINE
  5
3F5
100
AcDbEntity
  8
0
100
AcDbLine
 62
7
  6
CONTINUOUS
 10
794.1765821621
 20
310.2060708946
 11
793.6349154696
 21
310.2060708946
  0
LINE
  5
3F6
100
AcDbEntity
  8
0
100
AcDbLine
 62
7
  6
CONTINUOUS
 10
767.3682487771
 20
312.4623989818
 11
797.3682487771
 21
312.4623989818
  0
LINE
  5
3F7
100
AcDbEntity
  8
0
100
AcDbLine
 62
7
  6
CONTINUOUS
 10
795.8682487771
 20
312.4991503203
 11
768.2804758751
 21
312.4991503203
  0
LINE
  5
3F8
100
AcDbEntity
  8
0
100
AcDbLine
 62
7
  6
CONTINUOUS
 10
795.8682487771
 20
312.8719750039
 11
768.2804758751
 21
312.8719750039
  0
LINE
  5
3F9
100
AcDbEntity
  8
BEZUGSACHSEN
100
AcDbLine
 62
7
  6
CONTINUOUS
 10
728.3682487771
 20
322.1836471997
 11
758.3682487771
 21
322.1836471997
  0
LINE
  5
3FA
100
AcDbEntity
  8
BEZUGSACHSEN
100
AcDbLine
 62
7
  6
CONTINUOUS
 10
805.3682487771
 20
322.1836471997
 11
835.3682487771
 21
322.1836471997
  0
LINE
  5
3FB
100
AcDbEntity
  8
0
100
AcDbLine
 62
7
  6
CONTINUOUS
 10
767.3682487771
 20
324.7864309846
 11
766.8682487771
 21
324.7864309846
  0
LINE
  5
3FC
100
AcDbEntity
  8
0
100
AcDbLine
 62
7
  6
CONTINUOUS
 10
767.3682487771
 20
325.1592556682
 11
766.8682487771
 21
325.1592556682
  0
LINE
  5
3FD
100
AcDbEntity
  8
0
100
AcDbLine
 62
7
  6
CONTINUOUS
 10
766.8682487771
 20
330.074167934
 11
797.8682487771
 21
330.074167934
  0
LINE
  5
3FE
100
AcDbEntity
  8
0
100
AcDbLine
 62
7
  6
CONTINUOUS
 10
780.5026754993
 20
321.3954314167
 11
780.8148888658
 21
321.3844736061
  0
LINE
  5
3FF
100
AcDbEntity
  8
0
100
AcDbLine
 62
7
  6
CONTINUOUS
 10
781.0154122713
 20
321.4965534475
 11
780.7031986098
 21
321.5075110925
  0
LINE
  5
400
100
AcDbEntity
  8
0
100
AcDbLine
 62
7
  6
CONTINUOUS
 10
781.0154122713
 20
321.8693781311
 11
780.7031986098
 21
321.8803357762
  0
LINE
  5
401
100
AcDbEntity
  8
0
100
AcDbLine
 62
7
  6
CONTINUOUS
 10
776.281302296
 20
321.839239217
 11
776.0551767275
 21
321.8539027333
  0
LINE
  5
402
100
AcDbEntity
  8
0
100
AcDbLine
 62
7
  6
CONTINUOUS
 10
776.7409054779
 20
323.61589517
 11
776.9670310463
 21
323.6012316537
  0
LINE
  5
403
100
AcDbEntity
  8
0
100
AcDbLine
 62
7
  6
CONTINUOUS
 10
775.9040292756
 20
321.6180257549
 11
776.2675805705
 21
321.5799988473
  0
LINE
  5
404
100
AcDbEntity
  8
0
100
AcDbLine
 62
7
  6
CONTINUOUS
 10
777.1181781949
 20
323.8371087906
 11
776.7546271893
 21
323.8751355254
  0
LINE
  5
405
100
AcDbEntity
  8
0
100
AcDbLine
 62
7
  6
CONTINUOUS
 10
773.8264216362
 20
323.105267004
 11
773.6302568595
 21
323.1276979777
  0
LINE
  5
406
100
AcDbEntity
  8
0
100
AcDbLine
 62
7
  6
CONTINUOUS
 10
773.6179283401
 20
324.2452550423
 11
773.8140931967
 21
324.2228240357
  0
LINE
  5
407
100
AcDbEntity
  8
0
100
AcDbLine
 62
7
  6
CONTINUOUS
 10
774.1062757253
 20
325.0390183613
 11
774.3024405819
 21
325.0165873547
  0
LINE
  5
408
100
AcDbEntity
  8
0
100
AcDbLine
 62
7
  6
CONTINUOUS
 10
794.5015821621
 20
306.6715168888
 11
795.1515821621
 21
306.5808873038
  0
LINE
  5
409
100
AcDbEntity
  8
0
100
AcDbLine
 62
7
  6
CONTINUOUS
 10
795.1515821621
 20
306.9434056438
 11
794.6099153921
 21
307.0340352526
  0
LINE
  5
40A
100
AcDbEntity
  8
0
100
AcDbLine
 62
7
  6
CONTINUOUS
 10
773.4308124043
 20
322.9172791811
 11
773.7386030131
 21
322.848766184
  0
LINE
  5
40B
100
AcDbEntity
  8
0
100
AcDbLine
 62
7
  6
CONTINUOUS
 10
774.0135376318
 20
324.4332427997
 11
773.7057470655
 21
324.5017557844
  0
LINE
  5
40C
100
AcDbEntity
  8
0
100
AcDbLine
 62
7
  6
CONTINUOUS
 10
774.501885017
 20
325.2270061186
 11
774.1940944507
 21
325.2955191033
  0
LINE
  5
40D
100
AcDbEntity
  8
0
100
AcDbLine
 62
7
  6
CONTINUOUS
 10
794.1765821621
 20
306.7621464738
 11
794.5015821621
 21
306.6715168888
  0
LINE
  5
40E
100
AcDbEntity
  8
0
100
AcDbLine
 62
7
  6
CONTINUOUS
 10
773.2239588377
 20
324.1736921703
 11
773.3930371715
 21
324.2209940967
  0
LINE
  5
40F
100
AcDbEntity
  8
0
100
AcDbLine
 62
7
  6
CONTINUOUS
 10
779.2332840757
 20
348.6212065633
 11
779.5415503992
 21
348.6631996289
  0
LINE
  5
410
100
AcDbEntity
  8
0
100
AcDbLine
 62
7
  6
CONTINUOUS
 10
779.6157524567
 20
348.7987241603
 11
779.3074858863
 21
348.7567308829
  0
LINE
  5
411
100
AcDbEntity
  8
0
100
AcDbLine
 62
7
  6
CONTINUOUS
 10
779.6157524567
 20
349.171548844
 11
779.3074858863
 21
349.1295555665
  0
LINE
  5
412
100
AcDbEntity
  8
0
100
AcDbLine
 62
7
  6
CONTINUOUS
 10
774.3876554459
 20
349.4309979044
 11
774.6988595622
 21
349.4704538803
  0
LINE
  5
413
100
AcDbEntity
  8
0
100
AcDbLine
 62
7
  6
CONTINUOUS
 10
775.1415541243
 20
348.3189888381
 11
774.915802393
 21
348.3008678164
  0
LINE
  5
414
100
AcDbEntity
  8
0
100
AcDbLine
 62
7
  6
CONTINUOUS
 10
774.8176184532
 20
348.0469013821
 11
775.183669539
 21
348.0618084833
  0
LINE
  5
415
100
AcDbEntity
  8
0
100
AcDbLine
 62
7
  6
CONTINUOUS
 10
774.7970434832
 20
349.7244202865
 11
774.4309924054
 21
349.7095131973
  0
LINE
  5
416
100
AcDbEntity
  8
0
100
AcDbLine
 62
7
  6
CONTINUOUS
 10
797.3682487771
 20
330.1109192725
 11
767.3682487771
 21
330.1109192725
  0
LINE
  5
417
100
AcDbEntity
  8
0
100
AcDbLine
 62
7
  6
CONTINUOUS
 10
797.3682487771
 20
330.4837439561
 11
767.3682487771
 21
330.4837439561
  0
LINE
  5
418
100
AcDbEntity
  8
KONSTRUKTIONSELEMENTE
100
AcDbLine
 62
7
  6
CONTINUOUS
 10
728.3682487771
 20
330.6836471997
 11
708.3682487771
 21
330.6836471997
  0
LINE
  5
419
100
AcDbEntity
  8
0
100
AcDbLine
 62
7
  6
CONTINUOUS
 10
792.7682487771
 20
333.9224396168
 11
793.6349154696
 21
333.9224396168
  0
LINE
  5
41A
100
AcDbEntity
  8
0
100
AcDbLine
 62
7
  6
CONTINUOUS
 10
794.1765821621
 20
333.9224396168
 11
795.3682487771
 21
333.9224396168
  0
LINE
  5
41B
100
AcDbEntity
  8
0
100
AcDbLine
 62
7
  6
CONTINUOUS
 10
795.3682487771
 20
334.2849579251
 11
794.1765821621
 21
334.2849579251
  0
LINE
  5
41C
100
AcDbEntity
  8
0
100
AcDbLine
 62
7
  6
CONTINUOUS
 10
793.6349154696
 20
334.2849579251
 11
792.7682487771
 21
334.2849579251
  0
LINE
  5
41D
100
AcDbEntity
  8
0
100
AcDbLine
 62
7
  6
CONTINUOUS
 10
794.1765821621
 20
334.637170112
 11
793.6349154696
 21
334.637170112
  0
LINE
  5
41E
100
AcDbEntity
  8
0
100
AcDbLine
 62
7
  6
CONTINUOUS
 10
794.1765821621
 20
335.0099947956
 11
793.6349154696
 21
335.0099947956
  0
LINE
  5
41F
100
AcDbEntity
  8
BEZUGSACHSEN
100
AcDbLine
 62
7
  6
CONTINUOUS
 10
835.3682487771
 20
335.1836471997
 11
842.3682487771
 21
335.1836471997
  0
LINE
  5
420
100
AcDbEntity
  8
KONSTRUKTIONSELEMENTE
100
AcDbLine
 62
7
  6
CONTINUOUS
 10
841.3682487771
 20
335.7337028791
 11
847.3682487771
 21
335.7337028791
  0
LINE
  5
421
100
AcDbEntity
  8
0
100
AcDbLine
 62
7
  6
CONTINUOUS
 10
767.3682487771
 20
337.0369603104
 11
797.3682487771
 21
337.0369603104
  0
LINE
  5
422
100
AcDbEntity
  8
0
100
AcDbLine
 62
7
  6
CONTINUOUS
 10
796.4540352147
 20
337.073711649
 11
768.4219255715
 21
337.073711649
  0
LINE
  5
423
100
AcDbEntity
  8
0
100
AcDbLine
 62
7
  6
CONTINUOUS
 10
796.4540352147
 20
337.4465363326
 11
768.4219255715
 21
337.4465363326
  0
LINE
  5
424
100
AcDbEntity
  8
KONSTRUKTIONSELEMENTE
100
AcDbLine
 62
7
  6
CONTINUOUS
 10
705.3682487771
 20
337.6836471997
 11
701.3682487771
 21
337.6836471997
  0
LINE
  5
425
100
AcDbEntity
  8
KONSTRUKTIONSELEMENTE
100
AcDbLine
 62
7
  6
CONTINUOUS
 10
696.3682487771
 20
340.1836471997
 11
701.3682487771
 21
340.1836471997
  0
LINE
  5
426
100
AcDbEntity
  8
KONSTRUKTIONSELEMENTE
100
AcDbLine
 62
7
  6
CONTINUOUS
 10
705.3682487771
 20
340.1836471997
 11
708.3682487771
 21
340.1836471997
  0
LINE
  5
427
100
AcDbEntity
  8
0
100
AcDbLine
 62
7
  6
CONTINUOUS
 10
767.3682487771
 20
349.3609923133
 11
766.8682487771
 21
349.3609923133
  0
LINE
  5
428
100
AcDbEntity
  8
0
100
AcDbLine
 62
7
  6
CONTINUOUS
 10
767.3682487771
 20
349.7338169969
 11
766.8682487771
 21
349.7338169969
  0
LINE
  5
429
100
AcDbEntity
  8
0
100
AcDbLine
 62
7
  6
CONTINUOUS
 10
794.5015821621
 20
331.4754407899
 11
795.1515821621
 21
331.3848112048
  0
LINE
  5
42A
100
AcDbEntity
  8
0
100
AcDbLine
 62
7
  6
CONTINUOUS
 10
795.1515821621
 20
331.7473295449
 11
794.6099153921
 21
331.8379591537
  0
LINE
  5
42B
100
AcDbEntity
  8
0
100
AcDbLine
 62
7
  6
CONTINUOUS
 10
774.915802393
 20
348.3008678164
 11
774.6658100649
 21
348.353179101
  0
LINE
  5
42C
100
AcDbEntity
  8
0
100
AcDbLine
 62
7
  6
CONTINUOUS
 10
774.6988595622
 20
349.4704538803
 11
774.9488518903
 21
349.4181425957
  0
LINE
  5
42D
100
AcDbEntity
  8
0
100
AcDbLine
 62
7
  6
CONTINUOUS
 10
774.5127797885
 20
348.1237612685
 11
774.8176184532
 21
348.0469013821
  0
LINE
  5
42E
100
AcDbEntity
  8
0
100
AcDbLine
 62
7
  6
CONTINUOUS
 10
771.9446221278
 20
349.0548759662
 11
772.3025863072
 21
348.9633409162
  0
LINE
  5
42F
100
AcDbEntity
  8
0
100
AcDbLine
 62
7
  6
CONTINUOUS
 10
794.1765821621
 20
331.5660703749
 11
794.5015821621
 21
331.4754407899
  0
LINE
  5
430
100
AcDbEntity
  8
0
100
AcDbLine
 62
7
  6
CONTINUOUS
 10
773.15174819
 20
323.0324841015
 11
773.4308124043
 21
322.9172791811
  0
LINE
  5
431
100
AcDbEntity
  8
0
100
AcDbLine
 62
7
  6
CONTINUOUS
 10
773.6302568595
 20
323.1276979777
 11
773.2395668955
 21
323.2889848927
  0
LINE
  5
432
100
AcDbEntity
  8
0
100
AcDbLine
 62
7
  6
CONTINUOUS
 10
773.8140931967
 20
324.2228240357
 11
774.2047831607
 21
324.0615371207
  0
LINE
  5
433
100
AcDbEntity
  8
0
100
AcDbLine
 62
7
  6
CONTINUOUS
 10
774.2926018461
 20
324.3180378792
 11
774.0135376318
 21
324.4332427997
  0
LINE
  5
434
100
AcDbEntity
  8
0
100
AcDbLine
 62
7
  6
CONTINUOUS
 10
774.9114626375
 20
324.4138618112
 11
775.190526772
 21
324.2986569237
  0
LINE
  5
435
100
AcDbEntity
  8
0
100
AcDbLine
 62
7
  6
CONTINUOUS
 10
774.3024405819
 20
325.0165873547
 11
774.6373176711
 21
324.878341437
  0
LINE
  5
436
100
AcDbEntity
  8
0
100
AcDbLine
 62
7
  6
CONTINUOUS
 10
774.7251363565
 20
325.1348421955
 11
774.501885017
 21
325.2270061186
  0
LINE
  5
437
100
AcDbEntity
  8
0
100
AcDbLine
 62
7
  6
CONTINUOUS
 10
776.0551767275
 20
321.8539027333
 11
775.7715745364
 21
321.9734552646
  0
LINE
  5
438
100
AcDbEntity
  8
0
100
AcDbLine
 62
7
  6
CONTINUOUS
 10
776.9670310463
 20
323.6012316537
 11
777.2506329586
 21
323.4816793059
  0
LINE
  5
439
100
AcDbEntity
  8
0
100
AcDbLine
 62
7
  6
CONTINUOUS
 10
775.5717017751
 20
321.7696412035
 11
775.9040292756
 21
321.6180257549
  0
LINE
  5
43A
100
AcDbEntity
  8
0
100
AcDbLine
 62
7
  6
CONTINUOUS
 10
777.4505056919
 20
323.3126686548
 11
777.3971576259
 21
323.3370072703
  0
LINE
  5
43B
100
AcDbEntity
  8
0
100
AcDbLine
 62
7
  6
CONTINUOUS
 10
777.4505056919
 20
323.6854933385
 11
777.1181781949
 21
323.8371087906
  0
LINE
  5
43C
100
AcDbEntity
  8
0
100
AcDbLine
 62
7
  6
CONTINUOUS
 10
782.3682487771
 20
319.2566333232
 11
795.8682487771
 21
312.8719750039
  0
LINE
  5
43D
100
AcDbEntity
  8
0
100
AcDbLine
 62
7
  6
CONTINUOUS
 10
797.8682487771
 20
312.4991503203
 11
782.3682487771
 21
319.8296839461
  0
LINE
  5
43E
100
AcDbEntity
  8
0
100
AcDbLine
 62
7
  6
CONTINUOUS
 10
797.8682487771
 20
312.8719750039
 11
782.3682487771
 21
320.2025086297
  0
LINE
  5
43F
100
AcDbEntity
  8
0
100
AcDbLine
 62
7
  6
CONTINUOUS
 10
793.8515820846
 20
306.9434056438
 11
794.1765821621
 21
306.7621464738
  0
LINE
  5
440
100
AcDbEntity
  8
0
100
AcDbLine
 62
7
  6
CONTINUOUS
 10
794.6099153921
 20
306.661210569
 11
794.2849153921
 21
306.8424697231
  0
LINE
  5
441
100
AcDbEntity
  8
0
100
AcDbLine
 62
7
  6
CONTINUOUS
 10
794.6099153921
 20
307.0340352526
 11
794.2849153921
 21
307.2152944068
  0
LINE
  5
442
100
AcDbEntity
  8
0
100
AcDbLine
 62
7
  6
CONTINUOUS
 10
772.9014102503
 20
323.1943809948
 11
773.15174819
 21
323.0324841015
  0
LINE
  5
443
100
AcDbEntity
  8
0
100
AcDbLine
 62
7
  6
CONTINUOUS
 10
774.5429398282
 20
323.7833162899
 11
774.3837241172
 21
323.8862832098
  0
LINE
  5
444
100
AcDbEntity
  8
0
100
AcDbLine
 62
7
  6
CONTINUOUS
 10
774.5429398282
 20
324.1561409735
 11
774.2926018461
 21
324.3180378792
  0
LINE
  5
445
100
AcDbEntity
  8
0
100
AcDbLine
 62
7
  6
CONTINUOUS
 10
774.9754742588
 20
324.6001206391
 11
774.8162587381
 21
324.7030874478
  0
LINE
  5
446
100
AcDbEntity
  8
0
100
AcDbLine
 62
7
  6
CONTINUOUS
 10
774.9754742588
 20
324.9729453228
 11
774.7251363565
 21
325.1348421955
  0
LINE
  5
447
100
AcDbEntity
  8
0
100
AcDbLine
 62
7
  6
CONTINUOUS
 10
807.1494987771
 20
358.7202400237
 11
806.7432487771
 21
358.6069530523
  0
LINE
  5
448
100
AcDbEntity
  8
0
100
AcDbLine
 62
7
  6
CONTINUOUS
 10
807.1494987771
 20
359.0930647073
 11
806.7432487771
 21
358.979777736
  0
LINE
  5
449
100
AcDbEntity
  8
0
100
AcDbLine
 62
7
  6
CONTINUOUS
 10
804.576582627
 20
358.5266298506
 11
804.982832627
 21
358.6399168219
  0
LINE
  5
44A
100
AcDbEntity
  8
0
100
AcDbLine
 62
7
  6
CONTINUOUS
 10
804.982832627
 20
358.7202400237
 11
804.576582627
 21
358.6069530523
  0
LINE
  5
44B
100
AcDbEntity
  8
0
100
AcDbLine
 62
7
  6
CONTINUOUS
 10
804.982832627
 20
359.0930647073
 11
804.576582627
 21
358.979777736
  0
LINE
  5
44C
100
AcDbEntity
  8
0
100
AcDbLine
 62
7
  6
CONTINUOUS
 10
801.0557487771
 20
358.7202400237
 11
800.6494987771
 21
358.6069530523
  0
LINE
  5
44D
100
AcDbEntity
  8
0
100
AcDbLine
 62
7
  6
CONTINUOUS
 10
801.0557487771
 20
359.0930647073
 11
800.6494987771
 21
358.979777736
  0
LINE
  5
44E
100
AcDbEntity
  8
0
100
AcDbLine
 62
7
  6
CONTINUOUS
 10
798.4828318522
 20
358.5266298506
 11
798.8890818522
 21
358.6399168219
  0
LINE
  5
44F
100
AcDbEntity
  8
0
100
AcDbLine
 62
7
  6
CONTINUOUS
 10
798.8890818522
 20
358.7202400237
 11
798.4828318522
 21
358.6069530523
  0
LINE
  5
450
100
AcDbEntity
  8
0
100
AcDbLine
 62
7
  6
CONTINUOUS
 10
798.8890818522
 20
359.0930647073
 11
798.4828318522
 21
358.979777736
  0
LINE
  5
451
100
AcDbEntity
  8
0
100
AcDbLine
 62
7
  6
CONTINUOUS
 10
795.0974153146
 20
358.2670921383
 11
794.2849153146
 21
358.0405181956
  0
LINE
  5
452
100
AcDbEntity
  8
0
100
AcDbLine
 62
7
  6
CONTINUOUS
 10
795.0974153146
 20
358.6399168219
 11
794.2849153146
 21
358.4133428792
  0
LINE
  5
453
100
AcDbEntity
  8
0
100
AcDbLine
 62
7
  6
CONTINUOUS
 10
776.3286655083
 20
359.9584031932
 11
776.7349155083
 21
360.0716901645
  0
LINE
  5
454
100
AcDbEntity
  8
0
100
AcDbLine
 62
7
  6
CONTINUOUS
 10
794.5557487771
 20
355.4678813069
 11
795.0974153146
 21
355.5811682882
  0
LINE
  5
455
100
AcDbEntity
  8
0
100
AcDbLine
 62
7
  6
CONTINUOUS
 10
778.0890822396
 20
355.8471078998
 11
777.5474155083
 21
355.7338209285
  0
LINE
  5
456
100
AcDbEntity
  8
0
100
AcDbLine
 62
7
  6
CONTINUOUS
 10
778.0890822396
 20
356.2199325835
 11
777.5474155083
 21
356.1066456121
  0
LINE
  5
457
100
AcDbEntity
  8
0
100
AcDbLine
 62
7
  6
CONTINUOUS
 10
776.7349155083
 20
360.378587309
 11
776.1932487771
 21
360.2653003376
  0
LINE
  5
458
100
AcDbEntity
  8
0
100
AcDbLine
 62
7
  6
CONTINUOUS
 10
776.7349155083
 20
360.7514119926
 11
776.1932487771
 21
360.6381250213
  0
LINE
  5
459
100
AcDbEntity
  8
0
100
AcDbLine
 62
7
  6
CONTINUOUS
 10
795.0974153146
 20
355.7747785307
 11
794.4203322396
 21
355.6614915594
  0
LINE
  5
45A
100
AcDbEntity
  8
0
100
AcDbLine
 62
7
  6
CONTINUOUS
 10
795.0974153146
 20
356.1476032143
 11
794.4203322396
 21
356.034316243
  0
LINE
  5
45B
100
AcDbEntity
  8
0
100
AcDbLine
 62
7
  6
CONTINUOUS
 10
777.5474155083
 20
355.4269237047
 11
778.2244987771
 21
355.540210686
  0
LINE
  5
45C
100
AcDbEntity
  8
0
100
AcDbLine
 62
7
  6
CONTINUOUS
 10
793.0661653146
 20
360.1126477668
 11
793.7432487771
 21
360.2259347381
  0
LINE
  5
45D
100
AcDbEntity
  8
0
100
AcDbLine
 62
7
  6
CONTINUOUS
 10
793.8786653146
 20
360.4195449112
 11
792.9307487771
 21
360.3062579398
  0
LINE
  5
45E
100
AcDbEntity
  8
0
100
AcDbLine
 62
7
  6
CONTINUOUS
 10
793.8786653146
 20
360.7923695948
 11
792.9307487771
 21
360.6790826235
  0
LINE
  5
45F
100
AcDbEntity
  8
0
100
AcDbLine
 62
7
  6
CONTINUOUS
 10
752.8682487771
 20
353.8295772184
 11
772.8682487771
 21
353.8295772184
  0
LINE
  5
460
100
AcDbEntity
  8
0
100
AcDbLine
 62
7
  6
CONTINUOUS
 10
772.3682487771
 20
353.9892013635
 11
753.3682487771
 21
353.9892013635
  0
LINE
  5
461
100
AcDbEntity
  8
0
100
AcDbLine
 62
7
  6
CONTINUOUS
 10
772.3682487771
 20
354.3620260472
 11
753.3682487771
 21
354.3620260472
  0
LINE
  5
462
100
AcDbEntity
  8
0
100
AcDbLine
 62
7
  6
CONTINUOUS
 10
776.4640820459
 20
355.4269237047
 11
777.5474155083
 21
355.4269237047
  0
LINE
  5
463
100
AcDbEntity
  8
0
100
AcDbLine
 62
7
  6
CONTINUOUS
 10
789.6807487771
 20
355.4678813069
 11
790.4932487771
 21
355.4678813069
  0
LINE
  5
464
100
AcDbEntity
  8
0
100
AcDbLine
 62
7
  6
CONTINUOUS
 10
793.4724153146
 20
355.4678813069
 11
794.5557487771
 21
355.4678813069
  0
LINE
  5
465
100
AcDbEntity
  8
0
100
AcDbLine
 62
7
  6
CONTINUOUS
 10
797.5349157021
 20
355.4678813069
 11
798.2119987771
 21
355.4678813069
  0
LINE
  5
466
100
AcDbEntity
  8
0
100
AcDbLine
 62
7
  6
CONTINUOUS
 10
799.7015818522
 20
355.4678813069
 11
800.3786657021
 21
355.4678813069
  0
LINE
  5
467
100
AcDbEntity
  8
0
100
AcDbLine
 62
7
  6
CONTINUOUS
 10
801.8682487771
 20
355.4678813069
 11
802.545332627
 21
355.4678813069
  0
LINE
  5
468
100
AcDbEntity
  8
0
100
AcDbLine
 62
7
  6
CONTINUOUS
 10
803.6286649272
 20
355.4678813069
 11
804.3057487771
 21
355.4678813069
  0
LINE
  5
469
100
AcDbEntity
  8
0
100
AcDbLine
 62
7
  6
CONTINUOUS
 10
805.795332627
 20
355.4678813069
 11
806.4724149272
 21
355.4678813069
  0
LINE
  5
46A
100
AcDbEntity
  8
0
100
AcDbLine
 62
7
  6
CONTINUOUS
 10
807.9619987771
 20
355.4678813069
 11
808.639082627
 21
355.4678813069
  0
LINE
  5
46B
100
AcDbEntity
  8
0
100
AcDbLine
 62
7
  6
CONTINUOUS
 10
794.4203322396
 20
355.6614915594
 11
793.6078322396
 21
355.6614915594
  0
LINE
  5
46C
100
AcDbEntity
  8
0
100
AcDbLine
 62
7
  6
CONTINUOUS
 10
777.5474155083
 20
355.7338209285
 11
776.4640820459
 21
355.7338209285
  0
LINE
  5
46D
100
AcDbEntity
  8
0
100
AcDbLine
 62
7
  6
CONTINUOUS
 10
794.4203322396
 20
356.034316243
 11
793.6078322396
 21
356.034316243
  0
LINE
  5
46E
100
AcDbEntity
  8
0
100
AcDbLine
 62
7
  6
CONTINUOUS
 10
777.5474155083
 20
356.1066456121
 11
776.4640820459
 21
356.1066456121
  0
LINE
  5
46F
100
AcDbEntity
  8
0
100
AcDbLine
 62
7
  6
CONTINUOUS
 10
792.2536653146
 20
356.3412134668
 11
791.7382673582
 21
356.3412134668
  0
LINE
  5
470
100
AcDbEntity
  8
0
100
AcDbLine
 62
7
  6
CONTINUOUS
 10
775.3807487771
 20
356.5268298072
 11
774.6796620244
 21
356.5268298072
  0
LINE
  5
471
100
AcDbEntity
  8
0
100
AcDbLine
 62
7
  6
CONTINUOUS
 10
792.2536653146
 20
356.7140381504
 11
791.5765820459
 21
356.7140381504
  0
LINE
  5
472
100
AcDbEntity
  8
0
100
AcDbLine
 62
7
  6
CONTINUOUS
 10
775.3807487771
 20
356.8996544909
 11
774.5682487771
 21
356.8996544909
  0
LINE
  5
473
100
AcDbEntity
  8
KONSTRUKTIONSELEMENTE
100
AcDbLine
 62
7
  6
CONTINUOUS
 10
705.3682487771
 20
357.0012800976
 11
701.3682487771
 21
357.0012800976
  0
LINE
  5
474
100
AcDbEntity
  8
0
100
AcDbLine
 62
7
  6
CONTINUOUS
 10
776.7349155083
 20
357.8059504203
 11
777.5474155083
 21
357.8059504203
  0
LINE
  5
475
100
AcDbEntity
  8
0
100
AcDbLine
 62
7
  6
CONTINUOUS
 10
793.7432487771
 20
357.9601949939
 11
794.2849153146
 21
357.9601949939
  0
LINE
  5
476
100
AcDbEntity
  8
0
100
AcDbLine
 62
7
  6
CONTINUOUS
 10
794.2849153146
 20
358.0405181956
 11
793.7432487771
 21
358.0405181956
  0
LINE
  5
477
100
AcDbEntity
  8
0
100
AcDbLine
 62
7
  6
CONTINUOUS
 10
777.5474155083
 20
358.1128475647
 11
776.7349155083
 21
358.1128475647
  0
LINE
  5
478
100
AcDbEntity
  8
KONSTRUKTIONSELEMENTE
100
AcDbLine
 62
7
  6
CONTINUOUS
 10
728.3682487771
 20
358.1836471997
 11
708.3682487771
 21
358.1836471997
  0
LINE
  5
479
100
AcDbEntity
  8
KONSTRUKTIONSELEMENTE
100
AcDbLine
 62
7
  6
CONTINUOUS
 10
705.3682487771
 20
358.1836471997
 11
701.3682487771
 21
358.1836471997
  0
LINE
  5
47A
100
AcDbEntity
  8
0
100
AcDbLine
 62
7
  6
CONTINUOUS
 10
794.2849153146
 20
358.4133428792
 11
793.7432487771
 21
358.4133428792
  0
LINE
  5
47B
100
AcDbEntity
  8
0
100
AcDbLine
 62
7
  6
CONTINUOUS
 10
777.5474155083
 20
358.4856722484
 11
776.7349155083
 21
358.4856722484
  0
LINE
  5
47C
100
AcDbEntity
  8
0
100
AcDbLine
 62
7
  6
CONTINUOUS
 10
798.8890818522
 20
358.6399168219
 11
799.1599157021
 21
358.6399168219
  0
LINE
  5
47D
100
AcDbEntity
  8
0
100
AcDbLine
 62
7
  6
CONTINUOUS
 10
800.9203318522
 20
358.6399168219
 11
801.3265818522
 21
358.6399168219
  0
LINE
  5
47E
100
AcDbEntity
  8
0
100
AcDbLine
 62
7
  6
CONTINUOUS
 10
804.982832627
 20
358.6399168219
 11
805.2536649272
 21
358.6399168219
  0
LINE
  5
47F
100
AcDbEntity
  8
0
100
AcDbLine
 62
7
  6
CONTINUOUS
 10
807.014082627
 20
358.6399168219
 11
807.420332627
 21
358.6399168219
  0
LINE
  5
480
100
AcDbEntity
  8
0
100
AcDbLine
 62
7
  6
CONTINUOUS
 10
807.6911649272
 20
358.7202400237
 11
807.1494987771
 21
358.7202400237
  0
LINE
  5
481
100
AcDbEntity
  8
0
100
AcDbLine
 62
7
  6
CONTINUOUS
 10
805.5244987771
 20
358.7202400237
 11
804.982832627
 21
358.7202400237
  0
LINE
  5
482
100
AcDbEntity
  8
0
100
AcDbLine
 62
7
  6
CONTINUOUS
 10
804.3057487771
 20
358.7202400237
 11
803.6286649272
 21
358.7202400237
  0
LINE
  5
483
100
AcDbEntity
  8
0
100
AcDbLine
 62
7
  6
CONTINUOUS
 10
801.5974157021
 20
358.7202400237
 11
801.0557487771
 21
358.7202400237
  0
LINE
  5
484
100
AcDbEntity
  8
0
100
AcDbLine
 62
7
  6
CONTINUOUS
 10
799.4307487771
 20
358.7202400237
 11
798.8890818522
 21
358.7202400237
  0
LINE
  5
485
100
AcDbEntity
  8
0
100
AcDbLine
 62
7
  6
CONTINUOUS
 10
798.2119987771
 20
358.7202400237
 11
797.5349157021
 21
358.7202400237
  0
LINE
  5
486
100
AcDbEntity
  8
0
100
AcDbLine
 62
7
  6
CONTINUOUS
 10
807.6911649272
 20
359.0930647073
 11
807.1494987771
 21
359.0930647073
  0
LINE
  5
487
100
AcDbEntity
  8
0
100
AcDbLine
 62
7
  6
CONTINUOUS
 10
805.5244987771
 20
359.0930647073
 11
804.982832627
 21
359.0930647073
  0
LINE
  5
488
100
AcDbEntity
  8
0
100
AcDbLine
 62
7
  6
CONTINUOUS
 10
804.3057487771
 20
359.0930647073
 11
803.6286649272
 21
359.0930647073
  0
LINE
  5
489
100
AcDbEntity
  8
0
100
AcDbLine
 62
7
  6
CONTINUOUS
 10
801.5974157021
 20
359.0930647073
 11
801.0557487771
 21
359.0930647073
  0
LINE
  5
48A
100
AcDbEntity
  8
0
100
AcDbLine
 62
7
  6
CONTINUOUS
 10
799.4307487771
 20
359.0930647073
 11
798.8890818522
 21
359.0930647073
  0
LINE
  5
48B
100
AcDbEntity
  8
0
100
AcDbLine
 62
7
  6
CONTINUOUS
 10
798.2119987771
 20
359.0930647073
 11
797.5349157021
 21
359.0930647073
  0
LINE
  5
48C
100
AcDbEntity
  8
KONSTRUKTIONSELEMENTE
100
AcDbLine
 62
7
  6
CONTINUOUS
 10
705.3682487771
 20
359.3660143019
 11
701.3682487771
 21
359.3660143019
  0
LINE
  5
48D
100
AcDbEntity
  8
0
100
AcDbLine
 62
7
  6
CONTINUOUS
 10
778.3599153146
 20
359.5052553078
 11
779.1724153146
 21
359.5052553078
  0
LINE
  5
48E
100
AcDbEntity
  8
0
100
AcDbLine
 62
7
  6
CONTINUOUS
 10
791.7119987771
 20
359.54621291
 11
792.3890822396
 21
359.54621291
  0
LINE
  5
48F
100
AcDbEntity
  8
0
100
AcDbLine
 62
7
  6
CONTINUOUS
 10
776.7349155083
 20
360.0716901645
 11
777.5474155083
 21
360.0716901645
  0
LINE
  5
490
100
AcDbEntity
  8
0
100
AcDbLine
 62
7
  6
CONTINUOUS
 10
793.7432487771
 20
360.2259347381
 11
794.2849153146
 21
360.2259347381
  0
LINE
  5
491
100
AcDbEntity
  8
0
100
AcDbLine
 62
7
  6
CONTINUOUS
 10
777.4119987771
 20
360.378587309
 11
776.7349155083
 21
360.378587309
  0
LINE
  5
492
100
AcDbEntity
  8
0
100
AcDbLine
 62
7
  6
CONTINUOUS
 10
794.1494987771
 20
360.4195449112
 11
793.8786653146
 21
360.4195449112
  0
LINE
  5
493
100
AcDbEntity
  8
0
100
AcDbLine
 62
7
  6
CONTINUOUS
 10
790.4932487771
 20
360.4195449112
 11
789.6807487771
 21
360.4195449112
  0
LINE
  5
494
100
AcDbEntity
  8
0
100
AcDbLine
 62
7
  6
CONTINUOUS
 10
777.4119987771
 20
360.7514119926
 11
776.7349155083
 21
360.7514119926
  0
LINE
  5
495
100
AcDbEntity
  8
0
100
AcDbLine
 62
7
  6
CONTINUOUS
 10
794.1494987771
 20
360.7923695948
 11
793.8786653146
 21
360.7923695948
  0
LINE
  5
496
100
AcDbEntity
  8
0
100
AcDbLine
 62
7
  6
CONTINUOUS
 10
790.4932487771
 20
360.7923695948
 11
789.6807487771
 21
360.7923695948
  0
LINE
  5
497
100
AcDbEntity
  8
0
100
AcDbLine
 62
7
  6
CONTINUOUS
 10
753.3682487771
 20
361.7343944458
 11
772.3682487771
 21
361.7343944458
  0
LINE
  5
498
100
AcDbEntity
  8
0
100
AcDbLine
 62
7
  6
CONTINUOUS
 10
772.8682487771
 20
361.7711457843
 11
752.8682487771
 21
361.7711457843
  0
LINE
  5
499
100
AcDbEntity
  8
0
100
AcDbLine
 62
7
  6
CONTINUOUS
 10
772.8682487771
 20
362.1439704679
 11
752.8682487771
 21
362.1439704679
  0
LINE
  5
49A
100
AcDbEntity
  8
BEZUGSACHSEN
100
AcDbLine
 62
7
  6
CONTINUOUS
 10
778.5561625544
 20
371.4066128886
 11
779.8682487771
 21
371.4066128886
  0
LINE
  5
49B
100
AcDbEntity
  8
BEZUGSACHSEN
100
AcDbLine
 62
7
  6
CONTINUOUS
 10
784.8682487771
 20
371.4066128886
 11
786.1803349998
 21
371.4066128886
  0
LINE
  5
49C
100
AcDbEntity
  8
0
100
AcDbLine
 62
7
  6
CONTINUOUS
 10
795.0974153146
 20
360.3062579398
 11
794.1494987771
 21
360.4195449112
  0
LINE
  5
49D
100
AcDbEntity
  8
0
100
AcDbLine
 62
7
  6
CONTINUOUS
 10
795.0974153146
 20
360.6790826235
 11
794.1494987771
 21
360.7923695948
  0
LINE
  5
49E
100
AcDbEntity
  8
0
100
AcDbLine
 62
7
  6
CONTINUOUS
 10
794.2849153146
 20
357.9601949939
 11
795.0974153146
 21
357.8469080225
  0
LINE
  5
49F
100
AcDbEntity
  8
0
100
AcDbLine
 62
7
  6
CONTINUOUS
 10
775.7869987771
 20
355.540210686
 11
776.4640820459
 21
355.4269237047
  0
LINE
  5
4A0
100
AcDbEntity
  8
0
100
AcDbLine
 62
7
  6
CONTINUOUS
 10
778.2244987771
 20
357.9995605934
 11
777.5474155083
 21
358.1128475647
  0
LINE
  5
4A1
100
AcDbEntity
  8
0
100
AcDbLine
 62
7
  6
CONTINUOUS
 10
793.6078322396
 20
355.6614915594
 11
792.9307487771
 21
355.7747785307
  0
LINE
  5
4A2
100
AcDbEntity
  8
0
100
AcDbLine
 62
7
  6
CONTINUOUS
 10
778.2244987771
 20
358.372385277
 11
777.5474155083
 21
358.4856722484
  0
LINE
  5
4A3
100
AcDbEntity
  8
0
100
AcDbLine
 62
7
  6
CONTINUOUS
 10
793.6078322396
 20
356.034316243
 11
792.9307487771
 21
356.1476032143
  0
LINE
  5
4A4
100
AcDbEntity
  8
0
100
AcDbLine
 62
7
  6
CONTINUOUS
 10
778.0890822396
 20
360.2653003376
 11
777.4119987771
 21
360.378587309
  0
LINE
  5
4A5
100
AcDbEntity
  8
0
100
AcDbLine
 62
7
  6
CONTINUOUS
 10
778.0890822396
 20
360.6381250213
 11
777.4119987771
 21
360.7514119926
  0
LINE
  5
4A6
100
AcDbEntity
  8
0
100
AcDbLine
 62
7
  6
CONTINUOUS
 10
794.2849153146
 20
360.2259347381
 11
794.9619987771
 21
360.1126477668
  0
LINE
  5
4A7
100
AcDbEntity
  8
0
100
AcDbLine
 62
7
  6
CONTINUOUS
 10
776.4640820459
 20
355.7338209285
 11
775.9224154115
 21
355.8471078998
  0
LINE
  5
4A8
100
AcDbEntity
  8
0
100
AcDbLine
 62
7
  6
CONTINUOUS
 10
776.4640820459
 20
356.1066456121
 11
775.9224154115
 21
356.2199325835
  0
LINE
  5
4A9
100
AcDbEntity
  8
0
100
AcDbLine
 62
7
  6
CONTINUOUS
 10
776.1932487771
 20
357.9192373917
 11
776.7349155083
 21
357.8059504203
  0
LINE
  5
4AA
100
AcDbEntity
  8
0
100
AcDbLine
 62
7
  6
CONTINUOUS
 10
777.5474155083
 20
357.8059504203
 11
778.0890822396
 21
357.692663449
  0
LINE
  5
4AB
100
AcDbEntity
  8
0
100
AcDbLine
 62
7
  6
CONTINUOUS
 10
792.9307487771
 20
355.5811682882
 11
793.4724153146
 21
355.4678813069
  0
LINE
  5
4AC
100
AcDbEntity
  8
0
100
AcDbLine
 62
7
  6
CONTINUOUS
 10
775.1018821452
 20
349.647560396
 11
774.7970434832
 21
349.7244202865
  0
LINE
  5
4AD
100
AcDbEntity
  8
0
100
AcDbLine
 62
7
  6
CONTINUOUS
 10
772.3250260948
 20
349.6802711821
 11
772.2003017686
 21
349.7121644499
  0
LINE
  5
4AE
100
AcDbEntity
  8
0
100
AcDbLine
 62
7
  6
CONTINUOUS
 10
770.7790481761
 20
350.1197700678
 11
772.210904894
 21
349.7536298679
  0
LINE
  5
4AF
100
AcDbEntity
  8
0
100
AcDbLine
 62
7
  6
CONTINUOUS
 10
772.5688690735
 20
349.662094818
 11
773.1654759824
 21
349.5095364159
  0
LINE
  5
4B0
100
AcDbEntity
  8
0
100
AcDbLine
 62
7
  6
CONTINUOUS
 10
773.2795971831
 20
349.8090024137
 11
772.6829902743
 21
349.9615608158
  0
LINE
  5
4B1
100
AcDbEntity
  8
0
100
AcDbLine
 62
7
  6
CONTINUOUS
 10
772.3250260948
 20
350.0530958658
 11
771.3107942387
 21
350.3124451776
  0
LINE
  5
4B2
100
AcDbEntity
  8
0
100
AcDbLine
 62
7
  6
CONTINUOUS
 10
773.0670742774
 20
350.9694375161
 11
772.8385714316
 21
351.0278679977
  0
LINE
  5
4B3
100
AcDbEntity
  8
0
100
AcDbLine
 62
7
  6
CONTINUOUS
 10
773.1965356111
 20
351.3091576313
 11
772.8385714316
 21
351.4006926813
  0
LINE
  5
4B4
100
AcDbEntity
  8
0
100
AcDbLine
 62
7
  6
CONTINUOUS
 10
776.7349155083
 20
358.1128475647
 11
776.3286655083
 21
358.2261345361
  0
LINE
  5
4B5
100
AcDbEntity
  8
0
100
AcDbLine
 62
7
  6
CONTINUOUS
 10
776.7349155083
 20
358.4856722484
 11
776.3286655083
 21
358.5989592197
  0
LINE
  5
4B6
100
AcDbEntity
  8
0
100
AcDbLine
 62
7
  6
CONTINUOUS
 10
777.5474155083
 20
360.0716901645
 11
777.9536653146
 21
359.9584031932
  0
LINE
  5
4B7
100
AcDbEntity
  8
0
100
AcDbLine
 62
7
  6
CONTINUOUS
 10
799.8369987771
 20
358.6069530523
 11
799.4307487771
 21
358.7202400237
  0
LINE
  5
4B8
100
AcDbEntity
  8
0
100
AcDbLine
 62
7
  6
CONTINUOUS
 10
799.8369987771
 20
358.979777736
 11
799.4307487771
 21
359.0930647073
  0
LINE
  5
4B9
100
AcDbEntity
  8
0
100
AcDbLine
 62
7
  6
CONTINUOUS
 10
802.0036649272
 20
358.6069530523
 11
801.5974157021
 21
358.7202400237
  0
LINE
  5
4BA
100
AcDbEntity
  8
0
100
AcDbLine
 62
7
  6
CONTINUOUS
 10
802.0036649272
 20
358.979777736
 11
801.5974157021
 21
359.0930647073
  0
LINE
  5
4BB
100
AcDbEntity
  8
0
100
AcDbLine
 62
7
  6
CONTINUOUS
 10
805.9307487771
 20
358.6069530523
 11
805.5244987771
 21
358.7202400237
  0
LINE
  5
4BC
100
AcDbEntity
  8
0
100
AcDbLine
 62
7
  6
CONTINUOUS
 10
805.9307487771
 20
358.979777736
 11
805.5244987771
 21
359.0930647073
  0
LINE
  5
4BD
100
AcDbEntity
  8
0
100
AcDbLine
 62
7
  6
CONTINUOUS
 10
808.0974149272
 20
358.6069530523
 11
807.6911649272
 21
358.7202400237
  0
LINE
  5
4BE
100
AcDbEntity
  8
0
100
AcDbLine
 62
7
  6
CONTINUOUS
 10
808.0974149272
 20
358.979777736
 11
807.6911649272
 21
359.0930647073
  0
LINE
  5
4BF
100
AcDbEntity
  8
0
100
AcDbLine
 62
7
  6
CONTINUOUS
 10
796.0453318522
 20
357.5873703102
 11
795.3682487771
 21
357.8139442529
  0
LINE
  5
4C0
100
AcDbEntity
  8
0
100
AcDbLine
 62
7
  6
CONTINUOUS
 10
796.0453318522
 20
357.9601949939
 11
795.3682487771
 21
358.1867689366
  0
LINE
  5
4C1
100
AcDbEntity
  8
0
100
AcDbLine
 62
7
  6
CONTINUOUS
 10
775.6515821427
 20
358.1458113343
 11
776.1932487771
 21
357.9192373917
  0
LINE
  5
4C2
100
AcDbEntity
  8
0
100
AcDbLine
 62
7
  6
CONTINUOUS
 10
778.7661653146
 20
357.7729866507
 11
778.2244987771
 21
357.9995605934
  0
LINE
  5
4C3
100
AcDbEntity
  8
0
100
AcDbLine
 62
7
  6
CONTINUOUS
 10
778.7661653146
 20
358.1458113343
 11
778.2244987771
 21
358.372385277
  0
LINE
  5
4C4
100
AcDbEntity
  8
0
100
AcDbLine
 62
7
  6
CONTINUOUS
 10
792.3890822396
 20
355.8077422606
 11
792.9307487771
 21
355.5811682882
  0
LINE
  5
4C5
100
AcDbEntity
  8
0
100
AcDbLine
 62
7
  6
CONTINUOUS
 10
792.9307487771
 20
355.7747785307
 11
792.6599153146
 21
355.8880655021
  0
LINE
  5
4C6
100
AcDbEntity
  8
0
100
AcDbLine
 62
7
  6
CONTINUOUS
 10
792.9307487771
 20
356.1476032143
 11
792.6599153146
 21
356.2608901857
  0
LINE
  5
4C7
100
AcDbEntity
  8
0
100
AcDbLine
 62
7
  6
CONTINUOUS
 10
774.1837005297
 20
348.2710534654
 11
774.5127797885
 21
348.1237612685
  0
LINE
  5
4C8
100
AcDbEntity
  8
0
100
AcDbLine
 62
7
  6
CONTINUOUS
 10
774.6658100649
 20
348.353179101
 11
774.3367308061
 21
348.5004712979
  0
LINE
  5
4C9
100
AcDbEntity
  8
0
100
AcDbLine
 62
7
  6
CONTINUOUS
 10
774.0446230526
 20
348.6754682245
 11
773.7282750376
 21
348.8170620589
  0
LINE
  5
4CA
100
AcDbEntity
  8
0
100
AcDbLine
 62
7
  6
CONTINUOUS
 10
774.0573542963
 20
349.0425945457
 11
773.7282750376
 21
349.1898867426
  0
LINE
  5
4CB
100
AcDbEntity
  8
0
100
AcDbLine
 62
7
  6
CONTINUOUS
 10
774.0037295394
 20
349.6028388475
 11
774.3876554459
 21
349.4309979044
  0
LINE
  5
4CC
100
AcDbEntity
  8
0
100
AcDbLine
 62
7
  6
CONTINUOUS
 10
774.9488518903
 20
349.4181425957
 11
775.277931149
 21
349.2708503988
  0
LINE
  5
4CD
100
AcDbEntity
  8
0
100
AcDbLine
 62
7
  6
CONTINUOUS
 10
775.430961404
 20
349.5002681992
 11
775.1018821452
 21
349.647560396
  0
LINE
  5
4CE
100
AcDbEntity
  8
0
100
AcDbLine
 62
7
  6
CONTINUOUS
 10
774.8927555506
 20
350.3812408719
 11
774.799486951
 21
350.4229868542
  0
LINE
  5
4CF
100
AcDbEntity
  8
0
100
AcDbLine
 62
7
  6
CONTINUOUS
 10
774.920689307
 20
350.443650287
 11
776.5112392669
 21
349.7317379086
  0
LINE
  5
4D0
100
AcDbEntity
  8
0
100
AcDbLine
 62
7
  6
CONTINUOUS
 10
776.6642695219
 20
349.961155709
 11
774.799486951
 21
350.7958115379
  0
LINE
  5
4D1
100
AcDbEntity
  8
0
100
AcDbLine
 62
7
  6
CONTINUOUS
 10
775.1099154599
 20
355.8800716298
 11
775.7869987771
 21
355.540210686
  0
LINE
  5
4D2
100
AcDbEntity
  8
0
100
AcDbLine
 62
7
  6
CONTINUOUS
 10
793.8515820846
 20
331.7473295449
 11
794.1765821621
 21
331.5660703749
  0
LINE
  5
4D3
100
AcDbEntity
  8
0
100
AcDbLine
 62
7
  6
CONTINUOUS
 10
794.6099153921
 20
331.4651344701
 11
794.2849153921
 21
331.6463936242
  0
LINE
  5
4D4
100
AcDbEntity
  8
0
100
AcDbLine
 62
7
  6
CONTINUOUS
 10
794.6099153921
 20
331.8379591537
 11
794.2849153921
 21
332.0192183078
  0
LINE
  5
4D5
100
AcDbEntity
  8
0
100
AcDbLine
 62
7
  6
CONTINUOUS
 10
776.3286655083
 20
358.2261345361
 11
775.9224154115
 21
358.4527084788
  0
LINE
  5
4D6
100
AcDbEntity
  8
0
100
AcDbLine
 62
7
  6
CONTINUOUS
 10
776.3286655083
 20
358.5989592197
 11
775.9224154115
 21
358.8255331624
  0
LINE
  5
4D7
100
AcDbEntity
  8
0
100
AcDbLine
 62
7
  6
CONTINUOUS
 10
778.0890822396
 20
357.692663449
 11
778.4953322396
 21
357.4660895063
  0
LINE
  5
4D8
100
AcDbEntity
  8
0
100
AcDbLine
 62
7
  6
CONTINUOUS
 10
773.9400739723
 20
348.43968048
 11
774.1837005297
 21
348.2710534654
  0
LINE
  5
4D9
100
AcDbEntity
  8
0
100
AcDbLine
 62
7
  6
CONTINUOUS
 10
775.674587964
 20
348.958816505
 11
775.4932027392
 21
349.0843629488
  0
LINE
  5
4DA
100
AcDbEntity
  8
0
100
AcDbLine
 62
7
  6
CONTINUOUS
 10
775.674587964
 20
349.3316411886
 11
775.430961404
 21
349.5002681992
  0
LINE
  5
4DB
100
AcDbEntity
  8
0
100
AcDbLine
 62
7
  6
CONTINUOUS
 10
774.3367308061
 20
348.5004712979
 11
774.14795058
 21
348.6445497026
  0
LINE
  5
4DC
100
AcDbEntity
  8
0
100
AcDbLine
 62
7
  6
CONTINUOUS
 10
775.277931149
 20
349.2708503988
 11
775.4667113752
 21
349.1267719941
  0
LINE
  5
4DD
100
AcDbEntity
  8
0
100
AcDbLine
 62
7
  6
CONTINUOUS
 10
773.2395668955
 20
323.2889848927
 11
773.100854663
 21
323.4047998038
  0
LINE
  5
4DE
100
AcDbEntity
  8
0
100
AcDbLine
 62
7
  6
CONTINUOUS
 10
774.2047831607
 20
324.0615371207
 11
774.3434953133
 21
323.9457222426
  0
LINE
  5
4DF
100
AcDbEntity
  8
0
100
AcDbLine
 62
7
  6
CONTINUOUS
 10
774.6373176711
 20
324.878341437
 11
774.7760299036
 21
324.7625265258
  0
LINE
  5
4E0
100
AcDbEntity
  8
0
100
AcDbLine
 62
7
  6
CONTINUOUS
 10
775.319323375
 20
322.0027822722
 11
775.5717017751
 21
321.7696412035
  0
LINE
  5
4E1
100
AcDbEntity
  8
0
100
AcDbLine
 62
7
  6
CONTINUOUS
 10
777.7028840955
 20
323.0795275897
 11
777.4505056919
 21
323.3126686548
  0
LINE
  5
4E2
100
AcDbEntity
  8
0
100
AcDbLine
 62
7
  6
CONTINUOUS
 10
777.7028840955
 20
323.4523522733
 11
777.4505056919
 21
323.6854933385
  0
LINE
  5
4E3
100
AcDbEntity
  8
0
100
AcDbLine
 62
7
  6
CONTINUOUS
 10
775.6250500697
 20
321.7453024846
 11
775.5679217174
 21
321.8017085419
  0
LINE
  5
4E4
100
AcDbEntity
  8
0
100
AcDbLine
 62
7
  6
CONTINUOUS
 10
775.7715745364
 20
321.9734552646
 11
775.5679217174
 21
322.1745332255
  0
LINE
  5
4E5
100
AcDbEntity
  8
0
100
AcDbLine
 62
7
  6
CONTINUOUS
 10
777.2506329586
 20
323.4816793059
 11
777.4542860564
 21
323.2806011615
  0
LINE
  5
4E6
100
AcDbEntity
  8
RUNDUNGEN
100
AcDbLine
 62
7
  6
CONTINUOUS
 10
796.1883447011
 20
288.5191708081
 11
788.9214651314
 21
297.020477821
  0
LINE
  5
4E7
100
AcDbEntity
  8
RUNDUNGEN
100
AcDbLine
 62
7
  6
CONTINUOUS
 10
758.4657282338
 20
332.6497416873
 11
725.2174484983
 21
371.5459186466
  0
LINE
  5
4E8
100
AcDbEntity
  8
RUNDUNGEN
100
AcDbLine
 62
7
  6
CONTINUOUS
 10
796.1883447011
 20
291.3870529899
 11
788.9214651314
 21
299.8883600028
  0
LINE
  5
4E9
100
AcDbEntity
  8
RUNDUNGEN
100
AcDbLine
 62
7
  6
CONTINUOUS
 10
758.4657282338
 20
335.5176238691
 11
725.2174484983
 21
374.4138008283
  0
LINE
  5
4EA
100
AcDbEntity
  8
KONSTRUKTIONSELEMENTE
100
AcDbLine
 62
7
  6
CONTINUOUS
 10
696.3682487771
 20
376.1836471997
 11
696.3682487771
 21
340.1836471997
  0
LINE
  5
4EB
100
AcDbEntity
  8
KONSTRUKTIONSELEMENTE
100
AcDbLine
 62
7
  6
CONTINUOUS
 10
696.3682487771
 20
376.1836471997
 11
701.3682487771
 21
376.1836471997
  0
LINE
  5
4EC
100
AcDbEntity
  8
KONSTRUKTIONSELEMENTE
100
AcDbLine
 62
7
  6
CONTINUOUS
 10
705.3682487771
 20
376.1836471997
 11
708.3682487771
 21
376.1836471997
  0
LINE
  5
4ED
100
AcDbEntity
  8
KONSTRUKTIONSELEMENTE
100
AcDbLine
 62
7
  6
CONTINUOUS
 10
758.3682487771
 20
376.1836471997
 11
767.3682487771
 21
376.1836471997
  0
LINE
  5
4EE
100
AcDbEntity
  8
KONSTRUKTIONSELEMENTE
100
AcDbLine
 62
7
  6
CONTINUOUS
 10
797.3682487771
 20
376.1836471997
 11
805.3682487771
 21
376.1836471997
  0
LINE
  5
4EF
100
AcDbEntity
  8
KONSTRUKTIONSELEMENTE
100
AcDbLine
 62
7
  6
CONTINUOUS
 10
705.3682487771
 20
378.6836471997
 11
701.3682487771
 21
378.6836471997
  0
LINE
  5
4F0
100
AcDbEntity
  8
KONSTRUKTIONSELEMENTE
100
AcDbLine
 62
7
  6
CONTINUOUS
 10
841.3682487771
 20
380.6335915204
 11
847.3682487771
 21
380.6335915204
  0
LINE
  5
4F1
100
AcDbEntity
  8
BEZUGSACHSEN
100
AcDbLine
 62
7
  6
CONTINUOUS
 10
835.3682487771
 20
381.1836471997
 11
842.3682487771
 21
381.1836471997
  0
LINE
  5
4F2
100
AcDbEntity
  8
KONSTRUKTIONSELEMENTE
100
AcDbLine
 62
7
  6
CONTINUOUS
 10
728.3682487771
 20
385.6836471997
 11
708.3682487771
 21
385.6836471997
  0
LINE
  5
4F3
100
AcDbEntity
  8
0
100
AcDbLine
 62
7
  6
CONTINUOUS
 10
795.6390818522
 20
360.0796839972
 11
795.0974153146
 21
360.3062579398
  0
LINE
  5
4F4
100
AcDbEntity
  8
0
100
AcDbLine
 62
7
  6
CONTINUOUS
 10
799.1599157021
 20
358.6399168219
 11
799.4307487771
 21
358.5266298506
  0
LINE
  5
4F5
100
AcDbEntity
  8
0
100
AcDbLine
 62
7
  6
CONTINUOUS
 10
795.6390818522
 20
360.4525086808
 11
795.0974153146
 21
360.6790826235
  0
LINE
  5
4F6
100
AcDbEntity
  8
0
100
AcDbLine
 62
7
  6
CONTINUOUS
 10
801.3265818522
 20
358.6399168219
 11
801.5974157021
 21
358.5266298506
  0
LINE
  5
4F7
100
AcDbEntity
  8
0
100
AcDbLine
 62
7
  6
CONTINUOUS
 10
805.2536649272
 20
358.6399168219
 11
805.5244987771
 21
358.5266298506
  0
LINE
  5
4F8
100
AcDbEntity
  8
0
100
AcDbLine
 62
7
  6
CONTINUOUS
 10
807.420332627
 20
358.6399168219
 11
807.6911649272
 21
358.5266298506
  0
LINE
  5
4F9
100
AcDbEntity
  8
0
100
AcDbLine
 62
7
  6
CONTINUOUS
 10
791.9828320459
 20
356.034316243
 11
792.3890822396
 21
355.8077422606
  0
LINE
  5
4FA
100
AcDbEntity
  8
0
100
AcDbLine
 62
7
  6
CONTINUOUS
 10
795.0974153146
 20
357.8469080225
 11
795.5036657021
 21
357.6203340798
  0
LINE
  5
4FB
100
AcDbEntity
  8
0
100
AcDbLine
 62
7
  6
CONTINUOUS
 10
794.9619987771
 20
360.1126477668
 11
795.3682487771
 21
359.8860738241
  0
LINE
  5
4FC
100
AcDbEntity
  8
0
100
AcDbLine
 62
7
  6
CONTINUOUS
 10
778.6307487771
 20
359.9254394236
 11
778.0890822396
 21
360.2653003376
  0
LINE
  5
4FD
100
AcDbEntity
  8
0
100
AcDbLine
 62
7
  6
CONTINUOUS
 10
778.6307487771
 20
360.2982641072
 11
778.0890822396
 21
360.6381250213
  0
LINE
  5
4FE
100
AcDbEntity
  8
0
100
AcDbLine
 62
7
  6
CONTINUOUS
 10
779.0977013049
 20
348.7272972283
 11
779.2332840757
 21
348.6212065633
  0
LINE
  5
4FF
100
AcDbEntity
  8
0
100
AcDbLine
 62
7
  6
CONTINUOUS
 10
779.6595890453
 20
348.7644229523
 11
779.6157524567
 21
348.7987241603
  0
LINE
  5
500
100
AcDbEntity
  8
0
100
AcDbLine
 62
7
  6
CONTINUOUS
 10
779.7513352276
 20
349.0654581789
 11
779.6157524567
 21
349.171548844
  0
LINE
  5
501
100
AcDbEntity
  8
0
100
AcDbLine
 62
7
  6
CONTINUOUS
 10
782.3682487771
 20
348.9849370884
 11
796.4540352147
 21
337.4465363326
  0
LINE
  5
502
100
AcDbEntity
  8
0
100
AcDbLine
 62
7
  6
CONTINUOUS
 10
797.8682487771
 20
337.073711649
 11
782.3682487771
 21
349.7705683354
  0
LINE
  5
503
100
AcDbEntity
  8
0
100
AcDbLine
 62
7
  6
CONTINUOUS
 10
797.8682487771
 20
337.4465363326
 11
782.3682487771
 21
350.1433930191
  0
LINE
  5
504
100
AcDbEntity
  8
0
100
AcDbLine
 62
7
  6
CONTINUOUS
 10
775.9224154115
 20
355.8471078998
 11
775.5161654115
 21
356.1869688932
  0
LINE
  5
505
100
AcDbEntity
  8
0
100
AcDbLine
 62
7
  6
CONTINUOUS
 10
775.9224154115
 20
356.2199325835
 11
775.5161654115
 21
356.5597935768
  0
LINE
  5
506
100
AcDbEntity
  8
0
100
AcDbLine
 62
7
  6
CONTINUOUS
 10
775.1099154599
 20
358.5989592197
 11
775.6515821427
 21
358.1458113343
  0
LINE
  5
507
100
AcDbEntity
  8
0
100
AcDbLine
 62
7
  6
CONTINUOUS
 10
779.3078322396
 20
357.3198387653
 11
778.7661653146
 21
357.7729866507
  0
LINE
  5
508
100
AcDbEntity
  8
0
100
AcDbLine
 62
7
  6
CONTINUOUS
 10
779.3078322396
 20
357.692663449
 11
778.7661653146
 21
358.1458113343
  0
LINE
  5
509
100
AcDbEntity
  8
0
100
AcDbLine
 62
7
  6
CONTINUOUS
 10
777.9536653146
 20
359.9584031932
 11
778.2244987771
 21
359.7318292505
  0
LINE
  5
50A
100
AcDbEntity
  8
0
100
AcDbLine
 62
7
  6
CONTINUOUS
 10
792.6599153146
 20
355.8880655021
 11
792.3890822396
 21
356.1146395241
  0
LINE
  5
50B
100
AcDbEntity
  8
0
100
AcDbLine
 62
7
  6
CONTINUOUS
 10
792.6599153146
 20
356.2608901857
 11
792.3890822396
 21
356.4874642077
  0
LINE
  5
50C
100
AcDbEntity
  8
RUNDUNGEN
100
AcDbLine
 62
7
  6
CONTINUOUS
 10
745.6658170539
 20
368.2008958433
 11
735.3749338475
 21
380.2398950772
  0
LINE
  5
50D
100
AcDbEntity
  8
RUNDUNGEN
100
AcDbLine
 62
7
  6
CONTINUOUS
 10
806.2707693205
 20
316.7237714534
 11
825.2831610428
 21
294.4817379185
  0
LINE
  5
50E
100
AcDbEntity
  8
0
100
AcDbLine
 62
7
  6
CONTINUOUS
 10
780.3966995199
 20
321.5221363705
 11
780.5026754993
 21
321.3954314167
  0
LINE
  5
50F
100
AcDbEntity
  8
0
100
AcDbLine
 62
7
  6
CONTINUOUS
 10
781.1213882507
 20
321.7426731773
 11
781.0154122713
 21
321.8693781311
  0
LINE
  5
510
100
AcDbEntity
  8
0
100
AcDbLine
 62
7
  6
CONTINUOUS
 10
772.7085249397
 20
323.4496618007
 11
772.9014102503
 21
323.1943809948
  0
LINE
  5
511
100
AcDbEntity
  8
0
100
AcDbLine
 62
7
  6
CONTINUOUS
 10
774.7358250266
 20
323.5280355457
 11
774.5429398282
 21
323.7833162899
  0
LINE
  5
512
100
AcDbEntity
  8
0
100
AcDbLine
 62
7
  6
CONTINUOUS
 10
774.7358250266
 20
323.9008602293
 11
774.5429398282
 21
324.1561409735
  0
LINE
  5
513
100
AcDbEntity
  8
0
100
AcDbLine
 62
7
  6
CONTINUOUS
 10
775.1683596168
 20
324.344839829
 11
774.9754742588
 21
324.6001206391
  0
LINE
  5
514
100
AcDbEntity
  8
0
100
AcDbLine
 62
7
  6
CONTINUOUS
 10
775.1683596168
 20
324.7176645126
 11
774.9754742588
 21
324.9729453228
  0
LINE
  5
515
100
AcDbEntity
  8
RUNDUNGEN
100
AcDbLine
 62
7
  6
CONTINUOUS
 10
832.7914329373
 20
254.8630404253
 11
837.4882946552
 21
248.1552267249
  0
LINE
  5
516
100
AcDbEntity
  8
0
100
AcDbLine
 62
7
  6
CONTINUOUS
 10
773.0606258851
 20
323.0914141146
 11
772.9908687425
 21
323.1944819836
  0
LINE
  5
517
100
AcDbEntity
  8
0
100
AcDbLine
 62
7
  6
CONTINUOUS
 10
773.100854663
 20
323.4047998038
 11
772.9908687425
 21
323.5673066672
  0
LINE
  5
518
100
AcDbEntity
  8
0
100
AcDbLine
 62
7
  6
CONTINUOUS
 10
774.3434953133
 20
323.9457222426
 11
774.4534812338
 21
323.7832153792
  0
LINE
  5
519
100
AcDbEntity
  8
0
100
AcDbLine
 62
7
  6
CONTINUOUS
 10
774.7760299036
 20
324.7625265258
 11
774.8860158241
 21
324.6000196625
  0
LINE
  5
51A
100
AcDbEntity
  8
KONSTRUKTIONSELEMENTE
100
AcDbLine
 62
7
  6
CONTINUOUS
 10
701.3682487771
 20
337.6836471997
 11
701.3682487771
 21
378.6836471997
  0
LINE
  5
51B
100
AcDbEntity
  8
KONSTRUKTIONSELEMENTE
100
AcDbLine
 62
7
  6
CONTINUOUS
 10
705.3682487771
 20
337.6836471997
 11
705.3682487771
 21
378.6836471997
  0
LINE
  5
51C
100
AcDbEntity
  8
KONSTRUKTIONSELEMENTE
100
AcDbLine
 62
7
  6
CONTINUOUS
 10
708.3682487771
 20
330.6836471997
 11
708.3682487771
 21
385.6836471997
  0
LINE
  5
51D
100
AcDbEntity
  8
BEZUGSACHSEN
100
AcDbLine
 62
7
  6
CONTINUOUS
 10
767.3682487771
 20
407.1836471997
 11
776.18477456
 21
407.1836471997
  0
LINE
  5
51E
100
AcDbEntity
  8
BEZUGSACHSEN
100
AcDbLine
 62
7
  6
CONTINUOUS
 10
788.5557012866
 20
407.1836471997
 11
797.3682487771
 21
407.1836471997
  0
LINE
  5
51F
100
AcDbEntity
  8
RUNDUNGEN
100
AcDbLine
 62
7
  6
CONTINUOUS
 10
823.9264375226
 20
358.957355385
 11
819.5849316879
 21
361.4475408301
  0
LINE
  5
520
100
AcDbEntity
  8
RUNDUNGEN
100
AcDbLine
 62
7
  6
CONTINUOUS
 10
793.8397775041
 20
376.6727472698
 11
799.5738418142
 21
373.383823097
  0
LINE
  5
521
100
AcDbEntity
  8
RUNDUNGEN
100
AcDbLine
 62
7
  6
CONTINUOUS
 10
826.6972794986
 20
366.900183537
 11
831.0387853333
 21
364.4099980919
  0
LINE
  5
522
100
AcDbEntity
  8
RUNDUNGEN
100
AcDbLine
 62
7
  6
CONTINUOUS
 10
826.6972794986
 20
369.7680657187
 11
831.0387853333
 21
367.2778802736
  0
LINE
  5
523
100
AcDbEntity
  8
0
100
AcDbLine
 62
7
  6
CONTINUOUS
 10
796.1807487771
 20
359.6265361118
 11
795.6390818522
 21
360.0796839972
  0
LINE
  5
524
100
AcDbEntity
  8
0
100
AcDbLine
 62
7
  6
CONTINUOUS
 10
796.1807487771
 20
359.9993607954
 11
795.6390818522
 21
360.4525086808
  0
LINE
  5
525
100
AcDbEntity
  8
0
100
AcDbLine
 62
7
  6
CONTINUOUS
 10
799.4307487771
 20
358.5266298506
 11
799.5661657021
 21
358.4133428792
  0
LINE
  5
526
100
AcDbEntity
  8
0
100
AcDbLine
 62
7
  6
CONTINUOUS
 10
800.2432487771
 20
358.2670921383
 11
799.8369987771
 21
358.6069530523
  0
LINE
  5
527
100
AcDbEntity
  8
0
100
AcDbLine
 62
7
  6
CONTINUOUS
 10
800.2432487771
 20
358.6399168219
 11
799.8369987771
 21
358.979777736
  0
LINE
  5
528
100
AcDbEntity
  8
0
100
AcDbLine
 62
7
  6
CONTINUOUS
 10
801.5974157021
 20
358.5266298506
 11
801.7328318522
 21
358.4133428792
  0
LINE
  5
529
100
AcDbEntity
  8
0
100
AcDbLine
 62
7
  6
CONTINUOUS
 10
802.2744987771
 20
358.3803791096
 11
802.0036649272
 21
358.6069530523
  0
LINE
  5
52A
100
AcDbEntity
  8
0
100
AcDbLine
 62
7
  6
CONTINUOUS
 10
802.2744987771
 20
358.7532037933
 11
802.0036649272
 21
358.979777736
  0
LINE
  5
52B
100
AcDbEntity
  8
0
100
AcDbLine
 62
7
  6
CONTINUOUS
 10
805.5244987771
 20
358.5266298506
 11
805.6599149272
 21
358.4133428792
  0
LINE
  5
52C
100
AcDbEntity
  8
0
100
AcDbLine
 62
7
  6
CONTINUOUS
 10
806.3369987771
 20
358.2670921383
 11
805.9307487771
 21
358.6069530523
  0
LINE
  5
52D
100
AcDbEntity
  8
0
100
AcDbLine
 62
7
  6
CONTINUOUS
 10
806.3369987771
 20
358.6399168219
 11
805.9307487771
 21
358.979777736
  0
LINE
  5
52E
100
AcDbEntity
  8
0
100
AcDbLine
 62
7
  6
CONTINUOUS
 10
807.6911649272
 20
358.5266298506
 11
807.826582627
 21
358.4133428792
  0
LINE
  5
52F
100
AcDbEntity
  8
0
100
AcDbLine
 62
7
  6
CONTINUOUS
 10
808.3682487771
 20
358.3803791096
 11
808.0974149272
 21
358.6069530523
  0
LINE
  5
530
100
AcDbEntity
  8
0
100
AcDbLine
 62
7
  6
CONTINUOUS
 10
808.3682487771
 20
358.7532037933
 11
808.0974149272
 21
358.979777736
  0
LINE
  5
531
100
AcDbEntity
  8
0
100
AcDbLine
 62
7
  6
CONTINUOUS
 10
779.0074465452
 20
359.5052553078
 11
778.6307487771
 21
359.9254394236
  0
LINE
  5
532
100
AcDbEntity
  8
0
100
AcDbLine
 62
7
  6
CONTINUOUS
 10
779.0369987771
 20
359.8451162219
 11
778.6307487771
 21
360.2982641072
  0
LINE
  5
533
100
AcDbEntity
  8
0
100
AcDbLine
 62
7
  6
CONTINUOUS
 10
778.4953322396
 20
357.4660895063
 11
778.7661653146
 21
357.1262284336
  0
LINE
  5
534
100
AcDbEntity
  8
0
100
AcDbLine
 62
7
  6
CONTINUOUS
 10
791.7119987771
 20
356.374177157
 11
791.9828320459
 21
356.034316243
  0
LINE
  5
535
100
AcDbEntity
  8
0
100
AcDbLine
 62
7
  6
CONTINUOUS
 10
796.3161657021
 20
357.2475093962
 11
796.0453318522
 21
357.5873703102
  0
LINE
  5
536
100
AcDbEntity
  8
0
100
AcDbLine
 62
7
  6
CONTINUOUS
 10
796.3161657021
 20
357.6203340798
 11
796.0453318522
 21
357.9601949939
  0
LINE
  5
537
100
AcDbEntity
  8
0
100
AcDbLine
 62
7
  6
CONTINUOUS
 10
795.3682487771
 20
359.8860738241
 11
795.6390818522
 21
359.54621291
  0
LINE
  5
538
100
AcDbEntity
  8
0
100
AcDbLine
 62
7
  6
CONTINUOUS
 10
774.7036654478
 20
356.4465066055
 11
775.1099154599
 21
355.8800716298
  0
LINE
  5
539
100
AcDbEntity
  8
0
100
AcDbLine
 62
7
  6
CONTINUOUS
 10
773.7576592085
 20
348.7000747633
 11
773.9400739723
 21
348.43968048
  0
LINE
  5
53A
100
AcDbEntity
  8
0
100
AcDbLine
 62
7
  6
CONTINUOUS
 10
775.8570027359
 20
348.6984222337
 11
775.674587964
 21
348.958816505
  0
LINE
  5
53B
100
AcDbEntity
  8
0
100
AcDbLine
 62
7
  6
CONTINUOUS
 10
775.8570027359
 20
349.0712469174
 11
775.674587964
 21
349.3316411886
  0
LINE
  5
53C
100
AcDbEntity
  8
0
100
AcDbLine
 62
7
  6
CONTINUOUS
 10
774.121459266
 20
348.3141339842
 11
774.0446230526
 21
348.4371382376
  0
LINE
  5
53D
100
AcDbEntity
  8
0
100
AcDbLine
 62
7
  6
CONTINUOUS
 10
774.14795058
 20
348.6445497026
 11
774.0446230526
 21
348.8099629212
  0
LINE
  5
53E
100
AcDbEntity
  8
0
100
AcDbLine
 62
7
  6
CONTINUOUS
 10
775.4667113752
 20
349.1267719941
 11
775.5700389026
 21
348.9613587755
  0
LINE
  5
53F
100
AcDbEntity
  8
0
100
AcDbLine
 62
7
  6
CONTINUOUS
 10
793.6349154696
 20
307.3059239838
 11
793.8515820846
 21
306.9434056438
  0
LINE
  5
540
100
AcDbEntity
  8
0
100
AcDbLine
 62
7
  6
CONTINUOUS
 10
793.6349154696
 20
332.1098478849
 11
793.8515820846
 21
331.7473295449
  0
LINE
  5
541
100
AcDbEntity
  8
0
100
AcDbLine
 62
7
  6
CONTINUOUS
 10
779.5786653146
 20
356.8666907213
 11
779.3078322396
 21
357.3198387653
  0
LINE
  5
542
100
AcDbEntity
  8
0
100
AcDbLine
 62
7
  6
CONTINUOUS
 10
779.5786653146
 20
357.2395154049
 11
779.3078322396
 21
357.692663449
  0
LINE
  5
543
100
AcDbEntity
  8
0
100
AcDbLine
 62
7
  6
CONTINUOUS
 10
778.2244987771
 20
359.7318292505
 11
778.3599153146
 21
359.5052553078
  0
LINE
  5
544
100
AcDbEntity
  8
0
100
AcDbLine
 62
7
  6
CONTINUOUS
 10
775.1956196598
 20
322.2853858569
 11
775.319323375
 21
322.0027822722
  0
LINE
  5
545
100
AcDbEntity
  8
0
100
AcDbLine
 62
7
  6
CONTINUOUS
 10
777.8166526594
 20
322.8196215037
 11
777.7028840955
 21
323.0795275897
  0
LINE
  5
546
100
AcDbEntity
  8
0
100
AcDbLine
 62
7
  6
CONTINUOUS
 10
777.8265881
 20
323.1697485159
 11
777.7028840955
 21
323.4523522733
  0
LINE
  5
547
100
AcDbEntity
  8
0
100
AcDbLine
 62
7
  6
CONTINUOUS
 10
774.4534812338
 20
323.7832153792
 11
774.5076543593
 21
323.6437494802
  0
LINE
  5
548
100
AcDbEntity
  8
0
100
AcDbLine
 62
7
  6
CONTINUOUS
 10
774.7814048476
 20
323.4106925661
 11
774.7358250266
 21
323.5280355457
  0
LINE
  5
549
100
AcDbEntity
  8
RUNDUNGEN
100
AcDbLine
 62
7
  6
CONTINUOUS
 10
724.8557525869
 20
372.4856112673
 11
724.8557525869
 21
375.3534934491
  0
LINE
  5
54A
100
AcDbEntity
  8
0
100
AcDbLine
 62
7
  6
CONTINUOUS
 10
726.3682487771
 20
249.8943131221
 11
726.3682487771
 21
244.0546639997
  0
LINE
  5
54B
100
AcDbEntity
  8
BEZUGSACHSEN
100
AcDbLine
 62
7
  6
CONTINUOUS
 10
726.3682487771
 20
249.8943131221
 11
726.3682487771
 21
244.0546639997
  0
LINE
  5
54C
100
AcDbEntity
  8
0
100
AcDbLine
 62
7
  6
CONTINUOUS
 10
726.3682487771
 20
232.3126303997
 11
726.3682487771
 21
231.0029255938
  0
LINE
  5
54D
100
AcDbEntity
  8
BEZUGSACHSEN
100
AcDbLine
 62
7
  6
CONTINUOUS
 10
726.3682487771
 20
232.3126303997
 11
726.3682487771
 21
231.0029255938
  0
LINE
  5
54E
100
AcDbEntity
  8
BEZUGSACHSEN
100
AcDbLine
 62
7
  6
CONTINUOUS
 10
728.3682487771
 20
466.6836471997
 11
728.3682487771
 21
463.6836471997
  0
LINE
  5
54F
100
AcDbEntity
  8
KONSTRUKTIONSELEMENTE
100
AcDbLine
 62
7
  6
CONTINUOUS
 10
728.3682487771
 20
322.1836472039
 11
728.3682487771
 21
367.8598907924
  0
LINE
  5
550
100
AcDbEntity
  8
KONSTRUKTIONSELEMENTE
100
AcDbLine
 62
7
  6
CONTINUOUS
 10
728.3682487771
 20
378.2210256239
 11
728.3682487771
 21
463.6836471997
  0
LINE
  5
551
100
AcDbEntity
  8
RUNDUNGEN
100
AcDbLine
 62
7
  6
CONTINUOUS
 10
738.3682487771
 20
278.8763151392
 11
738.3682487771
 21
291.6626600561
  0
LINE
  5
552
100
AcDbEntity
  8
RUNDUNGEN
100
AcDbLine
 62
7
  6
CONTINUOUS
 10
834.1129855743
 20
379.5145914548
 11
835.7512896629
 21
378.574898834
  0
LINE
  5
553
100
AcDbEntity
  8
0
100
AcDbLine
 62
7
  6
CONTINUOUS
 10
792.3890822396
 20
356.1146395241
 11
792.2536653146
 21
356.3412134668
  0
LINE
  5
554
100
AcDbEntity
  8
0
100
AcDbLine
 62
7
  6
CONTINUOUS
 10
792.3890822396
 20
356.4874642077
 11
792.2536653146
 21
356.7140381504
  0
LINE
  5
555
100
AcDbEntity
  8
0
100
AcDbLine
 62
7
  6
CONTINUOUS
 10
795.5036657021
 20
357.6203340798
 11
795.7744987771
 21
357.1671860358
  0
LINE
  5
556
100
AcDbEntity
  8
0
100
AcDbLine
 62
7
  6
CONTINUOUS
 10
799.5661657021
 20
358.4133428792
 11
799.7015818522
 21
358.1867689366
  0
LINE
  5
557
100
AcDbEntity
  8
0
100
AcDbLine
 62
7
  6
CONTINUOUS
 10
801.7328318522
 20
358.4133428792
 11
801.8682487771
 21
358.1867689366
  0
LINE
  5
558
100
AcDbEntity
  8
0
100
AcDbLine
 62
7
  6
CONTINUOUS
 10
794.2849153921
 20
306.8424697231
 11
794.1765821621
 21
307.1143585178
  0
LINE
  5
559
100
AcDbEntity
  8
0
100
AcDbLine
 62
7
  6
CONTINUOUS
 10
794.2849153921
 20
307.2152944068
 11
794.1765821621
 21
307.4871832015
  0
LINE
  5
55A
100
AcDbEntity
  8
0
100
AcDbLine
 62
7
  6
CONTINUOUS
 10
775.5161654115
 20
356.1869688932
 11
775.3807487771
 21
356.5268298072
  0
LINE
  5
55B
100
AcDbEntity
  8
0
100
AcDbLine
 62
7
  6
CONTINUOUS
 10
775.5161654115
 20
356.5597935768
 11
775.3807487771
 21
356.8996544909
  0
LINE
  5
55C
100
AcDbEntity
  8
0
100
AcDbLine
 62
7
  6
CONTINUOUS
 10
775.9224154115
 20
358.4527084788
 11
775.7869987771
 21
358.7925693928
  0
LINE
  5
55D
100
AcDbEntity
  8
0
100
AcDbLine
 62
7
  6
CONTINUOUS
 10
775.9224154115
 20
358.8255331624
 11
775.7869987771
 21
359.1653940764
  0
LINE
  5
55E
100
AcDbEntity
  8
0
100
AcDbLine
 62
7
  6
CONTINUOUS
 10
779.1724153146
 20
359.5052553078
 11
779.0369987771
 21
359.8451162219
  0
LINE
  5
55F
100
AcDbEntity
  8
0
100
AcDbLine
 62
7
  6
CONTINUOUS
 10
794.2849153921
 20
331.6463936242
 11
794.1765821621
 21
331.9182824189
  0
LINE
  5
560
100
AcDbEntity
  8
0
100
AcDbLine
 62
7
  6
CONTINUOUS
 10
794.2849153921
 20
332.0192183078
 11
794.1765821621
 21
332.2911071025
  0
LINE
  5
561
100
AcDbEntity
  8
0
100
AcDbLine
 62
7
  6
CONTINUOUS
 10
774.817084635
 20
323.6916614137
 11
774.7358250266
 21
323.9008602293
  0
LINE
  5
562
100
AcDbEntity
  8
0
100
AcDbLine
 62
7
  6
CONTINUOUS
 10
775.5679217174
 20
321.8017085419
 11
775.5016943356
 21
321.9794232843
  0
LINE
  5
563
100
AcDbEntity
  8
0
100
AcDbLine
 62
7
  6
CONTINUOUS
 10
775.5679217174
 20
322.1745332255
 11
775.5016943356
 21
322.3522479679
  0
LINE
  5
564
100
AcDbEntity
  8
0
100
AcDbLine
 62
7
  6
CONTINUOUS
 10
777.4542860564
 20
323.2806011615
 11
777.5205134382
 21
323.1028864191
  0
LINE
  5
565
100
AcDbEntity
  8
0
100
AcDbLine
 62
7
  6
CONTINUOUS
 10
774.5682487771
 20
356.8996544909
 11
774.7036654478
 21
356.4465066055
  0
LINE
  5
566
100
AcDbEntity
  8
RUNDUNGEN
100
AcDbLine
 62
7
  6
CONTINUOUS
 10
741.5299087771
 20
251.7263415997
 11
741.5299087771
 21
222.6192527997
  0
LINE
  5
567
100
AcDbEntity
  8
BEZUGSACHSEN
100
AcDbLine
 62
7
  6
CONTINUOUS
 10
741.5299087771
 20
251.7263415997
 11
741.5299087771
 21
222.6192527997
  0
LINE
  5
568
100
AcDbEntity
  8
0
100
AcDbLine
 62
7
  6
CONTINUOUS
 10
741.8668587771
 20
228.6475658128
 11
741.8668587771
 21
235.0703127727
  0
LINE
  5
569
100
AcDbEntity
  8
BEZUGSACHSEN
100
AcDbLine
 62
7
  6
CONTINUOUS
 10
741.8668587771
 20
227.7935831207
 11
741.8668587771
 21
235.0703127727
  0
LINE
  5
56A
100
AcDbEntity
  8
0
100
AcDbLine
 62
7
  6
CONTINUOUS
 10
741.8668587771
 20
241.2969816267
 11
741.8668587771
 21
249.5043495049
  0
LINE
  5
56B
100
AcDbEntity
  8
RUNDUNGEN
100
AcDbLine
 62
7
  6
CONTINUOUS
 10
741.8668587771
 20
249.5043495049
 11
741.8668587771
 21
250.3784974487
  0
LINE
  5
56C
100
AcDbEntity
  8
BEZUGSACHSEN
100
AcDbLine
 62
7
  6
CONTINUOUS
 10
741.8668587771
 20
241.2969816267
 11
741.8668587771
 21
249.5043954293
  0
LINE
  5
56D
100
AcDbEntity
  8
RUNDUNGEN
100
AcDbLine
 62
7
  6
CONTINUOUS
 10
748.3682487771
 20
274.3709788956
 11
748.3682487771
 21
284.2016534538
  0
LINE
  5
56E
100
AcDbEntity
  8
0
100
AcDbLine
 62
7
  6
CONTINUOUS
 10
752.8682487771
 20
362.1439704679
 11
752.8682487771
 21
353.8295772184
  0
LINE
  5
56F
100
AcDbEntity
  8
0
100
AcDbLine
 62
7
  6
CONTINUOUS
 10
753.3682487771
 20
353.9892013635
 11
753.3682487771
 21
361.7343944458
  0
LINE
  5
570
100
AcDbEntity
  8
BEZUGSACHSEN
100
AcDbLine
 62
7
  6
CONTINUOUS
 10
758.3682487771
 20
460.3159507359
 11
758.3682487771
 21
414.1837710327
  0
LINE
  5
571
100
AcDbEntity
  8
KONSTRUKTIONSELEMENTE
100
AcDbLine
 62
7
  6
CONTINUOUS
 10
758.3682487771
 20
460.3159507359
 11
758.3682487771
 21
369.4867113641
  0
LINE
  5
572
100
AcDbEntity
  8
KONSTRUKTIONSELEMENTE
100
AcDbLine
 62
7
  6
CONTINUOUS
 10
758.3682487771
 20
332.7637800143
 11
758.3682487771
 21
322.1836471999
  0
LINE
  5
573
100
AcDbEntity
  8
RUNDUNGEN
100
AcDbLine
 62
7
  6
CONTINUOUS
 10
760.1295487771
 20
219.551154373
 11
760.1295487771
 21
213.9237471997
  0
LINE
  5
574
100
AcDbEntity
  8
RUNDUNGEN
100
AcDbLine
 62
7
  6
CONTINUOUS
 10
760.1969387771
 20
250.378497466
 11
760.1969387771
 21
249.5043927553
  0
LINE
  5
575
100
AcDbEntity
  8
BEZUGSACHSEN
100
AcDbLine
 62
7
  6
CONTINUOUS
 10
760.1969387771
 20
224.3443191852
 11
760.1969387771
 21
235.0703127727
  0
LINE
  5
576
100
AcDbEntity
  8
BEZUGSACHSEN
100
AcDbLine
 62
7
  6
CONTINUOUS
 10
760.1969387771
 20
241.2969816267
 11
760.1969387771
 21
249.5043927553
  0
LINE
  5
577
100
AcDbEntity
  8
RUNDUNGEN
100
AcDbLine
 62
7
  6
CONTINUOUS
 10
760.3991087771
 20
222.6192527997
 11
760.3991087771
 21
251.7263415997
  0
LINE
  5
578
100
AcDbEntity
  8
BEZUGSACHSEN
100
AcDbLine
 62
7
  6
CONTINUOUS
 10
760.3991087771
 20
222.6192527997
 11
760.3991087771
 21
251.7263415997
  0
LINE
  5
579
100
AcDbEntity
  8
0
100
AcDbLine
 62
7
  6
CONTINUOUS
 10
805.6599149272
 20
358.4133428792
 11
805.795332627
 21
358.1867689366
  0
LINE
  5
57A
100
AcDbEntity
  8
0
100
AcDbLine
 62
7
  6
CONTINUOUS
 10
807.826582627
 20
358.4133428792
 11
807.9619987771
 21
358.1867689366
  0
LINE
  5
57B
100
AcDbEntity
  8
0
100
AcDbLine
 62
7
  6
CONTINUOUS
 10
802.545332627
 20
357.8139442529
 11
802.2744987771
 21
358.3803791096
  0
LINE
  5
57C
100
AcDbEntity
  8
0
100
AcDbLine
 62
7
  6
CONTINUOUS
 10
802.545332627
 20
358.1867689366
 11
802.2744987771
 21
358.7532037933
  0
LINE
  5
57D
100
AcDbEntity
  8
0
100
AcDbLine
 62
7
  6
CONTINUOUS
 10
808.639082627
 20
357.8139442529
 11
808.3682487771
 21
358.3803791096
  0
LINE
  5
57E
100
AcDbEntity
  8
0
100
AcDbLine
 62
7
  6
CONTINUOUS
 10
808.639082627
 20
358.1867689366
 11
808.3682487771
 21
358.7532037933
  0
LINE
  5
57F
100
AcDbEntity
  8
0
100
AcDbLine
 62
7
  6
CONTINUOUS
 10
791.5765820459
 20
356.7140381504
 11
791.7119987771
 21
356.374177157
  0
LINE
  5
580
100
AcDbEntity
  8
0
100
AcDbLine
 62
7
  6
CONTINUOUS
 10
774.9744987771
 20
359.0521071051
 11
775.1099154599
 21
358.5989592197
  0
LINE
  5
581
100
AcDbEntity
  8
0
100
AcDbLine
 62
7
  6
CONTINUOUS
 10
796.4515818522
 20
356.7943613522
 11
796.3161657021
 21
357.2475093962
  0
LINE
  5
582
100
AcDbEntity
  8
0
100
AcDbLine
 62
7
  6
CONTINUOUS
 10
796.4515818522
 20
357.1671860358
 11
796.3161657021
 21
357.6203340798
  0
LINE
  5
583
100
AcDbEntity
  8
0
100
AcDbLine
 62
7
  6
CONTINUOUS
 10
796.2943132525
 20
359.2465134382
 11
796.1807487771
 21
359.6265361118
  0
LINE
  5
584
100
AcDbEntity
  8
0
100
AcDbLine
 62
7
  6
CONTINUOUS
 10
796.3161657021
 20
359.54621291
 11
796.1807487771
 21
359.9993607954
  0
LINE
  5
585
100
AcDbEntity
  8
0
100
AcDbLine
 62
7
  6
CONTINUOUS
 10
772.6559916534
 20
323.7055525849
 11
772.7085249397
 21
323.4496618007
  0
LINE
  5
586
100
AcDbEntity
  8
0
100
AcDbLine
 62
7
  6
CONTINUOUS
 10
775.1783538183
 20
324.2961578676
 11
775.1683596168
 21
324.344839829
  0
LINE
  5
587
100
AcDbEntity
  8
0
100
AcDbLine
 62
7
  6
CONTINUOUS
 10
775.2208929132
 20
324.4617737448
 11
775.1683596168
 21
324.7176645126
  0
LINE
  5
588
100
AcDbEntity
  8
0
100
AcDbLine
 62
7
  6
CONTINUOUS
 10
773.7155437938
 20
348.957255118
 11
773.7576592085
 21
348.7000747633
  0
LINE
  5
589
100
AcDbEntity
  8
0
100
AcDbLine
 62
7
  6
CONTINUOUS
 10
775.869371296
 20
348.6228928891
 11
775.8570027359
 21
348.6984222337
  0
LINE
  5
58A
100
AcDbEntity
  8
0
100
AcDbLine
 62
7
  6
CONTINUOUS
 10
775.8991181613
 20
348.8140665787
 11
775.8570027359
 21
349.0712469174
  0
LINE
  5
58B
100
AcDbEntity
  8
0
100
AcDbLine
 62
7
  6
CONTINUOUS
 10
772.9908687425
 20
323.1944819836
 11
772.9654219891
 21
323.3806398511
  0
LINE
  5
58C
100
AcDbEntity
  8
0
100
AcDbLine
 62
7
  6
CONTINUOUS
 10
772.9908687425
 20
323.5673066672
 11
772.9654219891
 21
323.7534645347
  0
LINE
  5
58D
100
AcDbEntity
  8
0
100
AcDbLine
 62
7
  6
CONTINUOUS
 10
774.8860158241
 20
324.6000196625
 11
774.9114626375
 21
324.4138618112
  0
LINE
  5
58E
100
AcDbEntity
  8
0
100
AcDbLine
 62
7
  6
CONTINUOUS
 10
775.1693668387
 20
322.50386342
 11
775.1956196598
 21
322.2853858569
  0
LINE
  5
58F
100
AcDbEntity
  8
0
100
AcDbLine
 62
7
  6
CONTINUOUS
 10
777.8528409352
 20
322.951270967
 11
777.8265881
 21
323.1697485159
  0
LINE
  5
590
100
AcDbEntity
  8
0
100
AcDbLine
 62
7
  6
CONTINUOUS
 10
775.5700389026
 20
348.9613587755
 11
775.5879137312
 21
348.7746107432
  0
LINE
  5
591
100
AcDbEntity
  8
0
100
AcDbLine
 62
7
  6
CONTINUOUS
 10
764.3682487771
 20
765.1836471997
 11
764.3682487771
 21
469.1836471997
  0
LINE
  5
592
100
AcDbEntity
  8
0
100
AcDbLine
 62
7
  6
CONTINUOUS
 10
766.8682487771
 20
305.4996066053
 11
766.8682487771
 21
325.1592556682
  0
LINE
  5
593
100
AcDbEntity
  8
0
100
AcDbLine
 62
7
  6
CONTINUOUS
 10
766.8682487771
 20
330.074167934
 11
766.8682487771
 21
349.7338169969
  0
LINE
  5
594
100
AcDbEntity
  8
BEZUGSACHSEN
100
AcDbLine
 62
7
  6
CONTINUOUS
 10
767.3682487771
 20
287.4772680748
 11
767.3682487771
 21
264.1837912076
  0
LINE
  5
595
100
AcDbEntity
  8
0
100
AcDbLine
 62
7
  6
CONTINUOUS
 10
767.3682487771
 20
305.5363579438
 11
767.3682487771
 21
312.4623989818
  0
LINE
  5
596
100
AcDbEntity
  8
0
100
AcDbLine
 62
7
  6
CONTINUOUS
 10
767.3682487771
 20
313.0315991491
 11
767.3682487771
 21
322.9885027509
  0
LINE
  5
597
100
AcDbEntity
  8
0
100
AcDbLine
 62
7
  6
CONTINUOUS
 10
767.3682487771
 20
323.148126896
 11
767.3682487771
 21
325.1592556682
  0
LINE
  5
598
100
AcDbEntity
  8
0
100
AcDbLine
 62
7
  6
CONTINUOUS
 10
767.3682487771
 20
330.1109192725
 11
767.3682487771
 21
337.0369603104
  0
LINE
  5
599
100
AcDbEntity
  8
0
100
AcDbLine
 62
7
  6
CONTINUOUS
 10
767.3682487771
 20
337.3604148645
 11
767.3682487771
 21
348.3822161238
  0
LINE
  5
59A
100
AcDbEntity
  8
0
100
AcDbLine
 62
7
  6
CONTINUOUS
 10
767.3682487771
 20
348.541840269
 11
767.3682487771
 21
349.7338169969
  0
LINE
  5
59B
100
AcDbEntity
  8
BEZUGSACHSEN
100
AcDbLine
 62
7
  6
CONTINUOUS
 10
767.3682487771
 20
374.6488992912
 11
767.3682487771
 21
407.183517538
  0
LINE
  5
59C
100
AcDbEntity
  8
0
100
AcDbLine
 62
7
  6
CONTINUOUS
 10
768.2804758751
 20
312.8719750039
 11
768.2804758751
 21
312.4991503203
  0
LINE
  5
59D
100
AcDbEntity
  8
0
100
AcDbLine
 62
7
  6
CONTINUOUS
 10
768.4219255715
 20
337.4465363326
 11
768.4219255715
 21
337.073711649
  0
LINE
  5
59E
100
AcDbEntity
  8
0
100
AcDbLine
 62
7
  6
CONTINUOUS
 10
770.5382487771
 20
222.6222639249
 11
770.5382487771
 21
232.6836471997
  0
LINE
  5
59F
100
AcDbEntity
  8
BEZUGSACHSEN
100
AcDbLine
 62
7
  6
CONTINUOUS
 10
770.5382487771
 20
222.6222639249
 11
770.5382487771
 21
232.6836471997
  0
LINE
  5
5A0
100
AcDbEntity
  8
0
100
AcDbLine
 62
7
  6
CONTINUOUS
 10
770.5382487771
 20
243.6836471997
 11
770.5382487771
 21
252.7057590504
  0
LINE
  5
5A1
100
AcDbEntity
  8
BEZUGSACHSEN
100
AcDbLine
 62
7
  6
CONTINUOUS
 10
770.5382487771
 20
243.6836471997
 11
770.5382487771
 21
252.7057590504
  0
LINE
  5
5A2
100
AcDbEntity
  8
0
100
AcDbLine
 62
7
  6
CONTINUOUS
 10
770.8931693769
 20
350.4192360656
 11
770.8931693769
 21
350.0905881261
  0
LINE
  5
5A3
100
AcDbEntity
  8
0
100
AcDbLine
 62
7
  6
CONTINUOUS
 10
771.3107942387
 20
350.3124451776
 11
771.3107942387
 21
349.9837972381
  0
LINE
  5
5A4
100
AcDbEntity
  8
0
100
AcDbLine
 62
7
  6
CONTINUOUS
 10
772.210904894
 20
349.7536298679
 11
772.210904894
 21
349.3808051843
  0
LINE
  5
5A5
100
AcDbEntity
  8
0
100
AcDbLine
 62
7
  6
CONTINUOUS
 10
772.3250260948
 20
350.0530958658
 11
772.3250260948
 21
349.6802711821
  0
LINE
  5
5A6
100
AcDbEntity
  8
0
100
AcDbLine
 62
7
  6
CONTINUOUS
 10
772.3682487771
 20
361.7343944458
 11
772.3682487771
 21
353.9892013635
  0
LINE
  5
5A7
100
AcDbEntity
  8
0
100
AcDbLine
 62
7
  6
CONTINUOUS
 10
772.6829902743
 20
349.9615608158
 11
772.6829902743
 21
349.6329128763
  0
LINE
  5
5A8
100
AcDbEntity
  8
0
100
AcDbLine
 62
7
  6
CONTINUOUS
 10
772.6864098661
 20
351.0014047774
 11
772.6864098661
 21
350.6285800938
  0
LINE
  5
5A9
100
AcDbEntity
  8
0
100
AcDbLine
 62
7
  6
CONTINUOUS
 10
772.687997539
 20
323.9850943507
 11
772.687997539
 21
323.6122696671
  0
LINE
  5
5AA
100
AcDbEntity
  8
0
100
AcDbLine
 62
7
  6
CONTINUOUS
 10
772.8332689137
 20
324.3349790688
 11
772.8332689137
 21
323.9621543852
  0
LINE
  5
5AB
100
AcDbEntity
  8
0
100
AcDbLine
 62
7
  6
CONTINUOUS
 10
772.8385714316
 20
351.4006926813
 11
772.8385714316
 21
351.0278679977
  0
LINE
  5
5AC
100
AcDbEntity
  8
0
100
AcDbLine
 62
7
  6
CONTINUOUS
 10
772.8682487771
 20
353.8295772184
 11
772.8682487771
 21
362.1439704679
  0
LINE
  5
5AD
100
AcDbEntity
  8
0
100
AcDbLine
 62
7
  6
CONTINUOUS
 10
772.9654219891
 20
323.7534645347
 11
772.9654219891
 21
323.3806398511
  0
LINE
  5
5AE
100
AcDbEntity
  8
0
100
AcDbLine
 62
7
  6
CONTINUOUS
 10
772.9908687425
 20
323.5673066672
 11
772.9908687425
 21
323.1944819836
  0
LINE
  5
5AF
100
AcDbEntity
  8
0
100
AcDbLine
 62
7
  6
CONTINUOUS
 10
773.034353098
 20
324.6618227345
 11
773.034353098
 21
324.2889980509
  0
LINE
  5
5B0
100
AcDbEntity
  8
0
100
AcDbLine
 62
7
  6
CONTINUOUS
 10
773.100854663
 20
323.4047998038
 11
773.100854663
 21
323.065397626
  0
LINE
  5
5B1
100
AcDbEntity
  8
0
100
AcDbLine
 62
7
  6
CONTINUOUS
 10
773.2395668955
 20
323.2889848927
 11
773.2395668955
 21
322.9962302701
  0
LINE
  5
5B2
100
AcDbEntity
  8
0
100
AcDbLine
 62
7
  6
CONTINUOUS
 10
773.2559647082
 20
324.4532339014
 11
773.2559647082
 21
324.1826462409
  0
LINE
  5
5B3
100
AcDbEntity
  8
0
100
AcDbLine
 62
7
  6
CONTINUOUS
 10
773.2912501322
 20
324.9656254133
 11
773.2912501322
 21
324.5928007297
  0
LINE
  5
5B4
100
AcDbEntity
  8
0
100
AcDbLine
 62
7
  6
CONTINUOUS
 10
773.5465074676
 20
325.1530033334
 11
773.5465074676
 21
324.8037285303
  0
LINE
  5
5B5
100
AcDbEntity
  8
0
100
AcDbLine
 62
7
  6
CONTINUOUS
 10
773.6302568595
 20
323.1276979777
 11
773.6302568595
 21
322.872883618
  0
LINE
  5
5B6
100
AcDbEntity
  8
0
100
AcDbLine
 62
7
  6
CONTINUOUS
 10
773.7057470655
 20
324.5017557844
 11
773.7057470655
 21
324.2452550423
  0
LINE
  5
5B7
100
AcDbEntity
  8
0
100
AcDbLine
 62
7
  6
CONTINUOUS
 10
773.8264216362
 20
323.105267004
 11
773.8264216362
 21
322.848766184
  0
LINE
  5
5B8
100
AcDbEntity
  8
0
100
AcDbLine
 62
7
  6
CONTINUOUS
 10
773.8288512603
 20
325.2706481835
 11
773.8288512603
 21
324.9897943605
  0
LINE
  5
5B9
100
AcDbEntity
  8
0
100
AcDbLine
 62
7
  6
CONTINUOUS
 10
774.0135376318
 20
324.4332427997
 11
774.0135376318
 21
324.140488218
  0
LINE
  5
5BA
100
AcDbEntity
  8
0
100
AcDbLine
 62
7
  6
CONTINUOUS
 10
774.0446230526
 20
348.8099629212
 11
774.0446230526
 21
348.4371382376
  0
LINE
  5
5BB
100
AcDbEntity
  8
0
100
AcDbLine
 62
7
  6
CONTINUOUS
 10
774.0513128049
 20
323.1295279497
 11
774.0513128049
 21
322.8736371655
  0
LINE
  5
5BC
100
AcDbEntity
  8
0
100
AcDbLine
 62
7
  6
CONTINUOUS
 10
774.14795058
 20
348.6445497026
 11
774.14795058
 21
348.2957979241
  0
LINE
  5
5BD
100
AcDbEntity
  8
0
100
AcDbLine
 62
7
  6
CONTINUOUS
 10
774.1940944507
 20
325.2955191033
 11
774.1940944507
 21
325.0390183613
  0
LINE
  5
5BE
100
AcDbEntity
  8
0
100
AcDbLine
 62
7
  6
CONTINUOUS
 10
774.2491175107
 20
323.2235218446
 11
774.2491175107
 21
322.9341677547
  0
LINE
  5
5BF
100
AcDbEntity
  8
0
100
AcDbLine
 62
7
  6
CONTINUOUS
 10
774.2926018461
 20
324.3180378792
 11
774.2926018461
 21
323.9882147034
  0
LINE
  5
5C0
100
AcDbEntity
  8
0
100
AcDbLine
 62
7
  6
CONTINUOUS
 10
774.3367308061
 20
348.5004712979
 11
774.3367308061
 21
348.2025588247
  0
LINE
  5
5C1
100
AcDbEntity
  8
KONSTRUKTIONSELEMENTE
100
AcDbLine
 62
7
  6
CONTINUOUS
 10
774.3682487771
 20
390.4862061869
 11
774.3682487771
 21
402.7734868513
  0
LINE
  5
5C2
100
AcDbEntity
  8
KONSTRUKTIONSELEMENTE
100
AcDbLine
 62
7
  6
CONTINUOUS
 10
774.3682487771
 20
426.5288961356
 11
774.3682487771
 21
438.8161768
  0
LINE
  5
5C3
100
AcDbEntity
  8
0
100
AcDbLine
 62
7
  6
CONTINUOUS
 10
774.3911092418
 20
323.340556737
 11
774.3911092418
 21
322.9912820319
  0
LINE
  5
5C4
100
AcDbEntity
  8
0
100
AcDbLine
 62
7
  6
CONTINUOUS
 10
774.4309924054
 20
349.7095131973
 11
774.4309924054
 21
349.4309979044
  0
LINE
  5
5C5
100
AcDbEntity
  8
0
100
AcDbLine
 62
7
  6
CONTINUOUS
 10
774.4772881779
 20
323.4806325937
 11
774.4772881779
 21
323.1078079101
  0
LINE
  5
5C6
100
AcDbEntity
  8
0
100
AcDbLine
 62
7
  6
CONTINUOUS
 10
774.501885017
 20
325.2270061186
 11
774.501885017
 21
324.934251537
  0
LINE
  5
5C7
100
AcDbEntity
  8
0
100
AcDbLine
 62
7
  6
CONTINUOUS
 10
774.5076543593
 20
323.6437494802
 11
774.5076543593
 21
323.2709247965
  0
LINE
  5
5C8
100
AcDbEntity
  8
0
100
AcDbLine
 62
7
  6
CONTINUOUS
 10
774.5429398282
 20
324.1561409735
 11
774.5429398282
 21
323.7833162899
  0
LINE
  5
5C9
100
AcDbEntity
  8
0
100
AcDbLine
 62
7
  6
CONTINUOUS
 10
774.6658100649
 20
348.353179101
 11
774.6658100649
 21
348.0851772861
  0
LINE
  5
5CA
100
AcDbEntity
  8
0
100
AcDbLine
 62
7
  6
CONTINUOUS
 10
774.7251363565
 20
325.1348421955
 11
774.7251363565
 21
324.8050190409
  0
LINE
  5
5CB
100
AcDbEntity
  8
0
100
AcDbLine
 62
7
  6
CONTINUOUS
 10
774.7358250266
 20
323.9008602293
 11
774.7358250266
 21
323.5280355457
  0
LINE
  5
5CC
100
AcDbEntity
  8
0
100
AcDbLine
 62
7
  6
CONTINUOUS
 10
774.7970434832
 20
349.7244202865
 11
774.7970434832
 21
349.4499087417
  0
LINE
  5
5CD
100
AcDbEntity
  8
0
100
AcDbLine
 62
7
  6
CONTINUOUS
 10
774.799486951
 20
350.7958115379
 11
774.799486951
 21
350.4229868542
  0
LINE
  5
5CE
100
AcDbEntity
  8
0
100
AcDbLine
 62
7
  6
CONTINUOUS
 10
774.915802393
 20
348.3008678164
 11
774.915802393
 21
348.0469013821
  0
LINE
  5
5CF
100
AcDbEntity
  8
0
100
AcDbLine
 62
7
  6
CONTINUOUS
 10
774.9744987771
 20
359.5052553078
 11
774.9744987771
 21
359.0521071051
  0
LINE
  5
5D0
100
AcDbEntity
  8
0
100
AcDbLine
 62
7
  6
CONTINUOUS
 10
774.9754742588
 20
324.9729453228
 11
774.9754742588
 21
324.6001206391
  0
LINE
  5
5D1
100
AcDbEntity
  8
0
100
AcDbLine
 62
7
  6
CONTINUOUS
 10
775.1018821452
 20
349.647560396
 11
775.1018821452
 21
349.3496479646
  0
LINE
  5
5D2
100
AcDbEntity
  8
0
100
AcDbLine
 62
7
  6
CONTINUOUS
 10
775.1099154599
 20
359.9584031932
 11
775.1099154599
 21
359.5855785096
  0
LINE
  5
5D3
100
AcDbEntity
  8
0
100
AcDbLine
 62
7
  6
CONTINUOUS
 10
775.1415541243
 20
348.3189888381
 11
775.1415541243
 21
348.0618084833
  0
LINE
  5
5D4
100
AcDbEntity
  8
0
100
AcDbLine
 62
7
  6
CONTINUOUS
 10
775.1683596168
 20
324.7176645126
 11
775.1683596168
 21
324.344839829
  0
LINE
  5
5D5
100
AcDbEntity
  8
0
100
AcDbLine
 62
7
  6
CONTINUOUS
 10
775.2318140234
 20
322.7310407915
 11
775.2318140234
 21
322.3582161079
  0
LINE
  5
5D6
100
AcDbEntity
  8
0
100
AcDbLine
 62
7
  6
CONTINUOUS
 10
775.3030122181
 20
322.8853922236
 11
775.3030122181
 21
322.51256754
  0
LINE
  5
5D7
100
AcDbEntity
  8
0
100
AcDbLine
 62
7
  6
CONTINUOUS
 10
775.3430652804
 20
348.4075421983
 11
775.3430652804
 21
348.1228465018
  0
LINE
  5
5D8
100
AcDbEntity
  8
0
100
AcDbLine
 62
7
  6
CONTINUOUS
 10
775.3807487771
 20
356.8996544909
 11
775.3807487771
 21
356.5268298072
  0
LINE
  5
5D9
100
AcDbEntity
  8
0
100
AcDbLine
 62
7
  6
CONTINUOUS
 10
775.430961404
 20
349.5002681992
 11
775.430961404
 21
349.1540566251
  0
LINE
  5
5DA
100
AcDbEntity
  8
0
100
AcDbLine
 62
7
  6
CONTINUOUS
 10
775.4541595621
 20
323.1212693258
 11
775.4541595621
 21
322.7484446422
  0
LINE
  5
5DB
100
AcDbEntity
  8
0
100
AcDbLine
 62
7
  6
CONTINUOUS
 10
775.4897300811
 20
348.5206441322
 11
775.4897300811
 21
348.184803687
  0
LINE
  5
5DC
100
AcDbEntity
  8
0
100
AcDbLine
 62
7
  6
CONTINUOUS
 10
775.5016943356
 20
322.3522479679
 11
775.5016943356
 21
321.9794232843
  0
LINE
  5
5DD
100
AcDbEntity
  8
0
100
AcDbLine
 62
7
  6
CONTINUOUS
 10
775.5161654115
 20
356.5597935768
 11
775.5161654115
 21
356.1869688932
  0
LINE
  5
5DE
100
AcDbEntity
  8
0
100
AcDbLine
 62
7
  6
CONTINUOUS
 10
775.5509421831
 20
348.6124112524
 11
775.5509421831
 21
348.2395865688
  0
LINE
  5
5DF
100
AcDbEntity
  8
0
100
AcDbLine
 62
7
  6
CONTINUOUS
 10
775.5679217174
 20
322.1745332255
 11
775.5679217174
 21
321.8017085419
  0
LINE
  5
5E0
100
AcDbEntity
  8
0
100
AcDbLine
 62
7
  6
CONTINUOUS
 10
775.5879137312
 20
348.7746107432
 11
775.5879137312
 21
348.4017860595
  0
LINE
  5
5E1
100
AcDbEntity
  8
0
100
AcDbLine
 62
7
  6
CONTINUOUS
 10
775.6515821427
 20
360.4115510786
 11
775.6515821427
 21
360.0387263949
  0
LINE
  5
5E2
100
AcDbEntity
  8
0
100
AcDbLine
 62
7
  6
CONTINUOUS
 10
775.674587964
 20
349.3316411886
 11
775.674587964
 21
348.958816505
  0
LINE
  5
5E3
100
AcDbEntity
  8
0
100
AcDbLine
 62
7
  6
CONTINUOUS
 10
775.7715745364
 20
321.9734552646
 11
775.7715745364
 21
321.6784546531
  0
LINE
  5
5E4
100
AcDbEntity
  8
0
100
AcDbLine
 62
7
  6
CONTINUOUS
 10
775.7869987771
 20
358.7925693928
 11
775.7869987771
 21
359.3919680191
  0
LINE
  5
5E5
100
AcDbEntity
  8
0
100
AcDbLine
 62
7
  6
CONTINUOUS
 10
775.813930482
 20
323.4881345845
 11
775.813930482
 21
323.1153099009
  0
LINE
  5
5E6
100
AcDbEntity
  8
0
100
AcDbLine
 62
7
  6
CONTINUOUS
 10
775.8570027359
 20
349.0712469174
 11
775.8570027359
 21
348.6984222337
  0
LINE
  5
5E7
100
AcDbEntity
  8
0
100
AcDbLine
 62
7
  6
CONTINUOUS
 10
775.9224154115
 20
358.8255331624
 11
775.9224154115
 21
358.4527084788
  0
LINE
  5
5E8
100
AcDbEntity
  8
0
100
AcDbLine
 62
7
  6
CONTINUOUS
 10
775.9224154115
 20
356.2199325835
 11
775.9224154115
 21
355.8471078998
  0
LINE
  5
5E9
100
AcDbEntity
  8
0
100
AcDbLine
 62
7
  6
CONTINUOUS
 10
776.0551767275
 20
321.8539027333
 11
776.0551767275
 21
321.6022159634
  0
LINE
  5
5EA
100
AcDbEntity
  8
0
100
AcDbLine
 62
7
  6
CONTINUOUS
 10
776.0625286605
 20
323.6598856046
 11
776.0625286605
 21
323.3201556041
  0
LINE
  5
5EB
100
AcDbEntity
  8
0
100
AcDbLine
 62
7
  6
CONTINUOUS
 10
776.1932487771
 20
360.6381250213
 11
776.1932487771
 21
360.2653003376
  0
LINE
  5
5EC
100
AcDbEntity
  8
0
100
AcDbLine
 62
7
  6
CONTINUOUS
 10
776.2311778577
 20
323.7501111259
 11
776.2311778577
 21
323.4443541714
  0
LINE
  5
5ED
100
AcDbEntity
  8
0
100
AcDbLine
 62
7
  6
CONTINUOUS
 10
776.281302296
 20
321.839239217
 11
776.281302296
 21
321.5799988473
  0
LINE
  5
5EE
100
AcDbEntity
  8
0
100
AcDbLine
 62
7
  6
CONTINUOUS
 10
776.3286655083
 20
358.5989592197
 11
776.3286655083
 21
358.2261345361
  0
LINE
  5
5EF
100
AcDbEntity
  8
0
100
AcDbLine
 62
7
  6
CONTINUOUS
 10
776.4640820459
 20
356.1066456121
 11
776.4640820459
 21
355.7338209285
  0
LINE
  5
5F0
100
AcDbEntity
  8
0
100
AcDbLine
 62
7
  6
CONTINUOUS
 10
776.4885270742
 20
323.8490362352
 11
776.4885270742
 21
323.548366972
  0
LINE
  5
5F1
100
AcDbEntity
  8
0
100
AcDbLine
 62
7
  6
CONTINUOUS
 10
776.5147904619
 20
345.3005719505
 11
776.5147904619
 21
344.9277472669
  0
LINE
  5
5F2
100
AcDbEntity
  8
0
100
AcDbLine
 62
7
  6
CONTINUOUS
 10
776.7160513849
 20
321.9555640346
 11
776.7160513849
 21
321.6762016088
  0
LINE
  5
5F3
100
AcDbEntity
  8
0
100
AcDbLine
 62
7
  6
CONTINUOUS
 10
776.7349155083
 20
360.7514119926
 11
776.7349155083
 21
360.378587309
  0
LINE
  5
5F4
100
AcDbEntity
  8
0
100
AcDbLine
 62
7
  6
CONTINUOUS
 10
776.7349155083
 20
358.4856722484
 11
776.7349155083
 21
358.1128475647
  0
LINE
  5
5F5
100
AcDbEntity
  8
0
100
AcDbLine
 62
7
  6
CONTINUOUS
 10
776.7546271893
 20
323.8751355254
 11
776.7546271893
 21
323.61589517
  0
LINE
  5
5F6
100
AcDbEntity
  8
0
100
AcDbLine
 62
7
  6
CONTINUOUS
 10
776.9721175461
 20
345.6789385706
 11
776.9721175461
 21
345.306113887
  0
LINE
  5
5F7
100
AcDbEntity
  8
0
100
AcDbLine
 62
7
  6
CONTINUOUS
 10
777.0046243054
 20
322.1680778266
 11
777.0046243054
 21
321.8263004379
  0
LINE
  5
5F8
100
AcDbEntity
  8
0
100
AcDbLine
 62
7
  6
CONTINUOUS
 10
777.1181781949
 20
323.8371087906
 11
777.1181781949
 21
323.5375155936
  0
LINE
  5
5F9
100
AcDbEntity
  8
0
100
AcDbLine
 62
7
  6
CONTINUOUS
 10
777.284446132
 20
322.4534174722
 11
777.284446132
 21
322.0805927886
  0
LINE
  5
5FA
100
AcDbEntity
  8
0
100
AcDbLine
 62
7
  6
CONTINUOUS
 10
777.4119987771
 20
360.7514119926
 11
777.4119987771
 21
360.378587309
  0
LINE
  5
5FB
100
AcDbEntity
  8
0
100
AcDbLine
 62
7
  6
CONTINUOUS
 10
777.4505056919
 20
323.6854933385
 11
777.4505056919
 21
323.3126686548
  0
LINE
  5
5FC
100
AcDbEntity
  8
0
100
AcDbLine
 62
7
  6
CONTINUOUS
 10
777.4755678273
 20
322.7300574156
 11
777.4755678273
 21
322.357232732
  0
LINE
  5
5FD
100
AcDbEntity
  8
0
100
AcDbLine
 62
7
  6
CONTINUOUS
 10
777.5205134382
 20
323.1028864191
 11
777.5205134382
 21
322.7300617355
  0
LINE
  5
5FE
100
AcDbEntity
  8
0
100
AcDbLine
 62
7
  6
CONTINUOUS
 10
777.5474155083
 20
358.4856722484
 11
777.5474155083
 21
358.1128475647
  0
LINE
  5
5FF
100
AcDbEntity
  8
0
100
AcDbLine
 62
7
  6
CONTINUOUS
 10
777.5474155083
 20
356.1066456121
 11
777.5474155083
 21
355.7338209285
  0
LINE
  5
600
100
AcDbEntity
  8
0
100
AcDbLine
 62
7
  6
CONTINUOUS
 10
777.6058415397
 20
318.0441587472
 11
777.6058415397
 21
317.6713340636
  0
LINE
  5
601
100
AcDbEntity
  8
0
100
AcDbLine
 62
7
  6
CONTINUOUS
 10
777.7028840955
 20
323.4523522733
 11
777.7028840955
 21
323.0795275897
  0
LINE
  5
602
100
AcDbEntity
  8
0
100
AcDbLine
 62
7
  6
CONTINUOUS
 10
777.8265881
 20
323.1697485159
 11
777.8265881
 21
322.8557656801
  0
LINE
  5
603
100
AcDbEntity
  8
0
100
AcDbLine
 62
7
  6
CONTINUOUS
 10
778.0890822396
 20
360.6381250213
 11
778.0890822396
 21
360.2653003376
  0
LINE
  5
604
100
AcDbEntity
  8
0
100
AcDbLine
 62
7
  6
CONTINUOUS
 10
778.0890822396
 20
356.2199325835
 11
778.0890822396
 21
355.8471078998
  0
LINE
  5
605
100
AcDbEntity
  8
0
100
AcDbLine
 62
7
  6
CONTINUOUS
 10
778.1745966932
 20
318.301921798
 11
778.1745966932
 21
317.9290971144
  0
LINE
  5
606
100
AcDbEntity
  8
0
100
AcDbLine
 62
7
  6
CONTINUOUS
 10
778.2244987771
 20
358.372385277
 11
778.2244987771
 21
357.9995605934
  0
LINE
  5
607
100
AcDbEntity
  8
0
100
AcDbLine
 62
7
  6
CONTINUOUS
 10
778.4953322396
 20
356.4465066055
 11
778.4953322396
 21
356.0736819219
  0
LINE
  5
608
100
AcDbEntity
  8
0
100
AcDbLine
 62
7
  6
CONTINUOUS
 10
778.6307487771
 20
360.2982641072
 11
778.6307487771
 21
359.9254394236
  0
LINE
  5
609
100
AcDbEntity
  8
0
100
AcDbLine
 62
7
  6
CONTINUOUS
 10
778.7661653146
 20
358.1458113343
 11
778.7661653146
 21
357.7729866507
  0
LINE
  5
60A
100
AcDbEntity
  8
0
100
AcDbLine
 62
7
  6
CONTINUOUS
 10
778.7661653146
 20
357.1262284336
 11
778.7661653146
 21
356.4135428359
  0
LINE
  5
60B
100
AcDbEntity
  8
KONSTRUKTIONSELEMENTE
100
AcDbLine
 62
7
  6
CONTINUOUS
 10
778.8682487771
 20
390.4862061869
 11
778.8682487771
 21
402.7734868513
  0
LINE
  5
60C
100
AcDbEntity
  8
KONSTRUKTIONSELEMENTE
100
AcDbLine
 62
7
  6
CONTINUOUS
 10
778.8682487771
 20
426.5288961356
 11
778.8682487771
 21
438.8161768
  0
LINE
  5
60D
100
AcDbEntity
  8
0
100
AcDbLine
 62
7
  6
CONTINUOUS
 10
779.0369987771
 20
359.8451162219
 11
779.0369987771
 21
359.5052553078
  0
LINE
  5
60E
100
AcDbEntity
  8
0
100
AcDbLine
 62
7
  6
CONTINUOUS
 10
779.1348020866
 20
348.981471624
 11
779.1348020866
 21
348.6982666473
  0
LINE
  5
60F
100
AcDbEntity
  8
0
100
AcDbLine
 62
7
  6
CONTINUOUS
 10
779.3074858863
 20
349.1295555665
 11
779.3074858863
 21
348.7567308829
  0
LINE
  5
610
100
AcDbEntity
  8
0
100
AcDbLine
 62
7
  6
CONTINUOUS
 10
779.3078322396
 20
357.692663449
 11
779.3078322396
 21
357.3198387653
  0
LINE
  5
611
100
AcDbEntity
  8
0
100
AcDbLine
 62
7
  6
CONTINUOUS
 10
779.5786653146
 20
356.6730805482
 11
779.5786653146
 21
357.2395154049
  0
LINE
  5
612
100
AcDbEntity
  8
0
100
AcDbLine
 62
7
  6
CONTINUOUS
 10
779.6157524567
 20
349.171548844
 11
779.6157524567
 21
348.7987241603
  0
LINE
  5
613
100
AcDbEntity
  8
KONSTRUKTIONSELEMENTE
100
AcDbLine
 62
7
  6
CONTINUOUS
 10
779.8682487771
 20
367.5038577676
 11
779.8682487771
 21
391.3514494105
  0
LINE
  5
614
100
AcDbEntity
  8
KONSTRUKTIONSELEMENTE
100
AcDbLine
 62
7
  6
CONTINUOUS
 10
779.8682487771
 20
438.3605095986
 11
779.8682487771
 21
454.1232312852
  0
LINE
  5
615
100
AcDbEntity
  8
KONSTRUKTIONSELEMENTE
100
AcDbLine
 62
7
  6
CONTINUOUS
 10
779.8682487771
 20
454.5328073074
 11
779.8682487771
 21
462.2081012415
  0
LINE
  5
616
100
AcDbEntity
  8
KONSTRUKTIONSELEMENTE
100
AcDbLine
 62
7
  6
CONTINUOUS
 10
780.1182487771
 20
402.7576807133
 11
780.1182487771
 21
426.5447022736
  0
LINE
  5
617
100
AcDbEntity
  8
0
100
AcDbLine
 62
7
  6
CONTINUOUS
 10
780.4969609276
 20
321.7645884674
 11
780.4969609276
 21
321.4022637625
  0
LINE
  5
618
100
AcDbEntity
  8
0
100
AcDbLine
 62
7
  6
CONTINUOUS
 10
780.7031986098
 20
321.8803357762
 11
780.7031986098
 21
321.5075110925
  0
LINE
  5
619
100
AcDbEntity
  8
0
100
AcDbLine
 62
7
  6
CONTINUOUS
 10
781.0154122713
 20
321.8693781311
 11
781.0154122713
 21
321.4965534475
  0
LINE
  5
61A
100
AcDbEntity
  8
0
100
AcDbLine
 62
7
  6
CONTINUOUS
 10
782.3682487771
 20
350.1433930191
 11
782.3682487771
 21
349.7705683354
  0
LINE
  5
61B
100
AcDbEntity
  8
0
100
AcDbLine
 62
7
  6
CONTINUOUS
 10
782.3682487771
 20
320.2025086297
 11
782.3682487771
 21
319.8296839461
  0
LINE
  5
61C
100
AcDbEntity
  8
0
100
AcDbLine
 62
7
  6
CONTINUOUS
 10
782.3682487771
 20
243.6836471997
 11
782.3682487771
 21
232.6836471997
  0
LINE
  5
61D
100
AcDbEntity
  8
0
100
AcDbLine
 62
7
  6
CONTINUOUS
 10
773.7282750376
 20
349.1898867426
 11
773.7155437938
 21
348.957255118
  0
LINE
  5
61E
100
AcDbEntity
  8
0
100
AcDbLine
 62
7
  6
CONTINUOUS
 10
774.0446230526
 20
348.8099629212
 11
774.0573542963
 21
349.0425945457
  0
LINE
  5
61F
100
AcDbEntity
  8
KONSTRUKTIONSELEMENTE
100
AcDbLine
 62
7
  6
CONTINUOUS
 10
820.3682487771
 20
463.6836471997
 11
809.5923317598
 21
463.6836471997
  0
LINE
  5
620
100
AcDbEntity
  8
KONSTRUKTIONSELEMENTE
100
AcDbLine
 62
7
  6
CONTINUOUS
 10
755.1442569233
 20
463.6836471997
 11
743.3682487771
 21
463.6836471997
  0
LINE
  5
621
100
AcDbEntity
  8
KONSTRUKTIONSELEMENTE
100
AcDbLine
 62
7
  6
CONTINUOUS
 10
784.6182487771
 20
402.7576807133
 11
784.6182487771
 21
426.5447022736
  0
LINE
  5
622
100
AcDbEntity
  8
KONSTRUKTIONSELEMENTE
100
AcDbLine
 62
7
  6
CONTINUOUS
 10
784.8682487771
 20
367.5038577676
 11
784.8682487771
 21
391.3514494105
  0
LINE
  5
623
100
AcDbEntity
  8
KONSTRUKTIONSELEMENTE
100
AcDbLine
 62
7
  6
CONTINUOUS
 10
784.8682487771
 20
438.3605095986
 11
784.8682487771
 21
454.1232312852
  0
LINE
  5
624
100
AcDbEntity
  8
KONSTRUKTIONSELEMENTE
100
AcDbLine
 62
7
  6
CONTINUOUS
 10
784.8682487771
 20
454.5328073074
 11
784.8682487771
 21
462.2081012415
  0
LINE
  5
625
100
AcDbEntity
  8
KONSTRUKTIONSELEMENTE
100
AcDbLine
 62
7
  6
CONTINUOUS
 10
785.8682487771
 20
438.8161768
 11
785.8682487771
 21
426.5288961356
  0
LINE
  5
626
100
AcDbEntity
  8
KONSTRUKTIONSELEMENTE
100
AcDbLine
 62
7
  6
CONTINUOUS
 10
785.8682487771
 20
402.7734868513
 11
785.8682487771
 21
390.4862061869
  0
LINE
  5
627
100
AcDbEntity
  8
0
100
AcDbLine
 62
7
  6
CONTINUOUS
 10
788.8682487771
 20
359.9993607954
 11
788.8682487771
 21
359.0930647073
  0
LINE
  5
628
100
AcDbEntity
  8
0
100
AcDbLine
 62
7
  6
CONTINUOUS
 10
789.6807487771
 20
360.7923695948
 11
789.6807487771
 21
360.4195449112
  0
LINE
  5
629
100
AcDbEntity
  8
0
100
AcDbLine
 62
7
  6
CONTINUOUS
 10
789.6807487771
 20
359.8860738241
 11
789.6807487771
 21
355.4678813069
  0
LINE
  5
62A
100
AcDbEntity
  8
KONSTRUKTIONSELEMENTE
100
AcDbLine
 62
7
  6
CONTINUOUS
 10
790.3682487771
 20
438.8161768
 11
790.3682487771
 21
426.5288961356
  0
LINE
  5
62B
100
AcDbEntity
  8
KONSTRUKTIONSELEMENTE
100
AcDbLine
 62
7
  6
CONTINUOUS
 10
790.3682487771
 20
402.7734868513
 11
790.3682487771
 21
390.4862061869
  0
LINE
  5
62C
100
AcDbEntity
  8
0
100
AcDbLine
 62
7
  6
CONTINUOUS
 10
790.4932487771
 20
355.4678813069
 11
790.4932487771
 21
360.7923695948
  0
LINE
  5
62D
100
AcDbEntity
  8
0
100
AcDbLine
 62
7
  6
CONTINUOUS
 10
791.8474155083
 20
359.9993607954
 11
791.8474155083
 21
359.6265361118
  0
LINE
  5
62E
100
AcDbEntity
  8
0
100
AcDbLine
 62
7
  6
CONTINUOUS
 10
792.2536653146
 20
356.7140381504
 11
792.2536653146
 21
356.3412134668
  0
LINE
  5
62F
100
AcDbEntity
  8
0
100
AcDbLine
 62
7
  6
CONTINUOUS
 10
792.3890822396
 20
360.4525086808
 11
792.3890822396
 21
360.0796839972
  0
LINE
  5
630
100
AcDbEntity
  8
0
100
AcDbLine
 62
7
  6
CONTINUOUS
 10
792.3890822396
 20
356.4874642077
 11
792.3890822396
 21
356.1146395241
  0
LINE
  5
631
100
AcDbEntity
  8
0
100
AcDbLine
 62
7
  6
CONTINUOUS
 10
792.6599153146
 20
356.2608901857
 11
792.6599153146
 21
355.8880655021
  0
LINE
  5
632
100
AcDbEntity
  8
0
100
AcDbLine
 62
7
  6
CONTINUOUS
 10
792.7682487771
 20
334.2849579251
 11
792.7682487771
 21
333.9224396168
  0
LINE
  5
633
100
AcDbEntity
  8
0
100
AcDbLine
 62
7
  6
CONTINUOUS
 10
792.7682487771
 20
309.4810340241
 11
792.7682487771
 21
309.1185157158
  0
LINE
  5
634
100
AcDbEntity
  8
0
100
AcDbLine
 62
7
  6
CONTINUOUS
 10
792.9307487771
 20
360.6790826235
 11
792.9307487771
 21
360.3062579398
  0
LINE
  5
635
100
AcDbEntity
  8
0
100
AcDbLine
 62
7
  6
CONTINUOUS
 10
792.9307487771
 20
356.1476032143
 11
792.9307487771
 21
355.7747785307
  0
LINE
  5
636
100
AcDbEntity
  8
0
100
AcDbLine
 62
7
  6
CONTINUOUS
 10
793.6078322396
 20
356.034316243
 11
793.6078322396
 21
355.6614915594
  0
LINE
  5
637
100
AcDbEntity
  8
0
100
AcDbLine
 62
7
  6
CONTINUOUS
 10
793.6349154696
 20
335.0099947956
 11
793.6349154696
 21
332.1098478849
  0
LINE
  5
638
100
AcDbEntity
  8
0
100
AcDbLine
 62
7
  6
CONTINUOUS
 10
793.6349154696
 20
310.2060708946
 11
793.6349154696
 21
307.3059239838
  0
LINE
  5
639
100
AcDbEntity
  8
0
100
AcDbLine
 62
7
  6
CONTINUOUS
 10
793.7432487771
 20
358.4133428792
 11
793.7432487771
 21
357.9601949939
  0
LINE
  5
63A
100
AcDbEntity
  8
0
100
AcDbLine
 62
7
  6
CONTINUOUS
 10
793.8786653146
 20
360.7923695948
 11
793.8786653146
 21
360.4195449112
  0
LINE
  5
63B
100
AcDbEntity
  8
0
100
AcDbLine
 62
7
  6
CONTINUOUS
 10
794.1494987771
 20
360.7923695948
 11
794.1494987771
 21
360.4195449112
  0
LINE
  5
63C
100
AcDbEntity
  8
0
100
AcDbLine
 62
7
  6
CONTINUOUS
 10
794.1765821621
 20
307.1143585178
 11
794.1765821621
 21
310.2060708946
  0
LINE
  5
63D
100
AcDbEntity
  8
0
100
AcDbLine
 62
7
  6
CONTINUOUS
 10
794.1765821621
 20
331.9182824189
 11
794.1765821621
 21
335.0099947956
  0
LINE
  5
63E
100
AcDbEntity
  8
0
100
AcDbLine
 62
7
  6
CONTINUOUS
 10
794.1982487771
 20
253.7450304746
 11
794.1982487771
 21
243.6836471997
  0
LINE
  5
63F
100
AcDbEntity
  8
0
100
AcDbLine
 62
7
  6
CONTINUOUS
 10
794.1982487771
 20
232.6836471997
 11
794.1982487771
 21
224.091535349
  0
LINE
  5
640
100
AcDbEntity
  8
0
100
AcDbLine
 62
7
  6
CONTINUOUS
 10
794.2849153146
 20
358.4133428792
 11
794.2849153146
 21
358.0405181956
  0
LINE
  5
641
100
AcDbEntity
  8
0
100
AcDbLine
 62
7
  6
CONTINUOUS
 10
794.2849153921
 20
332.0192183078
 11
794.2849153921
 21
331.6463936242
  0
LINE
  5
642
100
AcDbEntity
  8
0
100
AcDbLine
 62
7
  6
CONTINUOUS
 10
794.2849153921
 20
307.2152944068
 11
794.2849153921
 21
306.8424697231
  0
LINE
  5
643
100
AcDbEntity
  8
0
100
AcDbLine
 62
7
  6
CONTINUOUS
 10
794.4203322396
 20
356.034316243
 11
794.4203322396
 21
355.6614915594
  0
LINE
  5
644
100
AcDbEntity
  8
0
100
AcDbLine
 62
7
  6
CONTINUOUS
 10
794.6099153921
 20
331.8379591537
 11
794.6099153921
 21
331.4651344701
  0
LINE
  5
645
100
AcDbEntity
  8
0
100
AcDbLine
 62
7
  6
CONTINUOUS
 10
794.6099153921
 20
307.0340352526
 11
794.6099153921
 21
306.661210569
  0
LINE
  5
646
100
AcDbEntity
  8
0
100
AcDbLine
 62
7
  6
CONTINUOUS
 10
795.0974153146
 20
360.6790826235
 11
795.0974153146
 21
360.3062579398
  0
LINE
  5
647
100
AcDbEntity
  8
0
100
AcDbLine
 62
7
  6
CONTINUOUS
 10
795.0974153146
 20
358.6399168219
 11
795.0974153146
 21
358.2670921383
  0
LINE
  5
648
100
AcDbEntity
  8
0
100
AcDbLine
 62
7
  6
CONTINUOUS
 10
795.0974153146
 20
356.1476032143
 11
795.0974153146
 21
355.7747785307
  0
LINE
  5
649
100
AcDbEntity
  8
0
100
AcDbLine
 62
7
  6
CONTINUOUS
 10
795.1515821621
 20
306.5808873038
 11
795.1515821621
 21
306.9434056438
  0
LINE
  5
64A
100
AcDbEntity
  8
0
100
AcDbLine
 62
7
  6
CONTINUOUS
 10
795.1515821621
 20
331.3848112048
 11
795.1515821621
 21
331.7473295449
  0
LINE
  5
64B
100
AcDbEntity
  8
0
100
AcDbLine
 62
7
  6
CONTINUOUS
 10
795.3682487771
 20
358.8664907646
 11
795.3682487771
 21
358.493666081
  0
LINE
  5
64C
100
AcDbEntity
  8
0
100
AcDbLine
 62
7
  6
CONTINUOUS
 10
795.3682487771
 20
358.1867689366
 11
795.3682487771
 21
357.8139442529
  0
LINE
  5
64D
100
AcDbEntity
  8
0
100
AcDbLine
 62
7
  6
CONTINUOUS
 10
795.3682487771
 20
356.2608901857
 11
795.3682487771
 21
355.8880655021
  0
LINE
  5
64E
100
AcDbEntity
  8
0
100
AcDbLine
 62
7
  6
CONTINUOUS
 10
795.3682487771
 20
309.1185157158
 11
795.3682487771
 21
309.4810340241
  0
LINE
  5
64F
100
AcDbEntity
  8
0
100
AcDbLine
 62
7
  6
CONTINUOUS
 10
795.3682487771
 20
333.9224396168
 11
795.3682487771
 21
334.2849579251
  0
LINE
  5
650
100
AcDbEntity
  8
0
100
AcDbLine
 62
7
  6
CONTINUOUS
 10
795.6390818522
 20
360.4525086808
 11
795.6390818522
 21
360.0796839972
  0
LINE
  5
651
100
AcDbEntity
  8
0
100
AcDbLine
 62
7
  6
CONTINUOUS
 10
795.6390818522
 20
359.54621291
 11
795.6390818522
 21
358.9468139664
  0
LINE
  5
652
100
AcDbEntity
  8
0
100
AcDbLine
 62
7
  6
CONTINUOUS
 10
795.6390818522
 20
356.4874642077
 11
795.6390818522
 21
356.1146395241
  0
LINE
  5
653
100
AcDbEntity
  8
0
100
AcDbLine
 62
7
  6
CONTINUOUS
 10
795.7744987771
 20
357.1671860358
 11
795.7744987771
 21
356.3412134668
  0
LINE
  5
654
100
AcDbEntity
  8
0
100
AcDbLine
 62
7
  6
CONTINUOUS
 10
795.8682487771
 20
312.8719750039
 11
795.8682487771
 21
312.4991503203
  0
LINE
  5
655
100
AcDbEntity
  8
0
100
AcDbLine
 62
7
  6
CONTINUOUS
 10
796.0453318522
 20
357.9601949939
 11
796.0453318522
 21
357.5873703102
  0
LINE
  5
656
100
AcDbEntity
  8
0
100
AcDbLine
 62
7
  6
CONTINUOUS
 10
796.1807487771
 20
359.9993607954
 11
796.1807487771
 21
359.6265361118
  0
LINE
  5
657
100
AcDbEntity
  8
0
100
AcDbLine
 62
7
  6
CONTINUOUS
 10
796.3161657021
 20
357.6203340798
 11
796.3161657021
 21
357.2475093962
  0
LINE
  5
658
100
AcDbEntity
  8
0
100
AcDbLine
 62
7
  6
CONTINUOUS
 10
796.3161657021
 20
359.31963865
 11
796.3161657021
 21
359.54621291
  0
LINE
  5
659
100
AcDbEntity
  8
0
100
AcDbLine
 62
7
  6
CONTINUOUS
 10
796.4515818522
 20
356.7140381504
 11
796.4515818522
 21
357.1671860358
  0
LINE
  5
65A
100
AcDbEntity
  8
0
100
AcDbLine
 62
7
  6
CONTINUOUS
 10
796.4540352147
 20
337.4465363326
 11
796.4540352147
 21
337.073711649
  0
LINE
  5
65B
100
AcDbEntity
  8
BEZUGSACHSEN
100
AcDbLine
 62
7
  6
CONTINUOUS
 10
797.3682487771
 20
407.183517538
 11
797.3682487771
 21
374.6488992912
  0
LINE
  5
65C
100
AcDbEntity
  8
0
100
AcDbLine
 62
7
  6
CONTINUOUS
 10
797.3682487771
 20
337.0369603104
 11
797.3682487771
 21
330.1109192725
  0
LINE
  5
65D
100
AcDbEntity
  8
0
100
AcDbLine
 62
7
  6
CONTINUOUS
 10
797.3682487771
 20
312.4623989818
 11
797.3682487771
 21
305.5363579438
  0
LINE
  5
65E
100
AcDbEntity
  8
BEZUGSACHSEN
100
AcDbLine
 62
7
  6
CONTINUOUS
 10
797.3682487771
 20
287.4772490638
 11
797.3682487771
 21
264.1837912076
  0
LINE
  5
65F
100
AcDbEntity
  8
0
100
AcDbLine
 62
7
  6
CONTINUOUS
 10
797.5349157021
 20
359.0930647073
 11
797.5349157021
 21
355.4678813069
  0
LINE
  5
660
100
AcDbEntity
  8
0
100
AcDbLine
 62
7
  6
CONTINUOUS
 10
797.8682487771
 20
305.4996066053
 11
797.8682487771
 21
312.8719750039
  0
LINE
  5
661
100
AcDbEntity
  8
0
100
AcDbLine
 62
7
  6
CONTINUOUS
 10
797.8682487771
 20
330.074167934
 11
797.8682487771
 21
337.4465363326
  0
LINE
  5
662
100
AcDbEntity
  8
0
100
AcDbLine
 62
7
  6
CONTINUOUS
 10
798.2119987771
 20
355.4678813069
 11
798.2119987771
 21
358.3000559079
  0
LINE
  5
663
100
AcDbEntity
  8
0
100
AcDbLine
 62
7
  6
CONTINUOUS
 10
798.2119987771
 20
358.3803791096
 11
798.2119987771
 21
359.0930647073
  0
LINE
  5
664
100
AcDbEntity
  8
0
100
AcDbLine
 62
7
  6
CONTINUOUS
 10
798.4828318522
 20
358.979777736
 11
798.4828318522
 21
358.6069530523
  0
LINE
  5
665
100
AcDbEntity
  8
0
100
AcDbLine
 62
7
  6
CONTINUOUS
 10
798.8890818522
 20
359.0930647073
 11
798.8890818522
 21
358.7202400237
  0
LINE
  5
666
100
AcDbEntity
  8
0
100
AcDbLine
 62
7
  6
CONTINUOUS
 10
799.4307487771
 20
359.0930647073
 11
799.4307487771
 21
358.7202400237
  0
LINE
  5
667
100
AcDbEntity
  8
0
100
AcDbLine
 62
7
  6
CONTINUOUS
 10
799.7015818522
 20
358.1867689366
 11
799.7015818522
 21
355.4678813069
  0
LINE
  5
668
100
AcDbEntity
  8
0
100
AcDbLine
 62
7
  6
CONTINUOUS
 10
799.8369987771
 20
358.979777736
 11
799.8369987771
 21
358.6069530523
  0
LINE
  5
669
100
AcDbEntity
  8
0
100
AcDbLine
 62
7
  6
CONTINUOUS
 10
800.2432487771
 20
358.6399168219
 11
800.2432487771
 21
358.2670921383
  0
LINE
  5
66A
100
AcDbEntity
  8
0
100
AcDbLine
 62
7
  6
CONTINUOUS
 10
800.3682487771
 20
765.1836471997
 11
800.3682487771
 21
469.1836471997
  0
LINE
  5
66B
100
AcDbEntity
  8
0
100
AcDbLine
 62
7
  6
CONTINUOUS
 10
800.3786657021
 20
355.4678813069
 11
800.3786657021
 21
358.1867689366
  0
LINE
  5
66C
100
AcDbEntity
  8
0
100
AcDbLine
 62
7
  6
CONTINUOUS
 10
800.6494987771
 20
358.979777736
 11
800.6494987771
 21
358.6069530523
  0
LINE
  5
66D
100
AcDbEntity
  8
0
100
AcDbLine
 62
7
  6
CONTINUOUS
 10
801.0557487771
 20
359.0930647073
 11
801.0557487771
 21
358.7202400237
  0
LINE
  5
66E
100
AcDbEntity
  8
0
100
AcDbLine
 62
7
  6
CONTINUOUS
 10
801.5974157021
 20
359.0930647073
 11
801.5974157021
 21
358.7202400237
  0
LINE
  5
66F
100
AcDbEntity
  8
0
100
AcDbLine
 62
7
  6
CONTINUOUS
 10
801.8682487771
 20
358.1867689366
 11
801.8682487771
 21
355.4678813069
  0
LINE
  5
670
100
AcDbEntity
  8
0
100
AcDbLine
 62
7
  6
CONTINUOUS
 10
802.0036649272
 20
358.979777736
 11
802.0036649272
 21
358.6069530523
  0
LINE
  5
671
100
AcDbEntity
  8
0
100
AcDbLine
 62
7
  6
CONTINUOUS
 10
802.2744987771
 20
358.7532037933
 11
802.2744987771
 21
358.3803791096
  0
LINE
  5
672
100
AcDbEntity
  8
0
100
AcDbLine
 62
7
  6
CONTINUOUS
 10
802.545332627
 20
355.4678813069
 11
802.545332627
 21
358.1867689366
  0
LINE
  5
673
100
AcDbEntity
  8
0
100
AcDbLine
 62
7
  6
CONTINUOUS
 10
803.6286649272
 20
359.0930647073
 11
803.6286649272
 21
355.4678813069
  0
LINE
  5
674
100
AcDbEntity
  8
0
100
AcDbLine
 62
7
  6
CONTINUOUS
 10
804.3057487771
 20
355.4678813069
 11
804.3057487771
 21
358.3000559079
  0
LINE
  5
675
100
AcDbEntity
  8
0
100
AcDbLine
 62
7
  6
CONTINUOUS
 10
804.3057487771
 20
358.3803791096
 11
804.3057487771
 21
359.0930647073
  0
LINE
  5
676
100
AcDbEntity
  8
RUNDUNGEN
100
AcDbLine
 62
7
  6
CONTINUOUS
 10
804.3373887771
 20
253.7480415997
 11
804.3373887771
 21
224.6409527997
  0
LINE
  5
677
100
AcDbEntity
  8
RUNDUNGEN
100
AcDbLine
 62
7
  6
CONTINUOUS
 10
804.5395587771
 20
249.5795787464
 11
804.5395587771
 21
241.2969816267
  0
LINE
  5
678
100
AcDbEntity
  8
RUNDUNGEN
100
AcDbLine
 62
7
  6
CONTINUOUS
 10
804.5395587771
 20
225.9887969335
 11
804.5395587771
 21
235.0703127727
  0
LINE
  5
679
100
AcDbEntity
  8
BEZUGSACHSEN
100
AcDbLine
 62
7
  6
CONTINUOUS
 10
804.5395587771
 20
225.9887969335
 11
804.5395587771
 21
235.0703127727
  0
LINE
  5
67A
100
AcDbEntity
  8
BEZUGSACHSEN
100
AcDbLine
 62
7
  6
CONTINUOUS
 10
804.5395587771
 20
241.2969816267
 11
804.5395587771
 21
252.0229752143
  0
LINE
  5
67B
100
AcDbEntity
  8
0
100
AcDbLine
 62
7
  6
CONTINUOUS
 10
804.576582627
 20
358.979777736
 11
804.576582627
 21
358.6069530523
  0
LINE
  5
67C
100
AcDbEntity
  8
RUNDUNGEN
100
AcDbLine
 62
7
  6
CONTINUOUS
 10
804.6069487771
 20
256.8161400265
 11
804.6069487771
 21
262.8735471997
  0
LINE
  5
67D
100
AcDbEntity
  8
BEZUGSACHSEN
100
AcDbLine
 62
7
  6
CONTINUOUS
 10
804.6069487771
 20
256.8161400265
 11
804.6069487771
 21
262.8735471997
  0
LINE
  5
67E
100
AcDbEntity
  8
0
100
AcDbLine
 62
7
  6
CONTINUOUS
 10
772.687997539
 20
323.9850943507
 11
772.6559916534
 21
323.7055525849
  0
LINE
  5
67F
100
AcDbEntity
  8
0
100
AcDbLine
 62
7
  6
CONTINUOUS
 10
774.7850788244
 20
323.4121196579
 11
774.817084635
 21
323.6916614137
  0
LINE
  5
680
100
AcDbEntity
  8
0
100
AcDbLine
 62
7
  6
CONTINUOUS
 10
775.5016943356
 20
322.3522479679
 11
775.5466395837
 21
322.7250770692
  0
LINE
  5
681
100
AcDbEntity
  8
0
100
AcDbLine
 62
7
  6
CONTINUOUS
 10
777.5205134382
 20
323.1028864191
 11
777.4755678273
 21
322.7300574156
  0
LINE
  5
682
100
AcDbEntity
  8
0
100
AcDbLine
 62
7
  6
CONTINUOUS
 10
777.5205134382
 20
322.7300617355
 11
777.4755678273
 21
322.357232732
  0
LINE
  5
683
100
AcDbEntity
  8
0
100
AcDbLine
 62
7
  6
CONTINUOUS
 10
779.1348020866
 20
348.981471624
 11
779.0977013049
 21
348.7272972283
  0
LINE
  5
684
100
AcDbEntity
  8
0
100
AcDbLine
 62
7
  6
CONTINUOUS
 10
779.7142341988
 20
348.8112835714
 11
779.7513352276
 21
349.0654581789
  0
LINE
  5
685
100
AcDbEntity
  8
0
100
AcDbLine
 62
7
  6
CONTINUOUS
 10
775.8557808451
 20
348.5355513619
 11
775.8991181613
 21
348.8140665787
  0
LINE
  5
686
100
AcDbEntity
  8
0
100
AcDbLine
 62
7
  6
CONTINUOUS
 10
772.9654219891
 20
323.7534645347
 11
772.9957880904
 21
323.9165813722
  0
LINE
  5
687
100
AcDbEntity
  8
0
100
AcDbLine
 62
7
  6
CONTINUOUS
 10
774.5076543593
 20
323.6437494802
 11
774.4772881779
 21
323.4806325937
  0
LINE
  5
688
100
AcDbEntity
  8
0
100
AcDbLine
 62
7
  6
CONTINUOUS
 10
774.5076543593
 20
323.2709247965
 11
774.4772881779
 21
323.1078079101
  0
LINE
  5
689
100
AcDbEntity
  8
0
100
AcDbLine
 62
7
  6
CONTINUOUS
 10
775.190526772
 20
324.2986569237
 11
775.2208929132
 21
324.4617737448
  0
LINE
  5
68A
100
AcDbEntity
  8
0
100
AcDbLine
 62
7
  6
CONTINUOUS
 10
775.5879137312
 20
348.7746107432
 11
775.5509421831
 21
348.6124112524
  0
LINE
  5
68B
100
AcDbEntity
  8
0
100
AcDbLine
 62
7
  6
CONTINUOUS
 10
775.5879137312
 20
348.4017860595
 11
775.5509421831
 21
348.2395865688
  0
LINE
  5
68C
100
AcDbEntity
  8
0
100
AcDbLine
 62
7
  6
CONTINUOUS
 10
804.982832627
 20
359.0930647073
 11
804.982832627
 21
358.7202400237
  0
LINE
  5
68D
100
AcDbEntity
  8
BEZUGSACHSEN
100
AcDbLine
 62
7
  6
CONTINUOUS
 10
805.3682487771
 20
459.4590826364
 11
805.3682487771
 21
414.1838132838
  0
LINE
  5
68E
100
AcDbEntity
  8
KONSTRUKTIONSELEMENTE
100
AcDbLine
 62
7
  6
CONTINUOUS
 10
805.3682487771
 20
322.1836471999
 11
805.3682487771
 21
331.4851977015
  0
LINE
  5
68F
100
AcDbEntity
  8
KONSTRUKTIONSELEMENTE
100
AcDbLine
 62
7
  6
CONTINUOUS
 10
805.3682487771
 20
372.8941888885
 11
805.3682487771
 21
459.4590826364
  0
LINE
  5
690
100
AcDbEntity
  8
0
100
AcDbLine
 62
7
  6
CONTINUOUS
 10
805.5244987771
 20
359.0930647073
 11
805.5244987771
 21
358.7202400237
  0
LINE
  5
691
100
AcDbEntity
  8
0
100
AcDbLine
 62
7
  6
CONTINUOUS
 10
805.795332627
 20
358.1867689366
 11
805.795332627
 21
355.4678813069
  0
LINE
  5
692
100
AcDbEntity
  8
0
100
AcDbLine
 62
7
  6
CONTINUOUS
 10
805.9307487771
 20
358.979777736
 11
805.9307487771
 21
358.6069530523
  0
LINE
  5
693
100
AcDbEntity
  8
0
100
AcDbLine
 62
7
  6
CONTINUOUS
 10
806.3369987771
 20
358.6399168219
 11
806.3369987771
 21
358.2670921383
  0
LINE
  5
694
100
AcDbEntity
  8
0
100
AcDbLine
 62
7
  6
CONTINUOUS
 10
806.4724149272
 20
355.4678813069
 11
806.4724149272
 21
358.1867689366
  0
LINE
  5
695
100
AcDbEntity
  8
0
100
AcDbLine
 62
7
  6
CONTINUOUS
 10
806.7432487771
 20
358.979777736
 11
806.7432487771
 21
358.6069530523
  0
LINE
  5
696
100
AcDbEntity
  8
0
100
AcDbLine
 62
7
  6
CONTINUOUS
 10
807.1494987771
 20
359.0930647073
 11
807.1494987771
 21
358.7202400237
  0
LINE
  5
697
100
AcDbEntity
  8
0
100
AcDbLine
 62
7
  6
CONTINUOUS
 10
807.6911649272
 20
359.0930647073
 11
807.6911649272
 21
358.7202400237
  0
LINE
  5
698
100
AcDbEntity
  8
0
100
AcDbLine
 62
7
  6
CONTINUOUS
 10
807.9619987771
 20
358.1867689366
 11
807.9619987771
 21
355.4678813069
  0
LINE
  5
699
100
AcDbEntity
  8
0
100
AcDbLine
 62
7
  6
CONTINUOUS
 10
808.0974149272
 20
358.979777736
 11
808.0974149272
 21
358.6069530523
  0
LINE
  5
69A
100
AcDbEntity
  8
0
100
AcDbLine
 62
7
  6
CONTINUOUS
 10
808.3682487771
 20
358.7532037933
 11
808.3682487771
 21
358.3803791096
  0
LINE
  5
69B
100
AcDbEntity
  8
0
100
AcDbLine
 62
7
  6
CONTINUOUS
 10
808.639082627
 20
355.4678813069
 11
808.639082627
 21
358.1867689366
  0
LINE
  5
69C
100
AcDbEntity
  8
RUNDUNGEN
100
AcDbLine
 62
7
  6
CONTINUOUS
 10
816.3682487771
 20
274.3709788956
 11
816.3682487771
 21
284.2016534538
  0
LINE
  5
69D
100
AcDbEntity
  8
0
100
AcDbLine
 62
7
  6
CONTINUOUS
 10
822.8696387771
 20
247.7197285866
 11
822.8696387771
 21
241.2969816267
  0
LINE
  5
69E
100
AcDbEntity
  8
RUNDUNGEN
100
AcDbLine
 62
7
  6
CONTINUOUS
 10
822.8696387771
 20
247.7197285866
 11
822.8696387771
 21
241.2969816267
  0
LINE
  5
69F
100
AcDbEntity
  8
BEZUGSACHSEN
100
AcDbLine
 62
7
  6
CONTINUOUS
 10
822.8696387771
 20
248.5737112787
 11
822.8696387771
 21
241.2969816267
  0
LINE
  5
6A0
100
AcDbEntity
  8
0
100
AcDbLine
 62
7
  6
CONTINUOUS
 10
822.8696387771
 20
235.0703127727
 11
822.8696387771
 21
226.8629448946
  0
LINE
  5
6A1
100
AcDbEntity
  8
RUNDUNGEN
100
AcDbLine
 62
7
  6
CONTINUOUS
 10
822.8696387771
 20
235.0703127727
 11
822.8696387771
 21
225.9887969507
  0
LINE
  5
6A2
100
AcDbEntity
  8
BEZUGSACHSEN
100
AcDbLine
 62
7
  6
CONTINUOUS
 10
822.8696387771
 20
235.0703127727
 11
822.8696387771
 21
225.9887969507
  0
LINE
  5
6A3
100
AcDbEntity
  8
RUNDUNGEN
100
AcDbLine
 62
7
  6
CONTINUOUS
 10
823.2065887771
 20
224.6409527997
 11
823.2065887771
 21
253.7480415997
  0
LINE
  5
6A4
100
AcDbEntity
  8
RUNDUNGEN
100
AcDbLine
 62
7
  6
CONTINUOUS
 10
824.7579634717
 20
354.7810035635
 11
824.7579634717
 21
357.6488857453
  0
LINE
  5
6A5
100
AcDbEntity
  8
0
100
AcDbLine
 62
7
  6
CONTINUOUS
 10
775.2318140234
 20
322.7310407915
 11
775.1693668387
 21
322.50386342
  0
LINE
  5
6A6
100
AcDbEntity
  8
0
100
AcDbLine
 62
7
  6
CONTINUOUS
 10
775.2318140234
 20
322.3582161079
 11
775.2106579285
 21
322.2812520933
  0
LINE
  5
6A7
100
AcDbEntity
  8
0
100
AcDbLine
 62
7
  6
CONTINUOUS
 10
777.790393639
 20
322.7240937158
 11
777.8528409352
 21
322.951270967
  0
LINE
  5
6A8
100
AcDbEntity
  8
0
100
AcDbLine
 62
7
  6
CONTINUOUS
 10
775.1099154599
 20
359.9584031932
 11
774.9744987771
 21
359.5052553078
  0
LINE
  5
6A9
100
AcDbEntity
  8
0
100
AcDbLine
 62
7
  6
CONTINUOUS
 10
775.1099154599
 20
359.5855785096
 11
774.9744987771
 21
359.1324306242
  0
LINE
  5
6AA
100
AcDbEntity
  8
0
100
AcDbLine
 62
7
  6
CONTINUOUS
 10
791.8474155083
 20
359.9993607954
 11
791.7119987771
 21
359.54621291
  0
LINE
  5
6AB
100
AcDbEntity
  8
0
100
AcDbLine
 62
7
  6
CONTINUOUS
 10
791.8474155083
 20
359.6265361118
 11
791.8234120742
 21
359.54621291
  0
LINE
  5
6AC
100
AcDbEntity
  8
0
100
AcDbLine
 62
7
  6
CONTINUOUS
 10
770.8931693769
 20
350.4192360656
 11
770.7790481761
 21
350.1197700678
  0
LINE
  5
6AD
100
AcDbEntity
  8
0
100
AcDbLine
 62
7
  6
CONTINUOUS
 10
772.6864098661
 20
351.0014047774
 11
772.3250260948
 21
350.0530958658
  0
LINE
  5
6AE
100
AcDbEntity
  8
0
100
AcDbLine
 62
7
  6
CONTINUOUS
 10
772.210904894
 20
349.7536298679
 11
771.9446221278
 21
349.0548759662
  0
LINE
  5
6AF
100
AcDbEntity
  8
0
100
AcDbLine
 62
7
  6
CONTINUOUS
 10
772.210904894
 20
349.3808051843
 11
772.0740834615
 21
349.0217713978
  0
LINE
  5
6B0
100
AcDbEntity
  8
0
100
AcDbLine
 62
7
  6
CONTINUOUS
 10
772.6864098661
 20
350.6285800938
 11
772.3250260948
 21
349.6802711821
  0
LINE
  5
6B1
100
AcDbEntity
  8
0
100
AcDbLine
 62
7
  6
CONTINUOUS
 10
772.3025863072
 20
348.9633409162
 11
772.5688690735
 21
349.662094818
  0
LINE
  5
6B2
100
AcDbEntity
  8
0
100
AcDbLine
 62
7
  6
CONTINUOUS
 10
772.6829902743
 20
349.9615608158
 11
773.1965356111
 21
351.3091576313
  0
LINE
  5
6B3
100
AcDbEntity
  8
0
100
AcDbLine
 62
7
  6
CONTINUOUS
 10
773.1654759824
 20
349.5095364159
 11
773.2795971831
 21
349.8090024137
  0
LINE
  5
6B4
100
AcDbEntity
  8
0
100
AcDbLine
 62
7
  6
CONTINUOUS
 10
775.7869987771
 20
359.3919680191
 11
775.9224154115
 21
359.7318292505
  0
LINE
  5
6B5
100
AcDbEntity
  8
RUNDUNGEN
100
AcDbLine
 62
7
  6
CONTINUOUS
 10
826.3682487771
 20
278.8763151392
 11
826.3682487771
 21
291.6626600561
  0
LINE
  5
6B6
100
AcDbEntity
  8
BEZUGSACHSEN
100
AcDbLine
 62
7
  6
CONTINUOUS
 10
835.3682487771
 20
466.6836471997
 11
835.3682487771
 21
414.1837710327
  0
LINE
  5
6B7
100
AcDbEntity
  8
KONSTRUKTIONSELEMENTE
100
AcDbLine
 62
7
  6
CONTINUOUS
 10
835.3682487771
 20
463.6836471997
 11
835.3682487771
 21
378.7946020602
  0
LINE
  5
6B8
100
AcDbEntity
  8
KONSTRUKTIONSELEMENTE
100
AcDbLine
 62
7
  6
CONTINUOUS
 10
835.3682487771
 20
366.6900204331
 11
835.3682487771
 21
322.1836472041
  0
LINE
  5
6B9
100
AcDbEntity
  8
RUNDUNGEN
100
AcDbLine
 62
7
  6
CONTINUOUS
 10
838.3098310448
 20
371.6809562223
 11
838.3098310448
 21
374.548838404
  0
LINE
  5
6BA
100
AcDbEntity
  8
0
100
AcDbLine
 62
7
  6
CONTINUOUS
 10
838.3682487771
 20
226.0881201293
 11
838.3682487771
 21
232.3126303997
  0
LINE
  5
6BB
100
AcDbEntity
  8
0
100
AcDbLine
 62
7
  6
CONTINUOUS
 10
838.3682487771
 20
244.0546639997
 11
838.3682487771
 21
245.3643688056
  0
LINE
  5
6BC
100
AcDbEntity
  8
KONSTRUKTIONSELEMENTE
100
AcDbLine
 62
7
  6
CONTINUOUS
 10
841.3682487771
 20
380.6335915204
 11
841.3682487771
 21
335.7337028791
  0
LINE
  5
6BD
100
AcDbEntity
  8
0
100
AcDbLine
 62
7
  6
CONTINUOUS
 10
796.1807487771
 20
358.8664907646
 11
796.3161657021
 21
359.31963865
  0
LINE
  5
6BE
100
AcDbEntity
  8
0
100
AcDbLine
 62
7
  6
CONTINUOUS
 10
796.3161657021
 20
356.374177157
 11
796.4515818522
 21
356.7140381504
  0
LINE
  5
6BF
100
AcDbEntity
  8
0
100
AcDbLine
 62
7
  6
CONTINUOUS
 10
780.4969609276
 20
321.7645884674
 11
780.3966995199
 21
321.5221363705
  0
LINE
  5
6C0
100
AcDbEntity
  8
0
100
AcDbLine
 62
7
  6
CONTINUOUS
 10
781.0211265479
 20
321.5002209148
 11
781.1213882507
 21
321.7426731773
  0
LINE
  5
6C1
100
AcDbEntity
  8
0
100
AcDbLine
 62
7
  6
CONTINUOUS
 10
772.8332689137
 20
324.3349790688
 11
772.687997539
 21
323.9850943507
  0
LINE
  5
6C2
100
AcDbEntity
  8
0
100
AcDbLine
 62
7
  6
CONTINUOUS
 10
772.8332689137
 20
323.9621543852
 11
772.687997539
 21
323.6122696671
  0
LINE
  5
6C3
100
AcDbEntity
  8
0
100
AcDbLine
 62
7
  6
CONTINUOUS
 10
775.3030122181
 20
322.8853922236
 11
775.2318140234
 21
322.7310407915
  0
LINE
  5
6C4
100
AcDbEntity
  8
0
100
AcDbLine
 62
7
  6
CONTINUOUS
 10
775.3030122181
 20
322.51256754
 11
775.2318140234
 21
322.3582161079
  0
LINE
  5
6C5
100
AcDbEntity
  8
0
100
AcDbLine
 62
7
  6
CONTINUOUS
 10
777.7191954717
 20
322.5697420778
 11
777.790393639
 21
322.7240937158
  0
LINE
  5
6C6
100
AcDbEntity
  8
0
100
AcDbLine
 62
7
  6
CONTINUOUS
 10
779.3078322396
 20
356.2199325835
 11
779.5786653146
 21
356.6730805482
  0
LINE
  5
6C7
100
AcDbEntity
  8
0
100
AcDbLine
 62
7
  6
CONTINUOUS
 10
774.799486951
 20
350.7958115379
 11
774.0037295394
 21
349.6028388475
  0
LINE
  5
6C8
100
AcDbEntity
  8
0
100
AcDbLine
 62
7
  6
CONTINUOUS
 10
774.799486951
 20
350.4229868542
 11
774.1952403673
 21
349.5171207422
  0
LINE
  5
6C9
100
AcDbEntity
  8
0
100
AcDbLine
 62
7
  6
CONTINUOUS
 10
774.4309924054
 20
349.7095131973
 11
774.920689307
 21
350.443650287
  0
LINE
  5
6CA
100
AcDbEntity
  8
0
100
AcDbLine
 62
7
  6
CONTINUOUS
 10
775.5509421831
 20
348.6124112524
 11
775.4897300811
 21
348.5206441322
  0
LINE
  5
6CB
100
AcDbEntity
  8
0
100
AcDbLine
 62
7
  6
CONTINUOUS
 10
776.5112392669
 20
349.7317379086
 11
776.6642695219
 21
349.961155709
  0
LINE
  5
6CC
100
AcDbEntity
  8
0
100
AcDbLine
 62
7
  6
CONTINUOUS
 10
775.7333566412
 20
348.3520171216
 11
775.8557808451
 21
348.5355513619
  0
LINE
  5
6CD
100
AcDbEntity
  8
RUNDUNGEN
100
AcDbLine
 62
7
  6
CONTINUOUS
 10
725.7085997142
 20
376.6955135924
 11
732.5894768862
 21
380.6422225997
  0
LINE
  5
6CE
100
AcDbEntity
  8
0
100
AcDbLine
 62
7
  6
CONTINUOUS
 10
795.6390818522
 20
359.31963865
 11
795.3682487771
 21
358.8664907646
  0
LINE
  5
6CF
100
AcDbEntity
  8
0
100
AcDbLine
 62
7
  6
CONTINUOUS
 10
795.6390818522
 20
358.9468139664
 11
795.3682487771
 21
358.493666081
  0
LINE
  5
6D0
100
AcDbEntity
  8
0
100
AcDbLine
 62
7
  6
CONTINUOUS
 10
795.7744987771
 20
356.7140381504
 11
795.6390818522
 21
356.4874642077
  0
LINE
  5
6D1
100
AcDbEntity
  8
0
100
AcDbLine
 62
7
  6
CONTINUOUS
 10
795.7744987771
 20
356.3412134668
 11
795.6390818522
 21
356.1146395241
  0
LINE
  5
6D2
100
AcDbEntity
  8
0
100
AcDbLine
 62
7
  6
CONTINUOUS
 10
800.3786657021
 20
358.1867689366
 11
800.5140818522
 21
358.4133428792
  0
LINE
  5
6D3
100
AcDbEntity
  8
0
100
AcDbLine
 62
7
  6
CONTINUOUS
 10
806.4724149272
 20
358.1867689366
 11
806.607832627
 21
358.4133428792
  0
LINE
  5
6D4
100
AcDbEntity
  8
0
100
AcDbLine
 62
7
  6
CONTINUOUS
 10
773.034353098
 20
324.6618227345
 11
772.8332689137
 21
324.3349790688
  0
LINE
  5
6D5
100
AcDbEntity
  8
0
100
AcDbLine
 62
7
  6
CONTINUOUS
 10
773.034353098
 20
324.2889980509
 11
772.8332689137
 21
323.9621543852
  0
LINE
  5
6D6
100
AcDbEntity
  8
0
100
AcDbLine
 62
7
  6
CONTINUOUS
 10
773.2559647082
 20
324.4532339014
 11
773.3134173323
 21
324.5466178058
  0
LINE
  5
6D7
100
AcDbEntity
  8
0
100
AcDbLine
 62
7
  6
CONTINUOUS
 10
772.9957880904
 20
323.9165813722
 11
773.0819670265
 21
324.056657229
  0
LINE
  5
6D8
100
AcDbEntity
  8
0
100
AcDbLine
 62
7
  6
CONTINUOUS
 10
774.4772881779
 20
323.4806325937
 11
774.3911092418
 21
323.340556737
  0
LINE
  5
6D9
100
AcDbEntity
  8
0
100
AcDbLine
 62
7
  6
CONTINUOUS
 10
774.4772881779
 20
323.1078079101
 11
774.4215817412
 21
323.017262271
  0
LINE
  5
6DA
100
AcDbEntity
  8
0
100
AcDbLine
 62
7
  6
CONTINUOUS
 10
774.6414472239
 20
323.1786598313
 11
774.7850788244
 21
323.4121196579
  0
LINE
  5
6DB
100
AcDbEntity
  8
BEZUGSACHSEN
100
AcDbLine
 62
7
  6
CONTINUOUS
 10
740.3678806736
 20
275.221428577
 11
727.841555846
 21
255.0578456459
  0
LINE
  5
6DC
100
AcDbEntity
  8
0
100
AcDbLine
 62
7
  6
CONTINUOUS
 10
775.4541595621
 20
323.1212693258
 11
775.3030122181
 21
322.8853922236
  0
LINE
  5
6DD
100
AcDbEntity
  8
0
100
AcDbLine
 62
7
  6
CONTINUOUS
 10
775.4541595621
 20
322.7484446422
 11
775.3030122181
 21
322.51256754
  0
LINE
  5
6DE
100
AcDbEntity
  8
0
100
AcDbLine
 62
7
  6
CONTINUOUS
 10
777.5680480443
 20
322.3338651244
 11
777.7191954717
 21
322.5697420778
  0
LINE
  5
6DF
100
AcDbEntity
  8
0
100
AcDbLine
 62
7
  6
CONTINUOUS
 10
775.5466395837
 20
322.7250770692
 11
775.7377616138
 21
323.0017168862
  0
LINE
  5
6E0
100
AcDbEntity
  8
0
100
AcDbLine
 62
7
  6
CONTINUOUS
 10
777.4755678273
 20
322.7300574156
 11
777.284446132
 21
322.4534174722
  0
LINE
  5
6E1
100
AcDbEntity
  8
0
100
AcDbLine
 62
7
  6
CONTINUOUS
 10
777.4755678273
 20
322.357232732
 11
777.284446132
 21
322.0805927886
  0
LINE
  5
6E2
100
AcDbEntity
  8
0
100
AcDbLine
 62
7
  6
CONTINUOUS
 10
778.7661653146
 20
356.7863675195
 11
778.4953322396
 21
356.4465066055
  0
LINE
  5
6E3
100
AcDbEntity
  8
0
100
AcDbLine
 62
7
  6
CONTINUOUS
 10
778.7661653146
 20
356.4135428359
 11
778.4953322396
 21
356.0736819219
  0
LINE
  5
6E4
100
AcDbEntity
  8
0
100
AcDbLine
 62
7
  6
CONTINUOUS
 10
792.3890822396
 20
359.54621291
 11
792.6599153146
 21
359.8860738241
  0
LINE
  5
6E5
100
AcDbEntity
  8
0
100
AcDbLine
 62
7
  6
CONTINUOUS
 10
795.9099157021
 20
358.5266298506
 11
796.1807487771
 21
358.8664907646
  0
LINE
  5
6E6
100
AcDbEntity
  8
0
100
AcDbLine
 62
7
  6
CONTINUOUS
 10
796.0453318522
 20
356.034316243
 11
796.3161657021
 21
356.374177157
  0
LINE
  5
6E7
100
AcDbEntity
  8
RUNDUNGEN
100
AcDbLine
 62
7
  6
CONTINUOUS
 10
739.4533365114
 20
294.4817379185
 11
758.4657282338
 21
316.7237714534
  0
LINE
  5
6E8
100
AcDbEntity
  8
RUNDUNGEN
100
AcDbLine
 62
7
  6
CONTINUOUS
 10
807.930212698
 20
374.5908056646
 11
809.0438729228
 21
375.8936437519
  0
LINE
  5
6E9
100
AcDbEntity
  8
0
100
AcDbLine
 62
7
  6
CONTINUOUS
 10
775.6515821427
 20
360.4115510786
 11
775.1099154599
 21
359.9584031932
  0
LINE
  5
6EA
100
AcDbEntity
  8
0
100
AcDbLine
 62
7
  6
CONTINUOUS
 10
775.6515821427
 20
360.0387263949
 11
775.1099154599
 21
359.5855785096
  0
LINE
  5
6EB
100
AcDbEntity
  8
RUNDUNGEN
100
AcDbLine
 62
7
  6
CONTINUOUS
 10
770.8967200501
 20
376.6727472698
 11
754.0221879377
 21
366.9939132757
  0
LINE
  5
6EC
100
AcDbEntity
  8
0
100
AcDbLine
 62
7
  6
CONTINUOUS
 10
773.2912501322
 20
324.9656254133
 11
773.034353098
 21
324.6618227345
  0
LINE
  5
6ED
100
AcDbEntity
  8
0
100
AcDbLine
 62
7
  6
CONTINUOUS
 10
773.2912501322
 20
324.5928007297
 11
773.034353098
 21
324.2889980509
  0
LINE
  5
6EE
100
AcDbEntity
  8
RUNDUNGEN
100
AcDbLine
 62
7
  6
CONTINUOUS
 10
818.7868109621
 20
365.1553240718
 11
822.1709119365
 21
369.1142834946
  0
LINE
  5
6EF
100
AcDbEntity
  8
RUNDUNGEN
100
AcDbLine
 62
7
  6
CONTINUOUS
 10
818.7868109621
 20
362.28744189
 11
822.1709119365
 21
366.2464013128
  0
LINE
  5
6F0
100
AcDbEntity
  8
0
100
AcDbLine
 62
7
  6
CONTINUOUS
 10
773.3134173323
 20
324.5466178058
 11
773.5415880594
 21
324.8037285303
  0
LINE
  5
6F1
100
AcDbEntity
  8
0
100
AcDbLine
 62
7
  6
CONTINUOUS
 10
775.813930482
 20
323.4881345845
 11
775.4541595621
 21
323.1212693258
  0
LINE
  5
6F2
100
AcDbEntity
  8
0
100
AcDbLine
 62
7
  6
CONTINUOUS
 10
775.813930482
 20
323.1153099009
 11
775.4541595621
 21
322.7484446422
  0
LINE
  5
6F3
100
AcDbEntity
  8
0
100
AcDbLine
 62
7
  6
CONTINUOUS
 10
775.7377616138
 20
323.0017168862
 11
776.0175834404
 21
323.2870565319
  0
LINE
  5
6F4
100
AcDbEntity
  8
0
100
AcDbLine
 62
7
  6
CONTINUOUS
 10
777.284446132
 20
322.4534174722
 11
777.0046243054
 21
322.1680778266
  0
LINE
  5
6F5
100
AcDbEntity
  8
0
100
AcDbLine
 62
7
  6
CONTINUOUS
 10
777.284446132
 20
322.0805927886
 11
777.0990388466
 21
321.8915294486
  0
LINE
  5
6F6
100
AcDbEntity
  8
0
100
AcDbLine
 62
7
  6
CONTINUOUS
 10
777.2082771244
 20
321.9669998657
 11
777.5680480443
 21
322.3338651244
  0
LINE
  5
6F7
100
AcDbEntity
  8
0
100
AcDbLine
 62
7
  6
CONTINUOUS
 10
789.6807487771
 20
360.7923695948
 11
788.8682487771
 21
359.9993607954
  0
LINE
  5
6F8
100
AcDbEntity
  8
0
100
AcDbLine
 62
7
  6
CONTINUOUS
 10
789.6807487771
 20
360.4195449112
 11
788.8682487771
 21
359.6265361118
  0
LINE
  5
6F9
100
AcDbEntity
  8
0
100
AcDbLine
 62
7
  6
CONTINUOUS
 10
788.8682487771
 20
359.0930647073
 11
789.6807487771
 21
359.8860738241
  0
LINE
  5
6FA
100
AcDbEntity
  8
0
100
AcDbLine
 62
7
  6
CONTINUOUS
 10
779.3074858863
 20
349.1295555665
 11
779.1348020866
 21
348.981471624
  0
LINE
  5
6FB
100
AcDbEntity
  8
0
100
AcDbLine
 62
7
  6
CONTINUOUS
 10
779.3074858863
 20
348.7567308829
 11
779.1977579339
 21
348.6626343444
  0
LINE
  5
6FC
100
AcDbEntity
  8
0
100
AcDbLine
 62
7
  6
CONTINUOUS
 10
779.5415503992
 20
348.6631996289
 11
779.7142341988
 21
348.8112835714
  0
LINE
  5
6FD
100
AcDbEntity
  8
0
100
AcDbLine
 62
7
  6
CONTINUOUS
 10
778.7661653146
 20
355.7667846584
 11
779.3078322396
 21
356.2199325835
  0
LINE
  5
6FE
100
AcDbEntity
  8
0
100
AcDbLine
 62
7
  6
CONTINUOUS
 10
792.3890822396
 20
360.4525086808
 11
791.8474155083
 21
359.9993607954
  0
LINE
  5
6FF
100
AcDbEntity
  8
0
100
AcDbLine
 62
7
  6
CONTINUOUS
 10
792.3890822396
 20
360.0796839972
 11
791.8474155083
 21
359.6265361118
  0
LINE
  5
700
100
AcDbEntity
  8
0
100
AcDbLine
 62
7
  6
CONTINUOUS
 10
795.3682487771
 20
358.8664907646
 11
795.0974153146
 21
358.6399168219
  0
LINE
  5
701
100
AcDbEntity
  8
0
100
AcDbLine
 62
7
  6
CONTINUOUS
 10
795.3682487771
 20
358.493666081
 11
795.0974153146
 21
358.2670921383
  0
LINE
  5
702
100
AcDbEntity
  8
0
100
AcDbLine
 62
7
  6
CONTINUOUS
 10
798.4828318522
 20
358.979777736
 11
798.2119987771
 21
358.7532037933
  0
LINE
  5
703
100
AcDbEntity
  8
0
100
AcDbLine
 62
7
  6
CONTINUOUS
 10
795.6390818522
 20
356.4874642077
 11
795.3682487771
 21
356.2608901857
  0
LINE
  5
704
100
AcDbEntity
  8
0
100
AcDbLine
 62
7
  6
CONTINUOUS
 10
798.4828318522
 20
358.6069530523
 11
798.2119987771
 21
358.3803791096
  0
LINE
  5
705
100
AcDbEntity
  8
0
100
AcDbLine
 62
7
  6
CONTINUOUS
 10
798.2119987771
 20
358.3000559079
 11
798.4828318522
 21
358.5266298506
  0
LINE
  5
706
100
AcDbEntity
  8
0
100
AcDbLine
 62
7
  6
CONTINUOUS
 10
795.6390818522
 20
356.1146395241
 11
795.3682487771
 21
355.8880655021
  0
LINE
  5
707
100
AcDbEntity
  8
0
100
AcDbLine
 62
7
  6
CONTINUOUS
 10
800.6494987771
 20
358.979777736
 11
800.2432487771
 21
358.6399168219
  0
LINE
  5
708
100
AcDbEntity
  8
0
100
AcDbLine
 62
7
  6
CONTINUOUS
 10
800.6494987771
 20
358.6069530523
 11
800.2432487771
 21
358.2670921383
  0
LINE
  5
709
100
AcDbEntity
  8
0
100
AcDbLine
 62
7
  6
CONTINUOUS
 10
800.5140818522
 20
358.4133428792
 11
800.6494987771
 21
358.5266298506
  0
LINE
  5
70A
100
AcDbEntity
  8
0
100
AcDbLine
 62
7
  6
CONTINUOUS
 10
804.576582627
 20
358.979777736
 11
804.3057487771
 21
358.7532037933
  0
LINE
  5
70B
100
AcDbEntity
  8
0
100
AcDbLine
 62
7
  6
CONTINUOUS
 10
804.576582627
 20
358.6069530523
 11
804.3057487771
 21
358.3803791096
  0
LINE
  5
70C
100
AcDbEntity
  8
0
100
AcDbLine
 62
7
  6
CONTINUOUS
 10
804.3057487771
 20
358.3000559079
 11
804.576582627
 21
358.5266298506
  0
LINE
  5
70D
100
AcDbEntity
  8
0
100
AcDbLine
 62
7
  6
CONTINUOUS
 10
806.7432487771
 20
358.979777736
 11
806.3369987771
 21
358.6399168219
  0
LINE
  5
70E
100
AcDbEntity
  8
0
100
AcDbLine
 62
7
  6
CONTINUOUS
 10
806.7432487771
 20
358.6069530523
 11
806.3369987771
 21
358.2670921383
  0
LINE
  5
70F
100
AcDbEntity
  8
0
100
AcDbLine
 62
7
  6
CONTINUOUS
 10
806.607832627
 20
358.4133428792
 11
806.7432487771
 21
358.5266298506
  0
LINE
  5
710
100
AcDbEntity
  8
0
100
AcDbLine
 62
7
  6
CONTINUOUS
 10
782.3682487771
 20
350.1433930191
 11
776.9721175461
 21
345.6789385706
  0
LINE
  5
711
100
AcDbEntity
  8
0
100
AcDbLine
 62
7
  6
CONTINUOUS
 10
776.5147904619
 20
345.3005719505
 11
767.3682487771
 21
337.7332395481
  0
LINE
  5
712
100
AcDbEntity
  8
0
100
AcDbLine
 62
7
  6
CONTINUOUS
 10
782.3682487771
 20
349.7705683354
 11
776.9721175461
 21
345.306113887
  0
LINE
  5
713
100
AcDbEntity
  8
0
100
AcDbLine
 62
7
  6
CONTINUOUS
 10
776.5147904619
 20
344.9277472669
 11
767.3682487771
 21
337.3604148645
  0
LINE
  5
714
100
AcDbEntity
  8
0
100
AcDbLine
 62
7
  6
CONTINUOUS
 10
768.4219255715
 20
337.4465363326
 11
782.3682487771
 21
348.9849370884
  0
LINE
  5
715
100
AcDbEntity
  8
0
100
AcDbLine
 62
7
  6
CONTINUOUS
 10
775.4897300811
 20
348.5206441322
 11
775.3430652804
 21
348.4075421983
  0
LINE
  5
716
100
AcDbEntity
  8
0
100
AcDbLine
 62
7
  6
CONTINUOUS
 10
775.4706333831
 20
348.1716966413
 11
775.7333566412
 21
348.3520171216
  0
LINE
  5
717
100
AcDbEntity
  8
0
100
AcDbLine
 62
7
  6
CONTINUOUS
 10
795.3682487771
 20
358.1867689366
 11
795.9099157021
 21
358.5266298506
  0
LINE
  5
718
100
AcDbEntity
  8
0
100
AcDbLine
 62
7
  6
CONTINUOUS
 10
775.9224154115
 20
359.7318292505
 11
776.3286655083
 21
359.9584031932
  0
LINE
  5
719
100
AcDbEntity
  8
0
100
AcDbLine
 62
7
  6
CONTINUOUS
 10
778.4953322396
 20
356.4465066055
 11
778.0890822396
 21
356.2199325835
  0
LINE
  5
71A
100
AcDbEntity
  8
0
100
AcDbLine
 62
7
  6
CONTINUOUS
 10
778.4953322396
 20
356.0736819219
 11
778.0890822396
 21
355.8471078998
  0
LINE
  5
71B
100
AcDbEntity
  8
0
100
AcDbLine
 62
7
  6
CONTINUOUS
 10
792.6599153146
 20
359.8860738241
 11
793.0661653146
 21
360.1126477668
  0
LINE
  5
71C
100
AcDbEntity
  8
0
100
AcDbLine
 62
7
  6
CONTINUOUS
 10
772.8385714316
 20
351.4006926813
 11
770.8931693769
 21
350.4192360656
  0
LINE
  5
71D
100
AcDbEntity
  8
0
100
AcDbLine
 62
7
  6
CONTINUOUS
 10
772.8385714316
 20
351.0278679977
 11
772.6864098661
 21
350.9511023878
  0
LINE
  5
71E
100
AcDbEntity
  8
0
100
AcDbLine
 62
7
  6
CONTINUOUS
 10
771.3107942387
 20
350.2571033994
 11
770.9512805581
 21
350.0757285111
  0
LINE
  5
71F
100
AcDbEntity
  8
0
100
AcDbLine
 62
7
  6
CONTINUOUS
 10
771.3107942387
 20
350.3124451776
 11
772.6864098661
 21
351.0014047774
  0
LINE
  5
720
100
AcDbEntity
  8
0
100
AcDbLine
 62
7
  6
CONTINUOUS
 10
776.1932487771
 20
360.6381250213
 11
775.6515821427
 21
360.4115510786
  0
LINE
  5
721
100
AcDbEntity
  8
0
100
AcDbLine
 62
7
  6
CONTINUOUS
 10
776.1932487771
 20
360.2653003376
 11
775.6515821427
 21
360.0387263949
  0
LINE
  5
722
100
AcDbEntity
  8
RUNDUNGEN
100
AcDbLine
 62
7
  6
CONTINUOUS
 10
837.2247433105
 20
371.7297605417
 11
833.7546058706
 21
367.6701496081
  0
LINE
  5
723
100
AcDbEntity
  8
RUNDUNGEN
100
AcDbLine
 62
7
  6
CONTINUOUS
 10
824.4053099581
 20
356.73268544
 11
806.2707693205
 21
335.5176238691
  0
LINE
  5
724
100
AcDbEntity
  8
RUNDUNGEN
100
AcDbLine
 62
7
  6
CONTINUOUS
 10
775.8150324228
 20
299.8883600028
 11
768.5481528532
 21
291.3870529899
  0
LINE
  5
725
100
AcDbEntity
  8
RUNDUNGEN
100
AcDbLine
 62
7
  6
CONTINUOUS
 10
837.2247433105
 20
368.8618783599
 11
833.7546058706
 21
364.8022674263
  0
LINE
  5
726
100
AcDbEntity
  8
RUNDUNGEN
100
AcDbLine
 62
7
  6
CONTINUOUS
 10
824.4053099581
 20
353.8648032582
 11
806.2707693205
 21
332.6497416873
  0
LINE
  5
727
100
AcDbEntity
  8
RUNDUNGEN
100
AcDbLine
 62
7
  6
CONTINUOUS
 10
775.8150324228
 20
297.020477821
 11
768.5481528532
 21
288.5191708081
  0
LINE
  5
728
100
AcDbEntity
  8
0
100
AcDbLine
 62
7
  6
CONTINUOUS
 10
773.5415880594
 20
324.8037285303
 11
773.6835799109
 21
324.920763537
  0
LINE
  5
729
100
AcDbEntity
  8
0
100
AcDbLine
 62
7
  6
CONTINUOUS
 10
773.0819670265
 20
324.056657229
 11
773.2239588377
 21
324.1736921703
  0
LINE
  5
72A
100
AcDbEntity
  8
0
100
AcDbLine
 62
7
  6
CONTINUOUS
 10
774.3911092418
 20
323.340556737
 11
774.2491175107
 21
323.2235218446
  0
LINE
  5
72B
100
AcDbEntity
  8
0
100
AcDbLine
 62
7
  6
CONTINUOUS
 10
776.0175834404
 20
323.2870565319
 11
776.3061560262
 21
323.4995704503
  0
LINE
  5
72C
100
AcDbEntity
  8
0
100
AcDbLine
 62
7
  6
CONTINUOUS
 10
777.0046243054
 20
322.1680778266
 11
776.7160513849
 21
321.9555640346
  0
LINE
  5
72D
100
AcDbEntity
  8
0
100
AcDbLine
 62
7
  6
CONTINUOUS
 10
773.5465074676
 20
325.1530033334
 11
773.2912501322
 21
324.9656254133
  0
LINE
  5
72E
100
AcDbEntity
  8
0
100
AcDbLine
 62
7
  6
CONTINUOUS
 10
773.4724336782
 20
324.7258029643
 11
773.2912501322
 21
324.5928007297
  0
LINE
  5
72F
100
AcDbEntity
  8
0
100
AcDbLine
 62
7
  6
CONTINUOUS
 10
774.386189894
 20
322.9912820319
 11
774.6414472239
 21
323.1786598313
  0
LINE
  5
730
100
AcDbEntity
  8
0
100
AcDbLine
 62
7
  6
CONTINUOUS
 10
776.0625286605
 20
323.6598856046
 11
775.813930482
 21
323.4881345845
  0
LINE
  5
731
100
AcDbEntity
  8
0
100
AcDbLine
 62
7
  6
CONTINUOUS
 10
775.9231691952
 20
323.190780528
 11
775.813930482
 21
323.1153099009
  0
LINE
  5
732
100
AcDbEntity
  8
0
100
AcDbLine
 62
7
  6
CONTINUOUS
 10
776.9596790293
 20
321.7952486967
 11
777.2082771244
 21
321.9669998657
  0
LINE
  5
733
100
AcDbEntity
  8
0
100
AcDbLine
 62
7
  6
CONTINUOUS
 10
795.6390818522
 20
355.8077422606
 11
796.0453318522
 21
356.034316243
  0
LINE
  5
734
100
AcDbEntity
  8
0
100
AcDbLine
 62
7
  6
CONTINUOUS
 10
775.3430652804
 20
348.4075421983
 11
775.1415541243
 21
348.3189888381
  0
LINE
  5
735
100
AcDbEntity
  8
0
100
AcDbLine
 62
7
  6
CONTINUOUS
 10
778.2244987771
 20
355.540210686
 11
778.7661653146
 21
355.7667846584
  0
LINE
  5
736
100
AcDbEntity
  8
0
100
AcDbLine
 62
7
  6
CONTINUOUS
 10
792.9307487771
 20
360.6790826235
 11
792.3890822396
 21
360.4525086808
  0
LINE
  5
737
100
AcDbEntity
  8
0
100
AcDbLine
 62
7
  6
CONTINUOUS
 10
792.9307487771
 20
360.3062579398
 11
792.3890822396
 21
360.0796839972
  0
LINE
  5
738
100
AcDbEntity
  8
0
100
AcDbLine
 62
7
  6
CONTINUOUS
 10
800.6494987771
 20
358.5266298506
 11
800.9203318522
 21
358.6399168219
  0
LINE
  5
739
100
AcDbEntity
  8
0
100
AcDbLine
 62
7
  6
CONTINUOUS
 10
795.3682487771
 20
356.2608901857
 11
795.0974153146
 21
356.1476032143
  0
LINE
  5
73A
100
AcDbEntity
  8
0
100
AcDbLine
 62
7
  6
CONTINUOUS
 10
795.3682487771
 20
355.8880655021
 11
795.0974153146
 21
355.7747785307
  0
LINE
  5
73B
100
AcDbEntity
  8
0
100
AcDbLine
 62
7
  6
CONTINUOUS
 10
795.0974153146
 20
355.5811682882
 11
795.6390818522
 21
355.8077422606
  0
LINE
  5
73C
100
AcDbEntity
  8
0
100
AcDbLine
 62
7
  6
CONTINUOUS
 10
806.7432487771
 20
358.5266298506
 11
807.014082627
 21
358.6399168219
  0
LINE
  5
73D
100
AcDbEntity
  8
0
100
AcDbLine
 62
7
  6
CONTINUOUS
 10
775.183669539
 20
348.0618084833
 11
775.4706333831
 21
348.1716966413
  0
LINE
  5
73E
100
AcDbEntity
  8
0
100
AcDbLine
 62
7
  6
CONTINUOUS
 10
780.7031986098
 20
321.8803357762
 11
780.4969609276
 21
321.7645884674
  0
LINE
  5
73F
100
AcDbEntity
  8
0
100
AcDbLine
 62
7
  6
CONTINUOUS
 10
780.7031986098
 20
321.5075110925
 11
780.4969609276
 21
321.3917637838
  0
LINE
  5
740
100
AcDbEntity
  8
0
100
AcDbLine
 62
7
  6
CONTINUOUS
 10
780.8148888658
 20
321.3844736061
 11
781.0211265479
 21
321.5002209148
  0
LINE
  5
741
100
AcDbEntity
  8
0
100
AcDbLine
 62
7
  6
CONTINUOUS
 10
776.2311778577
 20
323.7501111259
 11
776.0625286605
 21
323.6598856046
  0
LINE
  5
742
100
AcDbEntity
  8
0
100
AcDbLine
 62
7
  6
CONTINUOUS
 10
776.7910298047
 20
321.7050233814
 11
776.9596790293
 21
321.7952486967
  0
LINE
  5
743
100
AcDbEntity
  8
0
100
AcDbLine
 62
7
  6
CONTINUOUS
 10
773.6835799109
 20
324.920763537
 11
773.8813845567
 21
325.0147574157
  0
LINE
  5
744
100
AcDbEntity
  8
0
100
AcDbLine
 62
7
  6
CONTINUOUS
 10
774.2491175107
 20
323.2235218446
 11
774.0513128049
 21
323.1295279497
  0
LINE
  5
745
100
AcDbEntity
  8
0
100
AcDbLine
 62
7
  6
CONTINUOUS
 10
782.3682487771
 20
320.2025086297
 11
778.1745966932
 21
318.301921798
  0
LINE
  5
746
100
AcDbEntity
  8
0
100
AcDbLine
 62
7
  6
CONTINUOUS
 10
777.6058415397
 20
318.0441587472
 11
767.3682487771
 21
313.4044238327
  0
LINE
  5
747
100
AcDbEntity
  8
0
100
AcDbLine
 62
7
  6
CONTINUOUS
 10
782.3682487771
 20
319.8296839461
 11
778.1745966932
 21
317.9290971144
  0
LINE
  5
748
100
AcDbEntity
  8
0
100
AcDbLine
 62
7
  6
CONTINUOUS
 10
777.6058415397
 20
317.6713340636
 11
767.3682487771
 21
313.0315991491
  0
LINE
  5
749
100
AcDbEntity
  8
0
100
AcDbLine
 62
7
  6
CONTINUOUS
 10
768.2804758751
 20
312.8719750039
 11
782.3682487771
 21
319.2566333232
  0
LINE
  5
74A
100
AcDbEntity
  8
0
100
AcDbLine
 62
7
  6
CONTINUOUS
 10
773.8288512603
 20
325.2706481835
 11
773.5465074676
 21
325.1530033334
  0
LINE
  5
74B
100
AcDbEntity
  8
0
100
AcDbLine
 62
7
  6
CONTINUOUS
 10
774.1038460912
 20
322.8736371655
 11
774.386189894
 21
322.9912820319
  0
LINE
  5
74C
100
AcDbEntity
  8
0
100
AcDbLine
 62
7
  6
CONTINUOUS
 10
776.4885270742
 20
323.8490362352
 11
776.2311778577
 21
323.7501111259
  0
LINE
  5
74D
100
AcDbEntity
  8
0
100
AcDbLine
 62
7
  6
CONTINUOUS
 10
776.5336806996
 20
321.6060981518
 11
776.7910298047
 21
321.7050233814
  0
LINE
  5
74E
100
AcDbEntity
  8
BEZUGSACHSEN
100
AcDbLine
 62
7
  6
CONTINUOUS
 10
816.1565505927
 20
187.5420691998
 11
836.8949417082
 21
220.9245876056
  0
ARC
  5
74F
100
AcDbEntity
  8
BEZUGSACHSEN
100
AcDbCircle
 62
7
  6
CONTINUOUS
 10
234.4732183271
 20
195.0437113869
 40
9.785028
100
AcDbArc
 50
359.9999845129
 51
8.0000189395
  0
ARC
  5
750
100
AcDbEntity
  8
BEZUGSACHSEN
100
AcDbCircle
 62
7
  6
CONTINUOUS
 10
237.6290800759
 20
214.7735849178
 40
3.9140112
100
AcDbArc
 50
7.9999773075
 51
45.0001723907
  0
ARC
  5
751
100
AcDbEntity
  8
BEZUGSACHSEN
100
AcDbCircle
 62
7
  6
CONTINUOUS
 10
247.1937547271
 20
172.2337695055
 40
2.9355084
100
AcDbArc
 50
180.0
 51
264.0
  0
ARC
  5
752
100
AcDbEntity
  8
BEZUGSACHSEN
100
AcDbCircle
 62
7
  6
CONTINUOUS
 10
236.0623802339
 20
254.3572471997
 40
8.3178436932
100
AcDbArc
 50
356.4990275492
 51
8.8690729808
  0
ARC
  5
753
100
AcDbEntity
  8
BEZUGSACHSEN
100
AcDbCircle
 62
7
  6
CONTINUOUS
 10
237.6290800759
 20
261.5937094816
 40
3.9140112
100
AcDbArc
 50
314.9999962195
 51
352.000040086
  0
ARC
  5
754
100
AcDbEntity
  8
BEZUGSACHSEN
100
AcDbCircle
 62
7
  6
CONTINUOUS
 10
242.2722575271
 20
221.2009029112
 40
3.9140112
100
AcDbArc
 50
180.0016645828
 51
224.9999975948
  0
ARC
  5
755
100
AcDbEntity
  8
BEZUGSACHSEN
100
AcDbCircle
 62
7
  6
CONTINUOUS
 10
241.1647722387
 20
220.2376901997
 40
2.446257
100
AcDbArc
 50
220.711647831
 51
221.0144488482
  0
ARC
  5
756
100
AcDbEntity
  8
BEZUGSACHSEN
100
AcDbCircle
 62
7
  6
CONTINUOUS
 10
242.2722575271
 20
255.1663914882
 40
3.9140112
100
AcDbArc
 50
135.0000026882
 51
180.000000329
  0
ARC
  5
757
100
AcDbEntity
  8
BEZUGSACHSEN
100
AcDbCircle
 62
7
  6
CONTINUOUS
 10
241.1647722387
 20
256.1296041997
 40
2.446257
100
AcDbArc
 50
138.9855511518
 51
152.7817076912
  0
ARC
  5
758
100
AcDbEntity
  8
RUNDUNGEN
100
AcDbCircle
 62
7
  6
CONTINUOUS
 10
240.3152519271
 20
248.223918971
 40
1.9570056
100
AcDbArc
 50
139.8283635656
 51
180.0
  0
ARC
  5
759
100
AcDbEntity
  8
RUNDUNGEN
100
AcDbCircle
 62
7
  6
CONTINUOUS
 10
269.9432743271
 20
195.0437113869
 40
9.785028
100
AcDbArc
 50
171.9999810605
 51
180.0000154871
  0
ARC
  5
75A
100
AcDbEntity
  8
RUNDUNGEN
100
AcDbCircle
 62
7
  6
CONTINUOUS
 10
266.7874125784
 20
214.7735849178
 40
3.9140112
100
AcDbArc
 50
134.9998276093
 51
172.0000226925
  0
ARC
  5
75B
100
AcDbEntity
  8
RUNDUNGEN
100
AcDbCircle
 62
7
  6
CONTINUOUS
 10
257.2227379271
 20
172.2337695055
 40
2.9355084
100
AcDbArc
 50
276.0
 51
360.0
  0
ARC
  5
75C
100
AcDbEntity
  8
RUNDUNGEN
100
AcDbCircle
 62
7
  6
CONTINUOUS
 10
252.2082463271
 20
238.1836471997
 40
17.5214
100
AcDbArc
 50
40.1716364344
 51
139.8283635656
  0
CIRCLE
  5
75D
100
AcDbEntity
  8
0
100
AcDbCircle
 62
7
  6
CONTINUOUS
 10
252.2082463271
 20
238.1836471997
 40
5.8710168
  0
ARC
  5
75E
100
AcDbEntity
  8
RUNDUNGEN
100
AcDbCircle
 62
7
  6
CONTINUOUS
 10
262.1442351271
 20
221.2009029112
 40
3.9140112
100
AcDbArc
 50
315.0000024052
 51
359.9983354172
  0
ARC
  5
75F
100
AcDbEntity
  8
RUNDUNGEN
100
AcDbCircle
 62
7
  6
CONTINUOUS
 10
263.251720566
 20
220.2376902493
 40
2.4462569725
100
AcDbArc
 50
318.9855479634
 51
319.311336579
  0
ARC
  5
760
100
AcDbEntity
  8
BEZUGSACHSEN
100
AcDbCircle
 62
7
  6
CONTINUOUS
 10
268.3541124203
 20
254.3572471997
 40
8.3178436932
100
AcDbArc
 50
171.1318362513
 51
183.5122388913
  0
ARC
  5
761
100
AcDbEntity
  8
RUNDUNGEN
100
AcDbCircle
 62
7
  6
CONTINUOUS
 10
266.7874125784
 20
261.5937094816
 40
3.9140112
100
AcDbArc
 50
187.999959914
 51
225.0000037805
  0
ARC
  5
762
100
AcDbEntity
  8
RUNDUNGEN
100
AcDbCircle
 62
7
  6
CONTINUOUS
 10
262.1442351271
 20
255.1663914882
 40
3.9140112
100
AcDbArc
 50
359.999999671
 51
44.9999973118
  0
ARC
  5
763
100
AcDbEntity
  8
BEZUGSACHSEN
100
AcDbCircle
 62
7
  6
CONTINUOUS
 10
266.7874125784
 20
261.5937094816
 40
3.9140112
100
AcDbArc
 50
187.999959914
 51
225.0000037805
  0
ARC
  5
764
100
AcDbEntity
  8
BEZUGSACHSEN
100
AcDbCircle
 62
7
  6
CONTINUOUS
 10
262.1442351271
 20
255.1663914882
 40
3.9140112
100
AcDbArc
 50
359.999999671
 51
44.9999973118
  0
ARC
  5
765
100
AcDbEntity
  8
RUNDUNGEN
100
AcDbCircle
 62
7
  6
CONTINUOUS
 10
263.2517204156
 20
256.1296041997
 40
2.446257
100
AcDbArc
 50
27.2182923088
 51
41.0144488482
  0
ARC
  5
766
100
AcDbEntity
  8
BEZUGSACHSEN
100
AcDbCircle
 62
7
  6
CONTINUOUS
 10
263.2517204156
 20
256.1296041997
 40
2.446257
100
AcDbArc
 50
27.2182923088
 51
41.0144488482
  0
ARC
  5
767
100
AcDbEntity
  8
RUNDUNGEN
100
AcDbCircle
 62
7
  6
CONTINUOUS
 10
264.1012407271
 20
248.223918971
 40
1.9570056
100
AcDbArc
 50
359.9999182161
 51
40.1716364344
  0
ARC
  5
768
100
AcDbEntity
  8
BEZUGSACHSEN
100
AcDbCircle
 62
7
  6
CONTINUOUS
 10
247.1937547271
 20
304.1335248939
 40
2.9355084
100
AcDbArc
 50
96.0
 51
180.0
  0
ARC
  5
769
100
AcDbEntity
  8
BEZUGSACHSEN
100
AcDbCircle
 62
7
  6
CONTINUOUS
 10
252.2082463271
 20
299.1836471997
 40
35.0
100
AcDbArc
 50
115.0
 51
256.870785333
  0
ARC
  5
76A
100
AcDbEntity
  8
RUNDUNGEN
100
AcDbCircle
 62
7
  6
CONTINUOUS
 10
252.2082463271
 20
299.1836471997
 40
14.0
100
AcDbArc
 50
304.6260704103
 51
235.373929592
  0
ARC
  5
76B
100
AcDbEntity
  8
RUNDUNGEN
100
AcDbCircle
 62
7
  6
CONTINUOUS
 10
257.2227379271
 20
304.1335248939
 40
2.9355084
100
AcDbArc
 50
0.0
 51
84.0
  0
ARC
  5
76C
100
AcDbEntity
  8
BEZUGSACHSEN
100
AcDbCircle
 62
7
  6
CONTINUOUS
 10
257.2227379271
 20
304.1335248939
 40
2.9355084
100
AcDbArc
 50
0.0
 51
84.0
  0
ARC
  5
76D
100
AcDbEntity
  8
KONSTRUKTIONSELEMENTE
100
AcDbCircle
 62
7
  6
CONTINUOUS
 10
251.1549394353
 20
384.3016082525
 40
9.55
100
AcDbArc
 50
68.6297070454
 51
145.0
  0
ARC
  5
76E
100
AcDbEntity
  8
KONSTRUKTIONSELEMENTE
100
AcDbCircle
 62
7
  6
CONTINUOUS
 10
251.1549394353
 20
384.3016082525
 40
9.55
100
AcDbArc
 50
325.0
 51
41.3702929546
  0
ARC
  5
76F
100
AcDbEntity
  8
KONSTRUKTIONSELEMENTE
100
AcDbCircle
 62
7
  6
CONTINUOUS
 10
244.3293798427
 20
374.5536989255
 40
9.55
100
AcDbArc
 50
250.1951355235
 51
325.0
  0
ARC
  5
770
100
AcDbEntity
  8
KONSTRUKTIONSELEMENTE
100
AcDbCircle
 62
7
  6
CONTINUOUS
 10
244.3293798427
 20
374.5536989255
 40
9.55
100
AcDbArc
 50
145.0
 51
219.8048644765
  0
ARC
  5
771
100
AcDbEntity
  8
KONSTRUKTIONSELEMENTE
100
AcDbCircle
 62
7
  6
CONTINUOUS
 10
251.1549394353
 20
384.3016082525
 40
4.55
100
AcDbArc
 50
84.6522021471
 51
145.0
  0
ARC
  5
772
100
AcDbEntity
  8
KONSTRUKTIONSELEMENTE
100
AcDbCircle
 62
7
  6
CONTINUOUS
 10
251.1549394353
 20
384.3016082525
 40
4.55
100
AcDbArc
 50
325.0
 51
25.3477978529
  0
ARC
  5
773
100
AcDbEntity
  8
KONSTRUKTIONSELEMENTE
100
AcDbCircle
 62
7
  6
CONTINUOUS
 10
244.3293798427
 20
374.5536989255
 40
4.55
100
AcDbArc
 50
268.3583327703
 51
325.0
  0
ARC
  5
774
100
AcDbEntity
  8
KONSTRUKTIONSELEMENTE
100
AcDbCircle
 62
7
  6
CONTINUOUS
 10
244.3293798427
 20
374.5536989255
 40
4.55
100
AcDbArc
 50
145.0
 51
201.6416672297
  0
ARC
  5
775
100
AcDbEntity
  8
KONSTRUKTIONSELEMENTE
100
AcDbCircle
 62
7
  6
CONTINUOUS
 10
252.1873770207
 20
385.7760819323
 40
2.25
100
AcDbArc
 50
145.0
 51
325.0
  0
ARC
  5
776
100
AcDbEntity
  8
KONSTRUKTIONSELEMENTE
100
AcDbCircle
 62
7
  6
CONTINUOUS
 10
268.1041231294
 20
408.5075511613
 40
8.0
100
AcDbArc
 50
251.3642958278
 51
325.0
  0
ARC
  5
777
100
AcDbEntity
  8
KONSTRUKTIONSELEMENTE
100
AcDbCircle
 62
7
  6
CONTINUOUS
 10
268.1041231294
 20
408.5075511613
 40
8.0
100
AcDbArc
 50
145.0
 51
218.6357041722
  0
ARC
  5
778
100
AcDbEntity
  8
KONSTRUKTIONSELEMENTE
100
AcDbCircle
 62
7
  6
CONTINUOUS
 10
276.7077696747
 20
420.7948318256
 40
8.0
100
AcDbArc
 50
71.3642958278
 51
145.0
  0
ARC
  5
779
100
AcDbEntity
  8
KONSTRUKTIONSELEMENTE
100
AcDbCircle
 62
7
  6
CONTINUOUS
 10
276.7077696747
 20
420.7948318256
 40
8.0
100
AcDbArc
 50
325.0
 51
38.6357041722
  0
ARC
  5
77A
100
AcDbEntity
  8
KONSTRUKTIONSELEMENTE
100
AcDbCircle
 62
7
  6
CONTINUOUS
 10
268.1041231294
 20
408.5075511613
 40
3.5
100
AcDbArc
 50
275.1538775079
 51
325.0
  0
ARC
  5
77B
100
AcDbEntity
  8
KONSTRUKTIONSELEMENTE
100
AcDbCircle
 62
7
  6
CONTINUOUS
 10
268.1041231294
 20
408.5075511613
 40
3.5
100
AcDbArc
 50
145.0
 51
194.8461224921
  0
ARC
  5
77C
100
AcDbEntity
  8
KONSTRUKTIONSELEMENTE
100
AcDbCircle
 62
7
  6
CONTINUOUS
 10
276.7077696747
 20
420.7948318256
 40
3.5
100
AcDbArc
 50
95.1538775079
 51
145.0
  0
ARC
  5
77D
100
AcDbEntity
  8
KONSTRUKTIONSELEMENTE
100
AcDbCircle
 62
7
  6
CONTINUOUS
 10
276.7077696747
 20
420.7948318256
 40
3.5
100
AcDbArc
 50
325.0
 51
14.8461224921
  0
ARC
  5
77E
100
AcDbEntity
  8
KONSTRUKTIONSELEMENTE
100
AcDbCircle
 62
7
  6
CONTINUOUS
 10
267.387152584
 20
407.4836111059
 40
2.25
100
AcDbArc
 50
325.0
 51
145.0
  0
ARC
  5
77F
100
AcDbEntity
  8
KONSTRUKTIONSELEMENTE
100
AcDbCircle
 62
7
  6
CONTINUOUS
 10
277.4247402201
 20
421.818771881
 40
2.25
100
AcDbArc
 50
145.0
 51
325.0
  0
ARC
  5
780
100
AcDbEntity
  8
KONSTRUKTIONSELEMENTE
100
AcDbCircle
 62
7
  6
CONTINUOUS
 10
337.2082550202
 20
401.898652246
 40
19.9999950344
100
AcDbArc
 50
308.682256462
 51
359.9999999868
  0
ARC
  5
781
100
AcDbEntity
  8
RUNDUNGEN
100
AcDbCircle
 62
7
  6
CONTINUOUS
 10
286.2951068631
 20
327.2157684187
 40
7.0
100
AcDbArc
 50
115.0
 51
205.0
  0
ARC
  5
782
100
AcDbEntity
  8
RUNDUNGEN
100
AcDbCircle
 62
7
  6
CONTINUOUS
 10
316.1625510224
 20
341.1431863597
 40
7.0
100
AcDbArc
 50
333.5
 51
115.0
  0
ARC
  5
783
100
AcDbEntity
  8
RUNDUNGEN
100
AcDbCircle
 62
7
  6
CONTINUOUS
 10
297.3734753198
 20
303.4581305954
 40
7.0
100
AcDbArc
 50
205.0
 51
333.5
  0
ARC
  5
784
100
AcDbEntity
  8
KONSTRUKTIONSELEMENTE
100
AcDbCircle
 62
7
  6
CONTINUOUS
 10
300.7693011796
 20
455.1582600835
 40
9.55
100
AcDbArc
 50
79.7697649129
 51
145.0
  0
ARC
  5
785
100
AcDbEntity
  8
KONSTRUKTIONSELEMENTE
100
AcDbCircle
 62
7
  6
CONTINUOUS
 10
300.7693011796
 20
455.1582600835
 40
9.55
100
AcDbArc
 50
325.0
 51
30.2302350871
  0
ARC
  5
786
100
AcDbEntity
  8
KONSTRUKTIONSELEMENTE
100
AcDbCircle
 62
7
  6
CONTINUOUS
 10
293.943741587
 20
445.4103507565
 40
9.55
100
AcDbArc
 50
248.6297070454
 51
325.0
  0
ARC
  5
787
100
AcDbEntity
  8
KONSTRUKTIONSELEMENTE
100
AcDbCircle
 62
7
  6
CONTINUOUS
 10
293.943741587
 20
445.4103507565
 40
9.55
100
AcDbArc
 50
145.0
 51
221.3702929546
  0
ARC
  5
788
100
AcDbEntity
  8
KONSTRUKTIONSELEMENTE
100
AcDbCircle
 62
7
  6
CONTINUOUS
 10
300.7693011796
 20
455.1582600835
 40
4.55
100
AcDbArc
 50
116.7776530551
 51
145.0
  0
ARC
  5
789
100
AcDbEntity
  8
KONSTRUKTIONSELEMENTE
100
AcDbCircle
 62
7
  6
CONTINUOUS
 10
300.7693011796
 20
455.1582600835
 40
4.55
100
AcDbArc
 50
325.0
 51
353.2223469449
  0
ARC
  5
78A
100
AcDbEntity
  8
KONSTRUKTIONSELEMENTE
100
AcDbCircle
 62
7
  6
CONTINUOUS
 10
293.943741587
 20
445.4103507565
 40
4.55
100
AcDbArc
 50
264.6522021471
 51
325.0
  0
ARC
  5
78B
100
AcDbEntity
  8
KONSTRUKTIONSELEMENTE
100
AcDbCircle
 62
7
  6
CONTINUOUS
 10
293.943741587
 20
445.4103507565
 40
4.55
100
AcDbArc
 50
145.0
 51
205.3477978529
  0
ARC
  5
78C
100
AcDbEntity
  8
KONSTRUKTIONSELEMENTE
100
AcDbCircle
 62
7
  6
CONTINUOUS
 10
334.352201528
 20
503.1196122767
 40
4.0
100
AcDbArc
 50
325.0
 51
145.0
  0
ARC
  5
78D
100
AcDbEntity
  8
KONSTRUKTIONSELEMENTE
100
AcDbCircle
 62
7
  6
CONTINUOUS
 10
301.0847682196
 20
455.6087937079
 40
4.0
100
AcDbArc
 50
145.0
 51
325.0
  0
ARC
  5
78E
100
AcDbEntity
  8
KONSTRUKTIONSELEMENTE
100
AcDbCircle
 62
7
  6
CONTINUOUS
 10
292.6245157834
 20
443.5263010546
 40
2.25
100
AcDbArc
 50
325.0
 51
145.0
  0
ARC
  5
78F
100
AcDbEntity
  8
BEZUGSACHSEN
100
AcDbCircle
 62
7
  6
CONTINUOUS
 10
372.2082463271
 20
357.1836471997
 40
59.0
100
AcDbArc
 50
280.0
 51
315.2859711165
  0
ARC
  5
790
100
AcDbEntity
  8
0
100
AcDbCircle
 62
7
  6
CONTINUOUS
 10
372.2082463271
 20
357.1836471997
 40
59.0
100
AcDbArc
 50
224.7140288835
 51
260.0
  0
ARC
  5
791
100
AcDbEntity
  8
BEZUGSACHSEN
100
AcDbCircle
 62
7
  6
CONTINUOUS
 10
372.2082463271
 20
357.1836471997
 40
50.0
100
AcDbArc
 50
16.5265318901
 51
72.5412445302
  0
ARC
  5
792
100
AcDbEntity
  8
BEZUGSACHSEN
100
AcDbCircle
 62
7
  6
CONTINUOUS
 10
372.2082463271
 20
357.1836471997
 40
50.0
100
AcDbArc
 50
107.4587554698
 51
163.4734681099
  0
ARC
  5
793
100
AcDbEntity
  8
BEZUGSACHSEN
100
AcDbCircle
 62
7
  6
CONTINUOUS
 10
372.2082463271
 20
357.1836471997
 40
49.5
100
AcDbArc
 50
260.0
 51
280.0
  0
ARC
  5
794
100
AcDbEntity
  8
KONSTRUKTIONSELEMENTE
100
AcDbCircle
 62
7
  6
CONTINUOUS
 10
372.2082463271
 20
358.1836471997
 40
36.0
100
AcDbArc
 50
124.3813799852
 51
55.6189282114
  0
CIRCLE
  5
795
100
AcDbEntity
  8
KONSTRUKTIONSELEMENTE
100
AcDbCircle
 62
7
  6
CONTINUOUS
 10
372.2082463271
 20
358.1836471997
 40
23.0
  0
ARC
  5
796
100
AcDbEntity
  8
BEZUGSACHSEN
100
AcDbCircle
 62
7
  6
CONTINUOUS
 10
428.2539416319
 20
341.1431863597
 40
7.0
100
AcDbArc
 50
65.0
 51
206.5
  0
ARC
  5
797
100
AcDbEntity
  8
BEZUGSACHSEN
100
AcDbCircle
 62
7
  6
CONTINUOUS
 10
474.4732183271
 20
195.0437113869
 40
9.785028
100
AcDbArc
 50
359.9999845129
 51
8.0000189395
  0
ARC
  5
798
100
AcDbEntity
  8
BEZUGSACHSEN
100
AcDbCircle
 62
7
  6
CONTINUOUS
 10
477.6290800759
 20
214.7735849178
 40
3.9140112
100
AcDbArc
 50
7.9999773075
 51
45.0001723907
  0
ARC
  5
799
100
AcDbEntity
  8
BEZUGSACHSEN
100
AcDbCircle
 62
7
  6
CONTINUOUS
 10
487.1937547271
 20
172.2337695055
 40
2.9355084
100
AcDbArc
 50
180.0
 51
264.0
  0
ARC
  5
79A
100
AcDbEntity
  8
BEZUGSACHSEN
100
AcDbCircle
 62
7
  6
CONTINUOUS
 10
476.0623802339
 20
254.3572471997
 40
8.3178436932
100
AcDbArc
 50
356.4990275492
 51
8.8690729808
  0
ARC
  5
79B
100
AcDbEntity
  8
BEZUGSACHSEN
100
AcDbCircle
 62
7
  6
CONTINUOUS
 10
477.6290800759
 20
261.5937094816
 40
3.9140112
100
AcDbArc
 50
314.9999962195
 51
352.000040086
  0
ARC
  5
79C
100
AcDbEntity
  8
BEZUGSACHSEN
100
AcDbCircle
 62
7
  6
CONTINUOUS
 10
482.2722575271
 20
221.2009029112
 40
3.9140112
100
AcDbArc
 50
180.0016645828
 51
224.9999975948
  0
ARC
  5
79D
100
AcDbEntity
  8
BEZUGSACHSEN
100
AcDbCircle
 62
7
  6
CONTINUOUS
 10
481.1647722387
 20
220.2376901997
 40
2.446257
100
AcDbArc
 50
220.711647831
 51
221.0144488482
  0
ARC
  5
79E
100
AcDbEntity
  8
BEZUGSACHSEN
100
AcDbCircle
 62
7
  6
CONTINUOUS
 10
482.2722575271
 20
255.1663914882
 40
3.9140112
100
AcDbArc
 50
135.0000026882
 51
180.000000329
  0
ARC
  5
79F
100
AcDbEntity
  8
BEZUGSACHSEN
100
AcDbCircle
 62
7
  6
CONTINUOUS
 10
481.1647722387
 20
256.1296041997
 40
2.446257
100
AcDbArc
 50
138.9855511518
 51
152.7817076912
  0
ARC
  5
7A0
100
AcDbEntity
  8
RUNDUNGEN
100
AcDbCircle
 62
7
  6
CONTINUOUS
 10
480.3152519271
 20
248.223918971
 40
1.9570056
100
AcDbArc
 50
139.8283635656
 51
180.0
  0
ARC
  5
7A1
100
AcDbEntity
  8
RUNDUNGEN
100
AcDbCircle
 62
7
  6
CONTINUOUS
 10
509.9432743271
 20
195.0437113869
 40
9.785028
100
AcDbArc
 50
171.9999810605
 51
180.0000154871
  0
ARC
  5
7A2
100
AcDbEntity
  8
RUNDUNGEN
100
AcDbCircle
 62
7
  6
CONTINUOUS
 10
506.7874125784
 20
214.7735849178
 40
3.9140112
100
AcDbArc
 50
134.9998276093
 51
172.0000226925
  0
ARC
  5
7A3
100
AcDbEntity
  8
RUNDUNGEN
100
AcDbCircle
 62
7
  6
CONTINUOUS
 10
497.2227379271
 20
172.2337695055
 40
2.9355084
100
AcDbArc
 50
276.0
 51
360.0
  0
ARC
  5
7A4
100
AcDbEntity
  8
RUNDUNGEN
100
AcDbCircle
 62
7
  6
CONTINUOUS
 10
492.2082463271
 20
238.1836471997
 40
17.5214
100
AcDbArc
 50
40.1716364344
 51
139.8283635656
  0
CIRCLE
  5
7A5
100
AcDbEntity
  8
0
100
AcDbCircle
 62
7
  6
CONTINUOUS
 10
492.2082463271
 20
238.1836471997
 40
5.8710168
  0
ARC
  5
7A6
100
AcDbEntity
  8
RUNDUNGEN
100
AcDbCircle
 62
7
  6
CONTINUOUS
 10
502.1442351271
 20
221.2009029112
 40
3.9140112
100
AcDbArc
 50
315.0000024052
 51
359.9983354172
  0
ARC
  5
7A7
100
AcDbEntity
  8
RUNDUNGEN
100
AcDbCircle
 62
7
  6
CONTINUOUS
 10
503.251720566
 20
220.2376902493
 40
2.4462569725
100
AcDbArc
 50
318.9855479634
 51
319.311336579
  0
ARC
  5
7A8
100
AcDbEntity
  8
BEZUGSACHSEN
100
AcDbCircle
 62
7
  6
CONTINUOUS
 10
508.3541124203
 20
254.3572471997
 40
8.3178436932
100
AcDbArc
 50
171.1318362513
 51
183.5122388913
  0
ARC
  5
7A9
100
AcDbEntity
  8
RUNDUNGEN
100
AcDbCircle
 62
7
  6
CONTINUOUS
 10
506.7874125784
 20
261.5937094816
 40
3.9140112
100
AcDbArc
 50
187.999959914
 51
225.0000037805
  0
ARC
  5
7AA
100
AcDbEntity
  8
RUNDUNGEN
100
AcDbCircle
 62
7
  6
CONTINUOUS
 10
502.1442351271
 20
255.1663914882
 40
3.9140112
100
AcDbArc
 50
359.999999671
 51
44.9999973118
  0
ARC
  5
7AB
100
AcDbEntity
  8
BEZUGSACHSEN
100
AcDbCircle
 62
7
  6
CONTINUOUS
 10
506.7874125784
 20
261.5937094816
 40
3.9140112
100
AcDbArc
 50
187.999959914
 51
225.0000037805
  0
ARC
  5
7AC
100
AcDbEntity
  8
BEZUGSACHSEN
100
AcDbCircle
 62
7
  6
CONTINUOUS
 10
502.1442351271
 20
255.1663914882
 40
3.9140112
100
AcDbArc
 50
359.999999671
 51
44.9999973118
  0
ARC
  5
7AD
100
AcDbEntity
  8
RUNDUNGEN
100
AcDbCircle
 62
7
  6
CONTINUOUS
 10
503.2517204156
 20
256.1296041997
 40
2.446257
100
AcDbArc
 50
27.2182923088
 51
41.0144488482
  0
ARC
  5
7AE
100
AcDbEntity
  8
BEZUGSACHSEN
100
AcDbCircle
 62
7
  6
CONTINUOUS
 10
503.2517204156
 20
256.1296041997
 40
2.446257
100
AcDbArc
 50
27.2182923088
 51
41.0144488482
  0
ARC
  5
7AF
100
AcDbEntity
  8
RUNDUNGEN
100
AcDbCircle
 62
7
  6
CONTINUOUS
 10
504.1012407271
 20
248.223918971
 40
1.9570056
100
AcDbArc
 50
359.9999182161
 51
40.1716364344
  0
ARC
  5
7B0
100
AcDbEntity
  8
BEZUGSACHSEN
100
AcDbCircle
 62
7
  6
CONTINUOUS
 10
447.0430173345
 20
303.4581305954
 40
7.0
100
AcDbArc
 50
206.5
 51
335.0
  0
ARC
  5
7B1
100
AcDbEntity
  8
BEZUGSACHSEN
100
AcDbCircle
 62
7
  6
CONTINUOUS
 10
458.1213857912
 20
327.2157684187
 40
7.0
100
AcDbArc
 50
335.0
 51
65.0
  0
ARC
  5
7B2
100
AcDbEntity
  8
BEZUGSACHSEN
100
AcDbCircle
 62
7
  6
CONTINUOUS
 10
487.1937547271
 20
304.1335248939
 40
2.9355084
100
AcDbArc
 50
96.0
 51
180.0
  0
ARC
  5
7B3
100
AcDbEntity
  8
BEZUGSACHSEN
100
AcDbCircle
 62
7
  6
CONTINUOUS
 10
492.2082463271
 20
299.1836471997
 40
35.0
100
AcDbArc
 50
283.129214667
 51
65.0
  0
ARC
  5
7B4
100
AcDbEntity
  8
BEZUGSACHSEN
100
AcDbCircle
 62
7
  6
CONTINUOUS
 10
492.2082463271
 20
299.1836471997
 40
14.0
100
AcDbArc
 50
304.6192585832
 51
235.3807414168
  0
ARC
  5
7B5
100
AcDbEntity
  8
RUNDUNGEN
100
AcDbCircle
 62
7
  6
CONTINUOUS
 10
497.2227379271
 20
304.1335248939
 40
2.9355084
100
AcDbArc
 50
0.0
 51
84.0
  0
ARC
  5
7B6
100
AcDbEntity
  8
BEZUGSACHSEN
100
AcDbCircle
 62
7
  6
CONTINUOUS
 10
497.2227379271
 20
304.1335248939
 40
2.9355084
100
AcDbArc
 50
0.0
 51
84.0
  0
ARC
  5
7B7
100
AcDbEntity
  8
0
100
AcDbCircle
 62
7
  6
CONTINUOUS
 10
372.2082463271
 20
677.1836471997
 40
106.0
100
AcDbArc
 50
0.0
 51
180.0
  0
ARC
  5
7B8
100
AcDbEntity
  8
0
100
AcDbCircle
 62
7
  6
CONTINUOUS
 10
372.2082463271
 20
557.1836471997
 40
106.0
100
AcDbArc
 50
180.0
 51
232.8371722478
  0
ARC
  5
7B9
100
AcDbEntity
  8
0
100
AcDbCircle
 62
7
  6
CONTINUOUS
 10
372.2082463271
 20
557.1836471997
 40
106.0
100
AcDbArc
 50
237.1628689381
 51
261.8631513609
  0
ARC
  5
7BA
100
AcDbEntity
  8
0
100
AcDbCircle
 62
7
  6
CONTINUOUS
 10
372.2082463271
 20
557.1836471997
 40
106.0
100
AcDbArc
 50
278.1368486391
 51
360.0
  0
ARC
  5
7BB
100
AcDbEntity
  8
0
100
AcDbCircle
 62
7
  6
CONTINUOUS
 10
372.2082463271
 20
557.1836471997
 40
70.0
100
AcDbArc
 50
180.0
 51
231.7239028918
  0
ARC
  5
7BC
100
AcDbEntity
  8
0
100
AcDbCircle
 62
7
  6
CONTINUOUS
 10
372.2082463271
 20
557.1836471997
 40
70.0
100
AcDbArc
 50
238.2765040062
 51
257.6245298817
  0
ARC
  5
7BD
100
AcDbEntity
  8
0
100
AcDbCircle
 62
7
  6
CONTINUOUS
 10
372.2082463271
 20
557.1836471997
 40
70.0
100
AcDbArc
 50
282.3754701183
 51
360.0
  0
ARC
  5
7BE
100
AcDbEntity
  8
0
100
AcDbCircle
 62
7
  6
CONTINUOUS
 10
372.2082463271
 20
677.1836471997
 40
70.0
100
AcDbArc
 50
0.0
 51
180.0
  0
ARC
  5
7BF
100
AcDbEntity
  8
KONSTRUKTIONSELEMENTE
100
AcDbCircle
 62
7
  6
CONTINUOUS
 10
372.2082463271
 20
505.1836471997
 40
15.0
100
AcDbArc
 50
0.0
 51
180.0000000206
  0
ARC
  5
7C0
100
AcDbEntity
  8
RUNDUNGEN
100
AcDbCircle
 62
7
  6
CONTINUOUS
 10
748.490937501
 20
323.2353840288
 40
13.5926778828
100
AcDbArc
 50
6.1319827826
 51
11.952307774
  0
ARC
  5
7C1
100
AcDbEntity
  8
BEZUGSACHSEN
100
AcDbCircle
 62
7
  6
CONTINUOUS
 10
736.1532767771
 20
249.8943131221
 40
9.785028
100
AcDbArc
 50
148.15
 51
180.0
  0
ARC
  5
7C2
100
AcDbEntity
  8
BEZUGSACHSEN
100
AcDbCircle
 62
7
  6
CONTINUOUS
 10
735.8887958839
 20
222.0100471997
 40
8.3178436932
100
AcDbArc
 50
288.7910524318
 51
44.0524622899
  0
ARC
  5
7C3
100
AcDbEntity
  8
BEZUGSACHSEN
100
AcDbCircle
 62
7
  6
CONTINUOUS
 10
731.2327844945
 20
231.0025546199
 40
4.8645357316
100
AcDbArc
 50
179.9956305717
 51
215.0043694283
  0
CIRCLE
  5
7C4
100
AcDbEntity
  8
BEZUGSACHSEN
100
AcDbCircle
 62
7
  6
CONTINUOUS
 10
735.2936381771
 20
238.1836471997
 40
2.447168143
  0
ARC
  5
7C5
100
AcDbEntity
  8
RUNDUNGEN
100
AcDbCircle
 62
7
  6
CONTINUOUS
 10
733.5651934917
 20
222.6419181405
 40
1.9796710147
100
AcDbArc
 50
215.076759639
 51
270.0394444067
  0
ARC
  5
7C6
100
AcDbEntity
  8
BEZUGSACHSEN
100
AcDbCircle
 62
7
  6
CONTINUOUS
 10
733.5651934917
 20
222.6419181405
 40
1.9796710147
100
AcDbArc
 50
215.076759639
 51
270.0394444067
  0
ARC
  5
7C7
100
AcDbEntity
  8
RUNDUNGEN
100
AcDbCircle
 62
7
  6
CONTINUOUS
 10
739.5729031771
 20
222.6192527997
 40
1.9570056
100
AcDbArc
 50
270.0
 51
360.0
  0
ARC
  5
7C8
100
AcDbEntity
  8
BEZUGSACHSEN
100
AcDbCircle
 62
7
  6
CONTINUOUS
 10
739.5729031771
 20
222.6192527997
 40
1.9570056
100
AcDbArc
 50
270.0
 51
360.0
  0
ARC
  5
7C9
100
AcDbEntity
  8
RUNDUNGEN
100
AcDbCircle
 62
7
  6
CONTINUOUS
 10
743.8238643771
 20
250.3785415997
 40
1.9570056
100
AcDbArc
 50
90.0
 51
180.0
  0
ARC
  5
7CA
100
AcDbEntity
  8
BEZUGSACHSEN
100
AcDbCircle
 62
7
  6
CONTINUOUS
 10
743.4869143771
 20
251.7263415997
 40
1.9570056
100
AcDbArc
 50
89.9998410969
 51
180.0
  0
ARC
  5
7CB
100
AcDbEntity
  8
BEZUGSACHSEN
100
AcDbCircle
 62
7
  6
CONTINUOUS
 10
760.7532207771
 20
252.7057590504
 40
9.785028
100
AcDbArc
 50
0.0
 51
35.7471969812
  0
ARC
  5
7CC
100
AcDbEntity
  8
BEZUGSACHSEN
100
AcDbCircle
 62
7
  6
CONTINUOUS
 10
768.1805280703
 20
222.0100471997
 40
8.3178436932
100
AcDbArc
 50
163.7019364916
 51
192.4720186323
  0
ARC
  5
7CD
100
AcDbEntity
  8
RUNDUNGEN
100
AcDbCircle
 62
7
  6
CONTINUOUS
 10
768.1805280703
 20
222.0100471997
 40
8.3178436932
100
AcDbArc
 50
163.7019364916
 51
192.4720186323
  0
ARC
  5
7CE
100
AcDbEntity
  8
RUNDUNGEN
100
AcDbCircle
 62
7
  6
CONTINUOUS
 10
762.3561143771
 20
222.6192527997
 40
1.9570056
100
AcDbArc
 50
180.0
 51
270.0
  0
ARC
  5
7CF
100
AcDbEntity
  8
RUNDUNGEN
100
AcDbCircle
 62
7
  6
CONTINUOUS
 10
758.4421031771
 20
251.7263415997
 40
1.9570056
100
AcDbArc
 50
51.3751876027
 51
89.9990129871
  0
ARC
  5
7D0
100
AcDbEntity
  8
BEZUGSACHSEN
100
AcDbCircle
 62
7
  6
CONTINUOUS
 10
762.3561143771
 20
222.6192527997
 40
1.9570056
100
AcDbArc
 50
180.0
 51
270.0
  0
ARC
  5
7D1
100
AcDbEntity
  8
RUNDUNGEN
100
AcDbCircle
 62
7
  6
CONTINUOUS
 10
758.2399331771
 20
250.3785415997
 40
1.9570056
100
AcDbArc
 50
0.0
 51
90.0
  0
ARC
  5
7D2
100
AcDbEntity
  8
BEZUGSACHSEN
100
AcDbCircle
 62
7
  6
CONTINUOUS
 10
758.4421031771
 20
251.7263415997
 40
1.9570056
100
AcDbArc
 50
0.0
 51
89.9990129871
  0
ARC
  5
7D3
100
AcDbEntity
  8
0
100
AcDbCircle
 62
7
  6
CONTINUOUS
 10
768.8943093515
 20
335.3452739512
 40
12.8245591525
100
AcDbArc
 50
50.9594500233
 51
52.5803234578
  0
ARC
  5
7D4
100
AcDbEntity
  8
RUNDUNGEN
100
AcDbCircle
 62
7
  6
CONTINUOUS
 10
782.3682487771
 20
213.9237471997
 40
45.1687
100
AcDbArc
 50
182.1859726843
 51
270.0
  0
ARC
  5
7D5
100
AcDbEntity
  8
RUNDUNGEN
100
AcDbCircle
 62
7
  6
CONTINUOUS
 10
782.3682487771
 20
262.8735471997
 40
44.7387
100
AcDbArc
 50
1.4324331241
 51
16.9593718582
  0
ARC
  5
7D6
100
AcDbEntity
  8
BEZUGSACHSEN
100
AcDbCircle
 62
7
  6
CONTINUOUS
 10
782.3682487771
 20
262.8735471997
 40
44.7387
100
AcDbArc
 50
1.4324331241
 51
16.9593718582
  0
ARC
  5
7D7
100
AcDbEntity
  8
BEZUGSACHSEN
100
AcDbCircle
 62
7
  6
CONTINUOUS
 10
782.3682487771
 20
208.5325471997
 40
39.7775
100
AcDbArc
 50
270.0
 51
328.15
  0
ARC
  5
7D8
100
AcDbEntity
  8
BEZUGSACHSEN
100
AcDbCircle
 62
7
  6
CONTINUOUS
 10
782.3682487771
 20
213.9237471997
 40
22.2387
100
AcDbArc
 50
180.0
 51
270.0
  0
ARC
  5
7D9
100
AcDbEntity
  8
BEZUGSACHSEN
100
AcDbCircle
 62
7
  6
CONTINUOUS
 10
782.3682487771
 20
262.8735471997
 40
22.2387
100
AcDbArc
 50
0.0
 51
47.5798193563
  0
ARC
  5
7DA
100
AcDbEntity
  8
BEZUGSACHSEN
100
AcDbCircle
 62
7
  6
CONTINUOUS
 10
782.3682487771
 20
208.5325471997
 40
16.8475
100
AcDbArc
 50
270.0
 51
35.7471969812
  0
ARC
  5
7DB
100
AcDbEntity
  8
BEZUGSACHSEN
100
AcDbCircle
 62
7
  6
CONTINUOUS
 10
782.3682487771
 20
268.2647471997
 40
16.8475
100
AcDbArc
 50
152.9182448757
 51
215.7471969812
  0
ARC
  5
7DC
100
AcDbEntity
  8
KONSTRUKTIONSELEMENTE
100
AcDbCircle
 62
7
  6
CONTINUOUS
 10
781.8682487771
 20
466.6836471997
 40
53.5
100
AcDbArc
 50
109.0930398323
 51
180.0
  0
ARC
  5
7DD
100
AcDbEntity
  8
KONSTRUKTIONSELEMENTE
100
AcDbCircle
 62
7
  6
CONTINUOUS
 10
781.8682487771
 20
466.6836471997
 40
53.5
100
AcDbArc
 50
0.0
 51
69.7638355879
  0
ARC
  5
7DE
100
AcDbEntity
  8
KONSTRUKTIONSELEMENTE
100
AcDbCircle
 62
7
  6
CONTINUOUS
 10
781.8682487771
 20
463.6836471997
 40
23.5
100
AcDbArc
 50
138.1340632302
 51
161.2649350509
  0
ARC
  5
7DF
100
AcDbEntity
  8
KONSTRUKTIONSELEMENTE
100
AcDbCircle
 62
7
  6
CONTINUOUS
 10
781.8682487771
 20
463.6836471997
 40
23.5
100
AcDbArc
 50
16.0085722737
 51
38.051181497
  0
ARC
  5
7E0
100
AcDbEntity
  8
0
100
AcDbCircle
 62
7
  6
CONTINUOUS
 10
782.3682487771
 20
469.1836471997
 40
18.0
100
AcDbArc
 50
180.0
 51
192.228186949
  0
ARC
  5
7E1
100
AcDbEntity
  8
0
100
AcDbCircle
 62
7
  6
CONTINUOUS
 10
782.3682487771
 20
469.1836471997
 40
18.0
100
AcDbArc
 50
252.9703783647
 51
262.0132716941
  0
ARC
  5
7E2
100
AcDbEntity
  8
0
100
AcDbCircle
 62
7
  6
CONTINUOUS
 10
782.3682487771
 20
469.1836471997
 40
18.0
100
AcDbArc
 50
277.9867283059
 51
286.9349018563
  0
ARC
  5
7E3
100
AcDbEntity
  8
0
100
AcDbCircle
 62
7
  6
CONTINUOUS
 10
782.3682487771
 20
469.1836471997
 40
18.0
100
AcDbArc
 50
347.7722246053
 51
360.0
  0
ARC
  5
7E4
100
AcDbEntity
  8
KONSTRUKTIONSELEMENTE
100
AcDbCircle
 62
7
  6
CONTINUOUS
 10
782.3682487771
 20
462.2082600835
 40
2.5
100
AcDbArc
 50
0.0
 51
180.0
  0
ARC
  5
7E5
100
AcDbEntity
  8
KONSTRUKTIONSELEMENTE
100
AcDbCircle
 62
7
  6
CONTINUOUS
 10
782.3682487771
 20
438.3603507565
 40
2.5
100
AcDbArc
 50
180.0
 51
360.0
  0
ARC
  5
7E6
100
AcDbEntity
  8
KONSTRUKTIONSELEMENTE
100
AcDbCircle
 62
7
  6
CONTINUOUS
 10
782.3682487771
 20
391.3516082525
 40
2.5
100
AcDbArc
 50
0.0
 51
180.0
  0
ARC
  5
7E7
100
AcDbEntity
  8
KONSTRUKTIONSELEMENTE
100
AcDbCircle
 62
7
  6
CONTINUOUS
 10
782.3682487771
 20
367.5036989255
 40
2.5
100
AcDbArc
 50
348.4587979897
 51
360.0
  0
ARC
  5
7E8
100
AcDbEntity
  8
KONSTRUKTIONSELEMENTE
100
AcDbCircle
 62
7
  6
CONTINUOUS
 10
782.3682487771
 20
367.5036989255
 40
2.5
100
AcDbArc
 50
180.0
 51
191.5412020103
  0
ARC
  5
7E9
100
AcDbEntity
  8
KONSTRUKTIONSELEMENTE
100
AcDbCircle
 62
7
  6
CONTINUOUS
 10
782.3682487771
 20
402.7575511613
 40
2.25
100
AcDbArc
 50
180.0
 51
360.0
  0
ARC
  5
7EA
100
AcDbEntity
  8
KONSTRUKTIONSELEMENTE
100
AcDbCircle
 62
7
  6
CONTINUOUS
 10
782.3682487771
 20
426.5448318256
 40
2.25
100
AcDbArc
 50
0.0
 51
180.0
  0
ARC
  5
7EB
100
AcDbEntity
  8
0
100
AcDbCircle
 62
7
  6
CONTINUOUS
 10
782.3682487771
 20
765.1836471997
 40
18.0
100
AcDbArc
 50
0.0
 51
180.0
  0
ARC
  5
7EC
100
AcDbEntity
  8
BEZUGSACHSEN
100
AcDbCircle
 62
7
  6
CONTINUOUS
 10
803.9832767771
 20
224.091535349
 40
9.785028
100
AcDbArc
 50
180.0
 51
215.7471969812
  0
ARC
  5
7ED
100
AcDbEntity
  8
RUNDUNGEN
100
AcDbCircle
 62
7
  6
CONTINUOUS
 10
806.4965643771
 20
225.9887527997
 40
1.9570056
100
AcDbArc
 50
180.0
 51
270.0
  0
ARC
  5
7EE
100
AcDbEntity
  8
BEZUGSACHSEN
100
AcDbCircle
 62
7
  6
CONTINUOUS
 10
806.4965643771
 20
225.9887527997
 40
1.9570056
100
AcDbArc
 50
180.0
 51
270.0
  0
ARC
  5
7EF
100
AcDbEntity
  8
RUNDUNGEN
100
AcDbCircle
 62
7
  6
CONTINUOUS
 10
806.2943943771
 20
224.6409527997
 40
1.9570056
100
AcDbArc
 50
231.3751876027
 51
269.9989777745
  0
ARC
  5
7F0
100
AcDbEntity
  8
BEZUGSACHSEN
100
AcDbCircle
 62
7
  6
CONTINUOUS
 10
806.2943943771
 20
224.6409527997
 40
1.9570056
100
AcDbArc
 50
180.0
 51
269.9989777745
  0
ARC
  5
7F1
100
AcDbEntity
  8
RUNDUNGEN
100
AcDbCircle
 62
7
  6
CONTINUOUS
 10
796.5559694839
 20
254.3572471997
 40
8.3178436932
100
AcDbArc
 50
343.7019364916
 51
12.4720186323
  0
ARC
  5
7F2
100
AcDbEntity
  8
BEZUGSACHSEN
100
AcDbCircle
 62
7
  6
CONTINUOUS
 10
796.5559694839
 20
254.3572471997
 40
8.3178436932
100
AcDbArc
 50
343.7019364916
 51
12.4720186323
  0
ARC
  5
7F3
100
AcDbEntity
  8
RUNDUNGEN
100
AcDbCircle
 62
7
  6
CONTINUOUS
 10
802.3803831771
 20
253.7480415997
 40
1.9570056
100
AcDbArc
 50
0.0
 51
90.0
  0
ARC
  5
7F4
100
AcDbEntity
  8
RUNDUNGEN
100
AcDbCircle
 62
7
  6
CONTINUOUS
 10
820.9126331771
 20
225.9887527997
 40
1.9570056
100
AcDbArc
 50
270.0
 51
360.0
  0
ARC
  5
7F5
100
AcDbEntity
  8
BEZUGSACHSEN
100
AcDbCircle
 62
7
  6
CONTINUOUS
 10
820.9126331771
 20
225.9887527997
 40
1.9570056
100
AcDbArc
 50
270.0
 51
360.0
  0
ARC
  5
7F6
100
AcDbEntity
  8
BEZUGSACHSEN
100
AcDbCircle
 62
7
  6
CONTINUOUS
 10
821.2495831771
 20
224.6409527997
 40
1.9570056
100
AcDbArc
 50
269.9996856384
 51
360.0
  0
ARC
  5
7F7
100
AcDbEntity
  8
RUNDUNGEN
100
AcDbCircle
 62
7
  6
CONTINUOUS
 10
816.2455514794
 20
323.2353852363
 40
13.5926692293
100
AcDbArc
 50
168.0476610703
 51
173.8683299893
  0
ARC
  5
7F8
100
AcDbEntity
  8
RUNDUNGEN
100
AcDbCircle
 62
7
  6
CONTINUOUS
 10
820.8275091629
 20
360.5428478671
 40
2.6847825707
100
AcDbArc
 50
139.4728492293
 51
141.9709269793
  0
ARC
  5
7F9
100
AcDbEntity
  8
BEZUGSACHSEN
100
AcDbCircle
 62
7
  6
CONTINUOUS
 10
828.5832207771
 20
226.0881201293
 40
9.785028
100
AcDbArc
 50
328.15
 51
360.0
  0
ARC
  5
7FA
100
AcDbEntity
  8
BEZUGSACHSEN
100
AcDbCircle
 62
7
  6
CONTINUOUS
 10
828.8477016703
 20
254.3572471997
 40
8.3178436932
100
AcDbArc
 50
111.236238366
 51
224.0524622899
  0
ARC
  5
7FB
100
AcDbEntity
  8
BEZUGSACHSEN
100
AcDbCircle
 62
7
  6
CONTINUOUS
 10
833.5037130597
 20
245.3647397796
 40
4.8645357316
100
AcDbArc
 50
359.9956305717
 51
35.0043694283
  0
CIRCLE
  5
7FC
100
AcDbEntity
  8
BEZUGSACHSEN
100
AcDbCircle
 62
7
  6
CONTINUOUS
 10
829.4428593771
 20
238.1836471997
 40
2.447168143
  0
ARC
  5
7FD
100
AcDbEntity
  8
RUNDUNGEN
100
AcDbCircle
 62
7
  6
CONTINUOUS
 10
831.1713040607
 20
253.7253762577
 40
1.9796710169
100
AcDbArc
 50
35.0767596385
 51
90.0394443533
  0
ARC
  5
7FE
100
AcDbEntity
  8
RUNDUNGEN
100
AcDbCircle
 62
7
  6
CONTINUOUS
 10
825.1635943771
 20
253.7480415997
 40
1.9570056
100
AcDbArc
 50
90.0
 51
180.0
  0
ARC
  5
7FF
100
AcDbEntity
  8
RUNDUNGEN
100
AcDbCircle
 62
7
  6
CONTINUOUS
 10
825.1538834426
 20
263.8631504952
 40
1.8805106342
100
AcDbArc
 50
291.2396976381
 51
291.6392093494
  0
ARC
  5
800
100
AcDbEntity
  8
BEZUGSACHSEN
100
AcDbCircle
 62
7
  6
CONTINUOUS
 10
825.1538834426
 20
263.8631504952
 40
1.8805106342
100
AcDbArc
 50
291.2396976381
 51
291.6392093494
  0
ARC
  5
801
100
AcDbEntity
  8
KONSTRUKTIONSELEMENTE
100
AcDbCircle
 62
7
  6
CONTINUOUS
 10
842.3682487771
 20
358.1836471997
 40
23.0
100
AcDbArc
 50
270.0
 51
90.0
  0
CIRCLE
  5
802
100
AcDbEntity
  8
BEZUGSACHSEN
100
AcDbCircle
 62
7
  6
CONTINUOUS
 10
852.3682487771
 20
358.1335915204
 40
5.0
  0
SPLINE
  5
803
100
AcDbEntity
  8
KONSTRUKTIONSELEMENTE
100
AcDbSpline
 62
7
  6
CONTINUOUS
 70
0
 71
3
 72
15
 73
11
 74
0
 42
0.0000001
 43
0.0000001
 44
0.0000000001
 40
0.0
 40
0.0
 40
0.0
 40
0.0
 40
0.1249790487
 40
0.249985446
 40
0.3750049236
 40
0.5000229572
 40
0.6250329648
 40
0.7500361888
 40
0.8750252883
 40
1.0
 40
1.0
 40
1.0
 40
1.0
 10
372.2084591026
 20
414.1833762241
 30
0.0
 10
371.2963441118
 20
413.1298717593
 30
0.0
 10
369.5930783351
 20
410.9162596825
 30
0.0
 10
367.3240640873
 20
407.4020536388
 30
0.0
 10
365.178537674
 20
403.812791606
 30
0.0
 10
363.0067076479
 20
400.2389352873
 30
0.0
 10
360.6853129272
 20
396.7583065673
 30
0.0
 10
358.1122686074
 20
393.4554798733
 30
0.0
 10
355.2115414853
 20
390.4326184358
 30
0.0
 10
353.0291073665
 20
388.6812004347
 30
0.0
 10
351.8790885283
 20
387.8943412877
 30
0.0
  0
SPLINE
  5
804
100
AcDbEntity
  8
KONSTRUKTIONSELEMENTE
100
AcDbSpline
 62
7
  6
CONTINUOUS
 70
0
 71
3
 72
15
 73
11
 74
0
 42
0.0000001
 43
0.0000001
 44
0.0000000001
 40
0.0
 40
0.0
 40
0.0
 40
0.0
 40
0.1249694115
 40
0.249961413
 40
0.3749653693
 40
0.4999766524
 40
0.6249967302
 40
0.7500183286
 40
0.8750245807
 40
1.0
 40
1.0
 40
1.0
 40
1.0
 10
392.5372443105
 20
387.8944506388
 30
0.0
 10
391.3872614431
 20
388.6812242028
 30
0.0
 10
389.2049315857
 20
390.4326795249
 30
0.0
 10
386.3042600977
 20
393.4554762742
 30
0.0
 10
383.7311517724
 20
396.7582546824
 30
0.0
 10
381.4098318532
 20
400.2389215434
 30
0.0
 10
379.2379344617
 20
403.8127330738
 30
0.0
 10
377.0925431444
 20
407.4020900596
 30
0.0
 10
374.8231470522
 20
410.9158770841
 30
0.0
 10
373.1210191658
 20
413.1303358445
 30
0.0
 10
372.2084591026
 20
414.1833762241
 30
0.0
  0
SPLINE
  5
805
100
AcDbEntity
  8
KONSTRUKTIONSELEMENTE
100
AcDbSpline
 62
7
  6
CONTINUOUS
 70
0
 71
3
 72
8
 73
4
 74
0
 42
0.0000001
 43
0.0000001
 44
0.0000000001
 40
0.0
 40
0.0
 40
0.0
 40
0.0
 40
1.0
 40
1.0
 40
1.0
 40
1.0
 10
779.8942201096
 20
454.3271696398
 30
0.0
 10
779.8772637826
 20
454.3941470051
 30
0.0
 10
779.8682487771
 20
454.4637168993
 30
0.0
 10
779.8682487771
 20
454.5328073074
 30
0.0
  0
SPLINE
  5
806
100
AcDbEntity
  8
KONSTRUKTIONSELEMENTE
100
AcDbSpline
 62
7
  6
CONTINUOUS
 70
0
 71
3
 72
11
 73
7
 74
0
 42
0.0000001
 43
0.0000001
 44
0.0000000001
 40
0.0
 40
0.0
 40
0.0
 40
0.0
 40
0.2853963507
 40
0.5551295675
 40
0.7952535746
 40
1.0
 40
1.0
 40
1.0
 40
1.0
 10
782.3682487771
 20
455.5571723761
 30
0.0
 10
782.6108525343
 20
455.5571723761
 30
0.0
 10
783.0837102198
 20
455.5179531153
 30
0.0
 10
783.7414824904
 20
455.3453905411
 30
0.0
 10
784.2893476073
 20
455.0724821707
 30
0.0
 10
784.5760312073
 20
454.813062754
 30
0.0
 10
784.6779476084
 20
454.6719767837
 30
0.0
  0
SPLINE
  5
807
100
AcDbEntity
  8
KONSTRUKTIONSELEMENTE
100
AcDbSpline
 62
7
  6
CONTINUOUS
 70
0
 71
3
 72
9
 73
5
 74
0
 42
0.0000001
 43
0.0000001
 44
0.0000000001
 40
0.0
 40
0.0
 40
0.0
 40
0.0
 40
0.5173440933
 40
1.0
 40
1.0
 40
1.0
 40
1.0
 10
784.6779476084
 20
454.6719767837
 30
0.0
 10
784.7373339669
 20
454.5897664435
 30
0.0
 10
784.8328394961
 20
454.4150302808
 30
0.0
 10
784.8682487771
 20
454.2178476333
 30
0.0
 10
784.8682487771
 20
454.1232312852
 30
0.0
  0
SPLINE
  5
808
100
AcDbEntity
  8
KONSTRUKTIONSELEMENTE
100
AcDbSpline
 62
7
  6
CONTINUOUS
 70
0
 71
3
 72
8
 73
4
 74
0
 42
0.0000001
 43
0.0000001
 44
0.0000000001
 40
0.0
 40
0.0
 40
0.0
 40
0.0
 40
1.0
 40
1.0
 40
1.0
 40
1.0
 10
784.8682487771
 20
454.5328073074
 30
0.0
 10
784.8682487771
 20
454.4637168993
 30
0.0
 10
784.8592337716
 20
454.3941470051
 30
0.0
 10
784.8422774447
 20
454.3271696398
 30
0.0
  0
SPLINE
  5
809
100
AcDbEntity
  8
KONSTRUKTIONSELEMENTE
100
AcDbSpline
 62
7
  6
CONTINUOUS
 70
0
 71
3
 72
9
 73
5
 74
0
 42
0.0000001
 43
0.0000001
 44
0.0000000001
 40
0.0
 40
0.0
 40
0.0
 40
0.0
 40
0.4826559067
 40
1.0
 40
1.0
 40
1.0
 40
1.0
 10
779.8682487771
 20
454.1232312852
 30
0.0
 10
779.8682487771
 20
454.2178476333
 30
0.0
 10
779.9036580581
 20
454.4150302808
 30
0.0
 10
779.9991635874
 20
454.5897664435
 30
0.0
 10
780.0585499458
 20
454.6719767837
 30
0.0
  0
SPLINE
  5
80A
100
AcDbEntity
  8
KONSTRUKTIONSELEMENTE
100
AcDbSpline
 62
7
  6
CONTINUOUS
 70
0
 71
3
 72
11
 73
7
 74
0
 42
0.0000001
 43
0.0000001
 44
0.0000000001
 40
0.0
 40
0.0
 40
0.0
 40
0.0
 40
0.2047464254
 40
0.4448704325
 40
0.7146036493
 40
1.0
 40
1.0
 40
1.0
 40
1.0
 10
780.0585499458
 20
454.6719767837
 30
0.0
 10
780.160466347
 20
454.813062754
 30
0.0
 10
780.4471499469
 20
455.0724821707
 30
0.0
 10
780.9950150638
 20
455.3453905411
 30
0.0
 10
781.6527873344
 20
455.5179531153
 30
0.0
 10
782.12564502
 20
455.5571723761
 30
0.0
 10
782.3682487771
 20
455.5571723761
 30
0.0
  0
SPLINE
  5
80B
100
AcDbEntity
  8
KONSTRUKTIONSELEMENTE
100
AcDbSpline
 62
7
  6
CONTINUOUS
 70
0
 71
3
 72
13
 73
9
 74
0
 42
0.0000001
 43
0.0000001
 44
0.0000000001
 40
0.0
 40
0.0
 40
0.0
 40
0.0
 40
0.306881364
 40
0.5836991168
 40
0.7045434875
 40
0.8125729278
 40
0.9095372165
 40
1.0
 40
1.0
 40
1.0
 40
1.0
 10
782.3682487771
 20
455.9667483982
 30
0.0
 10
782.6892204834
 20
455.9667483982
 30
0.0
 10
783.3014020152
 20
455.9005225753
 30
0.0
 10
784.0054989044
 20
455.6480327528
 30
0.0
 10
784.4443239571
 20
455.3477179084
 30
0.0
 10
784.6825251044
 20
455.0995882443
 30
0.0
 10
784.832779146
 20
454.8247248297
 30
0.0
 10
784.8682487771
 20
454.6274236555
 30
0.0
 10
784.8682487771
 20
454.5328073074
 30
0.0
  0
SPLINE
  5
80C
100
AcDbEntity
  8
KONSTRUKTIONSELEMENTE
100
AcDbSpline
 62
7
  6
CONTINUOUS
 70
0
 71
3
 72
13
 73
9
 74
0
 42
0.0000001
 43
0.0000001
 44
0.0000000001
 40
0.0
 40
0.0
 40
0.0
 40
0.0
 40
0.0904627835
 40
0.1874270722
 40
0.2954565125
 40
0.4163008832
 40
0.693118636
 40
1.0
 40
1.0
 40
1.0
 40
1.0
 10
779.8682487771
 20
454.5328073074
 30
0.0
 10
779.8682487771
 20
454.6274236555
 30
0.0
 10
779.9037184083
 20
454.8247248298
 30
0.0
 10
780.0539724498
 20
455.0995882443
 30
0.0
 10
780.2921735971
 20
455.3477179084
 30
0.0
 10
780.7309986498
 20
455.6480327528
 30
0.0
 10
781.435095539
 20
455.9005225753
 30
0.0
 10
782.0472770708
 20
455.9667483982
 30
0.0
 10
782.3682487771
 20
455.9667483982
 30
0.0
  0
SPLINE
  5
80D
100
AcDbEntity
  8
KONSTRUKTIONSELEMENTE
100
AcDbSpline
 62
7
  6
CONTINUOUS
 70
0
 71
3
 72
8
 73
4
 74
0
 42
0.0000001
 43
0.0000001
 44
0.0000000001
 40
0.0
 40
0.0
 40
0.0
 40
0.0
 40
1.0
 40
1.0
 40
1.0
 40
1.0
 10
779.8942201096
 20
383.4705178088
 30
0.0
 10
779.8772637826
 20
383.5374951741
 30
0.0
 10
779.8682487771
 20
383.6070650683
 30
0.0
 10
779.8682487771
 20
383.6761554764
 30
0.0
  0
SPLINE
  5
80E
100
AcDbEntity
  8
KONSTRUKTIONSELEMENTE
100
AcDbSpline
 62
7
  6
CONTINUOUS
 70
0
 71
3
 72
11
 73
7
 74
0
 42
0.0000001
 43
0.0000001
 44
0.0000000001
 40
0.0
 40
0.0
 40
0.0
 40
0.0
 40
0.2853963507
 40
0.5551295675
 40
0.7952535746
 40
1.0
 40
1.0
 40
1.0
 40
1.0
 10
782.3682487771
 20
384.7005205451
 30
0.0
 10
782.6108525343
 20
384.7005205451
 30
0.0
 10
783.0837102198
 20
384.6613012843
 30
0.0
 10
783.7414824904
 20
384.4887387101
 30
0.0
 10
784.2893476073
 20
384.2158303397
 30
0.0
 10
784.5760312073
 20
383.956410923
 30
0.0
 10
784.6779476084
 20
383.8153249527
 30
0.0
  0
SPLINE
  5
80F
100
AcDbEntity
  8
KONSTRUKTIONSELEMENTE
100
AcDbSpline
 62
7
  6
CONTINUOUS
 70
0
 71
3
 72
9
 73
5
 74
0
 42
0.0000001
 43
0.0000001
 44
0.0000000001
 40
0.0
 40
0.0
 40
0.0
 40
0.0
 40
0.5173440933
 40
1.0
 40
1.0
 40
1.0
 40
1.0
 10
784.6779476084
 20
383.8153249527
 30
0.0
 10
784.7373339669
 20
383.7331146125
 30
0.0
 10
784.8328394961
 20
383.5583784498
 30
0.0
 10
784.8682487771
 20
383.3611958023
 30
0.0
 10
784.8682487771
 20
383.2665794542
 30
0.0
  0
SPLINE
  5
810
100
AcDbEntity
  8
KONSTRUKTIONSELEMENTE
100
AcDbSpline
 62
7
  6
CONTINUOUS
 70
0
 71
3
 72
8
 73
4
 74
0
 42
0.0000001
 43
0.0000001
 44
0.0000000001
 40
0.0
 40
0.0
 40
0.0
 40
0.0
 40
1.0
 40
1.0
 40
1.0
 40
1.0
 10
784.8682487771
 20
383.6761554764
 30
0.0
 10
784.8682487771
 20
383.6070650683
 30
0.0
 10
784.8592337716
 20
383.5374951741
 30
0.0
 10
784.8422774447
 20
383.4705178088
 30
0.0
  0
SPLINE
  5
811
100
AcDbEntity
  8
KONSTRUKTIONSELEMENTE
100
AcDbSpline
 62
7
  6
CONTINUOUS
 70
0
 71
3
 72
9
 73
5
 74
0
 42
0.0000001
 43
0.0000001
 44
0.0000000001
 40
0.0
 40
0.0
 40
0.0
 40
0.0
 40
0.4826559067
 40
1.0
 40
1.0
 40
1.0
 40
1.0
 10
779.8682487771
 20
383.2665794542
 30
0.0
 10
779.8682487771
 20
383.3611958023
 30
0.0
 10
779.9036580581
 20
383.5583784498
 30
0.0
 10
779.9991635874
 20
383.7331146125
 30
0.0
 10
780.0585499458
 20
383.8153249527
 30
0.0
  0
SPLINE
  5
812
100
AcDbEntity
  8
KONSTRUKTIONSELEMENTE
100
AcDbSpline
 62
7
  6
CONTINUOUS
 70
0
 71
3
 72
11
 73
7
 74
0
 42
0.0000001
 43
0.0000001
 44
0.0000000001
 40
0.0
 40
0.0
 40
0.0
 40
0.0
 40
0.2047464254
 40
0.4448704325
 40
0.7146036493
 40
1.0
 40
1.0
 40
1.0
 40
1.0
 10
780.0585499458
 20
383.8153249527
 30
0.0
 10
780.160466347
 20
383.956410923
 30
0.0
 10
780.4471499469
 20
384.2158303397
 30
0.0
 10
780.9950150638
 20
384.4887387101
 30
0.0
 10
781.6527873344
 20
384.6613012843
 30
0.0
 10
782.12564502
 20
384.7005205451
 30
0.0
 10
782.3682487771
 20
384.7005205451
 30
0.0
  0
SPLINE
  5
813
100
AcDbEntity
  8
KONSTRUKTIONSELEMENTE
100
AcDbSpline
 62
7
  6
CONTINUOUS
 70
0
 71
3
 72
13
 73
9
 74
0
 42
0.0000001
 43
0.0000001
 44
0.0000000001
 40
0.0
 40
0.0
 40
0.0
 40
0.0
 40
0.306881364
 40
0.5836991168
 40
0.7045434875
 40
0.8125729278
 40
0.9095372165
 40
1.0
 40
1.0
 40
1.0
 40
1.0
 10
782.3682487771
 20
385.1100965672
 30
0.0
 10
782.6892204834
 20
385.1100965672
 30
0.0
 10
783.3014020152
 20
385.0438707443
 30
0.0
 10
784.0054989044
 20
384.7913809218
 30
0.0
 10
784.4443239571
 20
384.4910660774
 30
0.0
 10
784.6825251044
 20
384.2429364133
 30
0.0
 10
784.832779146
 20
383.9680729988
 30
0.0
 10
784.8682487771
 20
383.7707718245
 30
0.0
 10
784.8682487771
 20
383.6761554764
 30
0.0
  0
SPLINE
  5
814
100
AcDbEntity
  8
KONSTRUKTIONSELEMENTE
100
AcDbSpline
 62
7
  6
CONTINUOUS
 70
0
 71
3
 72
13
 73
9
 74
0
 42
0.0000001
 43
0.0000001
 44
0.0000000001
 40
0.0
 40
0.0
 40
0.0
 40
0.0
 40
0.0904627835
 40
0.1874270722
 40
0.2954565125
 40
0.4163008832
 40
0.693118636
 40
1.0
 40
1.0
 40
1.0
 40
1.0
 10
779.8682487771
 20
383.6761554764
 30
0.0
 10
779.8682487771
 20
383.7707718245
 30
0.0
 10
779.9037184083
 20
383.9680729988
 30
0.0
 10
780.0539724498
 20
384.2429364133
 30
0.0
 10
780.2921735971
 20
384.4910660774
 30
0.0
 10
780.7309986498
 20
384.7913809218
 30
0.0
 10
781.435095539
 20
385.0438707443
 30
0.0
 10
782.0472770708
 20
385.1100965672
 30
0.0
 10
782.3682487771
 20
385.1100965672
 30
0.0
  0
SPLINE
  5
815
100
AcDbEntity
  8
KONSTRUKTIONSELEMENTE
100
AcDbSpline
 62
7
  6
CONTINUOUS
 70
0
 71
3
 72
10
 73
6
 74
0
 42
0.0000001
 43
0.0000001
 44
0.0000000001
 40
0.0
 40
0.0
 40
0.0
 40
0.0
 40
0.205371502
 40
0.4343817892
 40
1.0
 40
1.0
 40
1.0
 40
1.0
 10
778.8682487771
 20
438.8161768
 30
0.0
 10
778.8682487771
 20
438.9548289838
 30
0.0
 10
778.9070352266
 20
439.2494078874
 30
0.0
 10
779.1647235005
 20
439.8798029779
 30
0.0
 10
779.5539166863
 20
440.2830507945
 30
0.0
 10
779.8615050442
 20
440.5093477744
 30
0.0
  0
SPLINE
  5
816
100
AcDbEntity
  8
KONSTRUKTIONSELEMENTE
100
AcDbSpline
 62
7
  6
CONTINUOUS
 70
0
 71
3
 72
10
 73
6
 74
0
 42
0.0000001
 43
0.0000001
 44
0.0000000001
 40
0.0
 40
0.0
 40
0.0
 40
0.0
 40
0.5656309492
 40
0.794648515
 40
1.0
 40
1.0
 40
1.0
 40
1.0
 10
784.8748097269
 20
440.5094636635
 30
0.0
 10
785.1824561018
 20
440.2831644775
 30
0.0
 10
785.5717152037
 20
439.879879805
 30
0.0
 10
785.8294698506
 20
439.249432639
 30
0.0
 10
785.8682487771
 20
438.9548297886
 30
0.0
 10
785.8682487771
 20
438.8161768
 30
0.0
  0
SPLINE
  5
817
100
AcDbEntity
  8
KONSTRUKTIONSELEMENTE
100
AcDbSpline
 62
7
  6
CONTINUOUS
 70
0
 71
3
 72
11
 73
7
 74
0
 42
0.0000001
 43
0.0000001
 44
0.0000000001
 40
0.0
 40
0.0
 40
0.0
 40
0.0
 40
0.2424244724
 40
0.4883582938
 40
0.7406340184
 40
1.0
 40
1.0
 40
1.0
 40
1.0
 10
774.3682487771
 20
438.8161768
 30
0.0
 10
774.3682487771
 20
439.559094763
 30
0.0
 10
774.6495822127
 20
441.0690886338
 30
0.0
 10
775.8429452298
 20
443.0501095063
 30
0.0
 10
777.6401398381
 20
444.5761960083
 30
0.0
 10
779.0998785583
 20
445.211611333
 30
0.0
 10
779.8643505106
 20
445.4292039928
 30
0.0
  0
SPLINE
  5
818
100
AcDbEntity
  8
KONSTRUKTIONSELEMENTE
100
AcDbSpline
 62
7
  6
CONTINUOUS
 70
0
 71
3
 72
11
 73
7
 74
0
 42
0.0000001
 43
0.0000001
 44
0.0000000001
 40
0.0
 40
0.0
 40
0.0
 40
0.0
 40
0.2593662387
 40
0.5116340614
 40
0.7575628786
 40
1.0
 40
1.0
 40
1.0
 40
1.0
 10
784.872669321
 20
445.4290414186
 30
0.0
 10
785.6370838459
 20
445.211413194
 30
0.0
 10
787.0966906176
 20
444.5759899611
 30
0.0
 10
788.893677998
 20
443.0499371169
 30
0.0
 10
790.086941698
 20
441.0690229792
 30
0.0
 10
790.3682487771
 20
439.5590902636
 30
0.0
 10
790.3682487771
 20
438.8161768
 30
0.0
  0
SPLINE
  5
819
100
AcDbEntity
  8
KONSTRUKTIONSELEMENTE
100
AcDbSpline
 62
7
  6
CONTINUOUS
 70
0
 71
3
 72
11
 73
7
 74
0
 42
0.0000001
 43
0.0000001
 44
0.0000000001
 40
0.0
 40
0.0
 40
0.0
 40
0.0
 40
0.2421225749
 40
0.4879419518
 40
0.7403744145
 40
1.0
 40
1.0
 40
1.0
 40
1.0
 10
790.3682487771
 20
426.5288961356
 30
0.0
 10
790.3682487771
 20
425.7662578796
 30
0.0
 10
790.071172193
 20
424.2149013929
 30
0.0
 10
788.8153814135
 20
422.1951742928
 30
0.0
 10
786.9340197592
 20
420.6639432231
 30
0.0
 10
785.4149012165
 20
420.0496338293
 30
0.0
 10
784.6222185398
 20
419.8486344033
 30
0.0
  0
SPLINE
  5
81A
100
AcDbEntity
  8
KONSTRUKTIONSELEMENTE
100
AcDbSpline
 62
7
  6
CONTINUOUS
 70
0
 71
3
 72
11
 73
7
 74
0
 42
0.0000001
 43
0.0000001
 44
0.0000000001
 40
0.0
 40
0.0
 40
0.0
 40
0.0
 40
0.2596288118
 40
0.5120539831
 40
0.7578672444
 40
1.0
 40
1.0
 40
1.0
 40
1.0
 10
780.1154062145
 20
419.8483580218
 30
0.0
 10
779.3225969492
 20
420.0493047526
 30
0.0
 10
777.8032205354
 20
420.6634724818
 30
0.0
 10
775.9215000874
 20
422.1946939402
 30
0.0
 10
774.6654027573
 20
424.2145673723
 30
0.0
 10
774.3682487771
 20
425.766132929
 30
0.0
 10
774.3682487771
 20
426.5288961356
 30
0.0
  0
SPLINE
  5
81B
100
AcDbEntity
  8
KONSTRUKTIONSELEMENTE
100
AcDbSpline
 62
7
  6
CONTINUOUS
 70
0
 71
3
 72
11
 73
7
 74
0
 42
0.0000001
 43
0.0000001
 44
0.0000000001
 40
0.0
 40
0.0
 40
0.0
 40
0.0
 40
0.1990918273
 40
0.4250704141
 40
0.6904519705
 40
1.0
 40
1.0
 40
1.0
 40
1.0
 10
785.8682487771
 20
426.5288961356
 30
0.0
 10
785.8682487771
 20
426.3738178976
 30
0.0
 10
785.8190168298
 20
426.0410876516
 30
0.0
 10
785.5906644544
 20
425.5469456298
 30
0.0
 10
785.1880832165
 20
425.0623427766
 30
0.0
 10
784.8266716713
 20
424.7905523873
 30
0.0
 10
784.620413835
 20
424.6656745265
 30
0.0
  0
SPLINE
  5
81C
100
AcDbEntity
  8
KONSTRUKTIONSELEMENTE
100
AcDbSpline
 62
7
  6
CONTINUOUS
 70
0
 71
3
 72
11
 73
7
 74
0
 42
0.0000001
 43
0.0000001
 44
0.0000000001
 40
0.0
 40
0.0
 40
0.0
 40
0.0
 40
0.3095673287
 40
0.57495348
 40
0.8009397372
 40
1.0
 40
1.0
 40
1.0
 40
1.0
 10
780.1169050254
 20
424.6651795136
 30
0.0
 10
779.9105263098
 20
424.7900769065
 30
0.0
 10
779.5488545838
 20
425.0618637712
 30
0.0
 10
779.1460316612
 20
425.5466371674
 30
0.0
 10
778.9174982085
 20
426.0409272363
 30
0.0
 10
778.8682487771
 20
426.3737791514
 30
0.0
 10
778.8682487771
 20
426.5288961356
 30
0.0
  0
SPLINE
  5
81D
100
AcDbEntity
  8
KONSTRUKTIONSELEMENTE
100
AcDbSpline
 62
7
  6
CONTINUOUS
 70
0
 71
3
 72
11
 73
7
 74
0
 42
0.0000001
 43
0.0000001
 44
0.0000000001
 40
0.0
 40
0.0
 40
0.0
 40
0.0
 40
0.1990918273
 40
0.4250704141
 40
0.6904519705
 40
1.0
 40
1.0
 40
1.0
 40
1.0
 10
778.8682487771
 20
402.7734868513
 30
0.0
 10
778.8682487771
 20
402.9285650893
 30
0.0
 10
778.9174807244
 20
403.2612953353
 30
0.0
 10
779.1458330998
 20
403.7554373571
 30
0.0
 10
779.5484143377
 20
404.2400402103
 30
0.0
 10
779.9098258829
 20
404.5118305996
 30
0.0
 10
780.1160837192
 20
404.6367084604
 30
0.0
  0
SPLINE
  5
81E
100
AcDbEntity
  8
KONSTRUKTIONSELEMENTE
100
AcDbSpline
 62
7
  6
CONTINUOUS
 70
0
 71
3
 72
11
 73
7
 74
0
 42
0.0000001
 43
0.0000001
 44
0.0000000001
 40
0.0
 40
0.0
 40
0.0
 40
0.0
 40
0.3095673287
 40
0.57495348
 40
0.8009397372
 40
1.0
 40
1.0
 40
1.0
 40
1.0
 10
784.6195925288
 20
404.6372034733
 30
0.0
 10
784.8259712444
 20
404.5123060804
 30
0.0
 10
785.1876429704
 20
404.2405192157
 30
0.0
 10
785.590465893
 20
403.7557458195
 30
0.0
 10
785.8189993457
 20
403.2614557506
 30
0.0
 10
785.8682487771
 20
402.9286038355
 30
0.0
 10
785.8682487771
 20
402.7734868513
 30
0.0
  0
SPLINE
  5
81F
100
AcDbEntity
  8
KONSTRUKTIONSELEMENTE
100
AcDbSpline
 62
7
  6
CONTINUOUS
 70
0
 71
3
 72
11
 73
7
 74
0
 42
0.0000001
 43
0.0000001
 44
0.0000000001
 40
0.0
 40
0.0
 40
0.0
 40
0.0
 40
0.2421225749
 40
0.4879419518
 40
0.7403744145
 40
1.0
 40
1.0
 40
1.0
 40
1.0
 10
774.3682487771
 20
402.7734868513
 30
0.0
 10
774.3682487771
 20
403.5361251073
 30
0.0
 10
774.6653253612
 20
405.087481594
 30
0.0
 10
775.9211161407
 20
407.1072086941
 30
0.0
 10
777.802477795
 20
408.6384397638
 30
0.0
 10
779.3215963377
 20
409.2527491576
 30
0.0
 10
780.1142790144
 20
409.4537485836
 30
0.0
  0
SPLINE
  5
820
100
AcDbEntity
  8
KONSTRUKTIONSELEMENTE
100
AcDbSpline
 62
7
  6
CONTINUOUS
 70
0
 71
3
 72
11
 73
7
 74
0
 42
0.0000001
 43
0.0000001
 44
0.0000000001
 40
0.0
 40
0.0
 40
0.0
 40
0.0
 40
0.2596288118
 40
0.5120539831
 40
0.7578672444
 40
1.0
 40
1.0
 40
1.0
 40
1.0
 10
784.6210913397
 20
409.4540249651
 30
0.0
 10
785.413900605
 20
409.2530782343
 30
0.0
 10
786.9332770189
 20
408.6389105051
 30
0.0
 10
788.8149974669
 20
407.1076890467
 30
0.0
 10
790.0710947969
 20
405.0878156146
 30
0.0
 10
790.3682487771
 20
403.5362500579
 30
0.0
 10
790.3682487771
 20
402.7734868513
 30
0.0
  0
SPLINE
  5
821
100
AcDbEntity
  8
KONSTRUKTIONSELEMENTE
100
AcDbSpline
 62
7
  6
CONTINUOUS
 70
0
 71
3
 72
11
 73
7
 74
0
 42
0.0000001
 43
0.0000001
 44
0.0000000001
 40
0.0
 40
0.0
 40
0.0
 40
0.0
 40
0.2424244724
 40
0.4883582938
 40
0.7406340184
 40
1.0
 40
1.0
 40
1.0
 40
1.0
 10
790.3682487771
 20
390.4862061869
 30
0.0
 10
790.3682487771
 20
389.7432882239
 30
0.0
 10
790.0869153415
 20
388.2332943531
 30
0.0
 10
788.8935523244
 20
386.2522734806
 30
0.0
 10
787.0963577162
 20
384.7261869786
 30
0.0
 10
785.6366189959
 20
384.0907716539
 30
0.0
 10
784.8721470437
 20
383.8731789941
 30
0.0
  0
SPLINE
  5
822
100
AcDbEntity
  8
KONSTRUKTIONSELEMENTE
100
AcDbSpline
 62
7
  6
CONTINUOUS
 70
0
 71
3
 72
11
 73
7
 74
0
 42
0.0000001
 43
0.0000001
 44
0.0000000001
 40
0.0
 40
0.0
 40
0.0
 40
0.0
 40
0.2593662387
 40
0.5116340614
 40
0.7575628786
 40
1.0
 40
1.0
 40
1.0
 40
1.0
 10
779.8638282332
 20
383.8733415683
 30
0.0
 10
779.0994137083
 20
384.0909697929
 30
0.0
 10
777.6398069366
 20
384.7263930258
 30
0.0
 10
775.8428195562
 20
386.25244587
 30
0.0
 10
774.6495558562
 20
388.2333600077
 30
0.0
 10
774.3682487771
 20
389.7432927233
 30
0.0
 10
774.3682487771
 20
390.4862061869
 30
0.0
  0
SPLINE
  5
823
100
AcDbEntity
  8
KONSTRUKTIONSELEMENTE
100
AcDbSpline
 62
7
  6
CONTINUOUS
 70
0
 71
3
 72
10
 73
6
 74
0
 42
0.0000001
 43
0.0000001
 44
0.0000000001
 40
0.0
 40
0.0
 40
0.0
 40
0.0
 40
0.205371502
 40
0.4343817892
 40
1.0
 40
1.0
 40
1.0
 40
1.0
 10
785.8682487771
 20
390.4862061869
 30
0.0
 10
785.8682487771
 20
390.3475540031
 30
0.0
 10
785.8294623277
 20
390.0529750995
 30
0.0
 10
785.5717740537
 20
389.422580009
 30
0.0
 10
785.1825808679
 20
389.0193321924
 30
0.0
 10
784.87499251
 20
388.7930352125
 30
0.0
  0
SPLINE
  5
824
100
AcDbEntity
  8
KONSTRUKTIONSELEMENTE
100
AcDbSpline
 62
7
  6
CONTINUOUS
 70
0
 71
3
 72
10
 73
6
 74
0
 42
0.0000001
 43
0.0000001
 44
0.0000000001
 40
0.0
 40
0.0
 40
0.0
 40
0.0
 40
0.5656309492
 40
0.794648515
 40
1.0
 40
1.0
 40
1.0
 40
1.0
 10
779.8616878273
 20
388.7929193234
 30
0.0
 10
779.5540414524
 20
389.0192185094
 30
0.0
 10
779.1647823506
 20
389.4225031819
 30
0.0
 10
778.9070277037
 20
390.0529503479
 30
0.0
 10
778.8682487771
 20
390.3475531983
 30
0.0
 10
778.8682487771
 20
390.4862061869
 30
0.0
  0
SPLINE
  5
825
100
AcDbEntity
  8
KONSTRUKTIONSELEMENTE
100
AcDbSpline
 62
7
  6
CONTINUOUS
 70
0
 71
3
 72
15
 73
11
 74
0
 42
0.0000001
 43
0.0000001
 44
0.0000000001
 40
0.0
 40
0.0
 40
0.0
 40
0.0
 40
0.11653297
 40
0.2342764716
 40
0.3542977337
 40
0.4773604472
 40
0.6038138616
 40
0.7335263169
 40
0.8659081684
 40
1.0
 40
1.0
 40
1.0
 40
1.0
 10
749.3682487771
 20
479.3642029923
 30
0.0
 10
749.3682487771
 20
477.6064964699
 30
0.0
 10
749.7702170787
 20
474.0603127577
 30
0.0
 10
751.5439762574
 20
468.9762954732
 30
0.0
 10
754.4019949739
 20
464.2984553968
 30
0.0
 10
758.2186494696
 20
460.1890205859
 30
0.0
 10
762.8444650303
 20
456.7723092508
 30
0.0
 10
768.1149838445
 20
454.145846291
 30
0.0
 10
773.8504120333
 20
452.3826040655
 30
0.0
 10
777.8491297158
 20
451.8167501577
 30
0.0
 10
779.8675987081
 20
451.6882868036
 30
0.0
  0
SPLINE
  5
826
100
AcDbEntity
  8
KONSTRUKTIONSELEMENTE
100
AcDbSpline
 62
7
  6
CONTINUOUS
 70
0
 71
3
 72
15
 73
11
 74
0
 42
0.0000001
 43
0.0000001
 44
0.0000000001
 40
0.0
 40
0.0
 40
0.0
 40
0.0
 40
0.1340925842
 40
0.2664746975
 40
0.3961869832
 40
0.5226399369
 40
0.6457020744
 40
0.7657228832
 40
0.883466321
 40
1.0
 40
1.0
 40
1.0
 40
1.0
 10
784.8682719932
 20
451.6882474976
 30
0.0
 10
786.8867815936
 20
451.8166922167
 30
0.0
 10
790.8855780891
 20
452.3824904251
 30
0.0
 10
796.6211239704
 20
454.1456811446
 30
0.0
 10
801.8917394921
 20
456.7721223617
 30
0.0
 10
806.5176336974
 20
460.1888304059
 30
0.0
 10
810.3343652573
 20
464.2982685688
 30
0.0
 10
813.1924531899
 20
468.9761368605
 30
0.0
 10
814.9662662706
 20
474.0602183983
 30
0.0
 10
815.3682487771
 20
477.6064614495
 30
0.0
 10
815.3682487771
 20
479.3642029923
 30
0.0
  0
SPLINE
  5
827
100
AcDbEntity
  8
KONSTRUKTIONSELEMENTE
100
AcDbSpline
 62
7
  6
CONTINUOUS
 70
0
 71
3
 72
13
 73
9
 74
0
 42
0.0000001
 43
0.0000001
 44
0.0000000001
 40
0.0
 40
0.0
 40
0.0
 40
0.0
 40
0.1202124768
 40
0.2409819354
 40
0.3628265389
 40
0.4862181693
 40
0.7385078934
 40
1.0
 40
1.0
 40
1.0
 40
1.0
 10
815.3682487771
 20
479.3642029923
 30
0.0
 10
815.3682487771
 20
480.5272360575
 30
0.0
 10
815.1939274934
 20
482.8623785069
 30
0.0
 10
814.4161487777
 20
486.297666338
 30
0.0
 10
813.138194282
 20
489.6135092376
 30
0.0
 10
810.7882151152
 20
493.8300506183
 30
0.0
 10
806.7081912588
 20
498.54944524
 30
0.0
 10
802.5919474922
 20
501.4280429748
 30
0.0
 10
800.3715786243
 20
502.6405979834
 30
0.0
  0
SPLINE
  5
828
100
AcDbEntity
  8
KONSTRUKTIONSELEMENTE
100
AcDbSpline
 62
7
  6
CONTINUOUS
 70
0
 71
3
 72
13
 73
9
 74
0
 42
0.0000001
 43
0.0000001
 44
0.0000000001
 40
0.0
 40
0.0
 40
0.0
 40
0.0
 40
0.2614929443
 40
0.5137823159
 40
0.6371735733
 40
0.7590178301
 40
0.8797871987
 40
1.0
 40
1.0
 40
1.0
 40
1.0
 10
764.3677101869
 20
502.6421229616
 30
0.0
 10
762.1469693365
 20
501.4296561913
 30
0.0
 10
758.0300367248
 20
498.5510614119
 30
0.0
 10
753.9492264234
 20
493.8314357692
 30
0.0
 10
751.5987765391
 20
489.6145616946
 30
0.0
 10
750.320555702
 20
486.2984118621
 30
0.0
 10
749.5426093315
 20
482.8627664121
 30
0.0
 10
749.3682487771
 20
480.5273661196
 30
0.0
 10
749.3682487771
 20
479.3642029923
 30
0.0
  0
SPLINE
  5
829
100
AcDbEntity
  8
KONSTRUKTIONSELEMENTE
100
AcDbSpline
 62
7
  6
CONTINUOUS
 70
0
 71
3
 72
13
 73
9
 74
0
 42
0.0000001
 43
0.0000001
 44
0.0000000001
 40
0.0
 40
0.0
 40
0.0
 40
0.0
 40
0.1079279626
 40
0.2187189271
 40
0.3346298197
 40
0.4568685151
 40
0.7193278832
 40
1.0
 40
1.0
 40
1.0
 40
1.0
 10
757.3682487771
 20
479.3642029923
 30
0.0
 10
757.3682487771
 20
478.1898088888
 30
0.0
 10
757.6432227249
 20
475.8013540466
 30
0.0
 10
758.8676600695
 20
472.3425482152
 30
0.0
 10
760.8785309408
 20
469.089242146
 30
0.0
 10
764.6210569939
 20
465.0889554767
 30
0.0
 10
770.9607983148
 20
461.2886146207
 30
0.0
 10
776.8224343968
 20
459.9524632876
 30
0.0
 10
779.8667604287
 20
459.7086811681
 30
0.0
  0
SPLINE
  5
82A
100
AcDbEntity
  8
KONSTRUKTIONSELEMENTE
100
AcDbSpline
 62
7
  6
CONTINUOUS
 70
0
 71
3
 72
13
 73
9
 74
0
 42
0.0000001
 43
0.0000001
 44
0.0000000001
 40
0.0
 40
0.0
 40
0.0
 40
0.0
 40
0.2806714785
 40
0.543131585
 40
0.6653707495
 40
0.7812819145
 40
0.8920726531
 40
1.0
 40
1.0
 40
1.0
 40
1.0
 10
784.8699524183
 20
459.7087028649
 30
0.0
 10
787.9142492618
 20
459.9525095453
 30
0.0
 10
793.7758434757
 20
461.2886643678
 30
0.0
 10
800.1155224429
 20
465.0890294524
 30
0.0
 10
803.8580205356
 20
469.089313913
 30
0.0
 10
805.8688656047
 20
472.3426130612
 30
0.0
 10
807.0932818426
 20
475.8013935113
 30
0.0
 10
807.3682487771
 20
478.1898233515
 30
0.0
 10
807.3682487771
 20
479.3642029923
 30
0.0
  0
SPLINE
  5
82B
100
AcDbEntity
  8
KONSTRUKTIONSELEMENTE
100
AcDbSpline
 62
7
  6
CONTINUOUS
 70
0
 71
3
 72
11
 73
7
 74
0
 42
0.0000001
 43
0.0000001
 44
0.0000000001
 40
0.0
 40
0.0
 40
0.0
 40
0.0
 40
0.2350262884
 40
0.4769632125
 40
0.7310945598
 40
1.0
 40
1.0
 40
1.0
 40
1.0
 10
807.3682487771
 20
479.3642029923
 30
0.0
 10
807.3682487771
 20
480.6052862515
 30
0.0
 10
807.0602873512
 20
483.1338813443
 30
0.0
 10
805.6908739684
 20
486.7789485263
 30
0.0
 10
803.4501007408
 20
490.1767358456
 30
0.0
 10
801.4728199546
 20
492.1353753766
 30
0.0
 10
800.37616526
 20
493.0374334311
 30
0.0
  0
SPLINE
  5
82C
100
AcDbEntity
  8
KONSTRUKTIONSELEMENTE
100
AcDbSpline
 62
7
  6
CONTINUOUS
 70
0
 71
3
 72
11
 73
7
 74
0
 42
0.0000001
 43
0.0000001
 44
0.0000000001
 40
0.0
 40
0.0
 40
0.0
 40
0.0
 40
0.2689094473
 40
0.5230425357
 40
0.76497772
 40
1.0
 40
1.0
 40
1.0
 40
1.0
 10
764.3619125384
 20
493.0387353154
 30
0.0
 10
763.2650241066
 20
492.1366407678
 30
0.0
 10
761.2873019813
 20
490.1778907606
 30
0.0
 10
759.0460142888
 20
486.7797827204
 30
0.0
 10
757.6762801576
 20
483.1343167661
 30
0.0
 10
757.3682487771
 20
480.6054246245
 30
0.0
 10
757.3682487771
 20
479.3642029923
 30
0.0
  0
SPLINE
  5
82D
100
AcDbEntity
  8
RUNDUNGEN
100
AcDbSpline
 62
7
  6
CONTINUOUS
 70
0
 71
3
 72
8
 73
4
 74
0
 42
0.0000001
 43
0.0000001
 44
0.0000000001
 40
0.0
 40
0.0
 40
0.0
 40
0.0
 40
1.0
 40
1.0
 40
1.0
 40
1.0
 10
804.677523562
 20
256.1535916064
 30
0.0
 10
804.6293996401
 20
256.3704141151
 30
0.0
 10
804.6069487031
 20
256.5940411473
 30
0.0
 10
804.6069487771
 20
256.8161400265
 30
0.0
  0
SPLINE
  5
82E
100
AcDbEntity
  8
RUNDUNGEN
100
AcDbSpline
 62
7
  6
CONTINUOUS
 70
0
 71
3
 72
11
 73
7
 74
0
 42
0.0000001
 43
0.0000001
 44
0.0000000001
 40
0.0
 40
0.0
 40
0.0
 40
0.0
 40
0.2500104169
 40
0.5000108951
 40
0.75000483
 40
1.0
 40
1.0
 40
1.0
 40
1.0
 10
825.8465936403
 20
262.1148703371
 30
0.0
 10
826.0317455407
 20
262.1881801157
 30
0.0
 10
826.3820234339
 20
262.3924341374
 30
0.0
 10
826.7903055045
 20
262.8407017827
 30
0.0
 10
827.0460365133
 20
263.3905410473
 30
0.0
 10
827.0979456446
 20
263.7928657139
 30
0.0
 10
827.0929679074
 20
263.9919283556
 30
0.0
  0
SPLINE
  5
82F
100
AcDbEntity
  8
RUNDUNGEN
100
AcDbSpline
 62
7
  6
CONTINUOUS
 70
0
 71
3
 72
11
 73
7
 74
0
 42
0.0000001
 43
0.0000001
 44
0.0000000001
 40
0.0
 40
0.0
 40
0.0
 40
0.0
 40
0.250034634
 40
0.5000539361
 40
0.7500425615
 40
1.0
 40
1.0
 40
1.0
 40
1.0
 10
768.5568488561
 20
220.6622498001
 30
0.0
 10
768.8131720425
 20
220.6622495066
 30
0.0
 10
769.3312737904
 20
220.7631295396
 30
0.0
 10
769.9894502305
 20
221.1964055315
 30
0.0
 10
770.4335837437
 20
221.847774529
 30
0.0
 10
770.5382487391
 20
222.3660198755
 30
0.0
 10
770.5382487771
 20
222.6222639249
 30
0.0
  0
SPLINE
  5
830
100
AcDbEntity
  8
0
100
AcDbSpline
 62
7
  6
CONTINUOUS
 70
0
 71
3
 72
11
 73
7
 74
0
 42
0.0000001
 43
0.0000001
 44
0.0000000001
 40
0.0
 40
0.0
 40
0.0
 40
0.0
 40
0.2339248035
 40
0.4803478662
 40
0.7372255944
 40
1.0
 40
1.0
 40
1.0
 40
1.0
 10
777.6058415397
 20
318.0441587472
 30
0.0
 10
777.0912547254
 20
318.8060489239
 30
0.0
 10
775.7942294525
 20
320.2173012578
 30
0.0
 10
773.3235974793
 20
321.7843783997
 30
0.0
 10
770.4505736448
 20
322.7666623612
 30
0.0
 10
768.4010247302
 20
322.9885027509
 30
0.0
 10
767.3682487771
 20
322.9885027509
 30
0.0
  0
SPLINE
  5
831
100
AcDbEntity
  8
0
100
AcDbSpline
 62
7
  6
CONTINUOUS
 70
0
 71
3
 72
9
 73
5
 74
0
 42
0.0000001
 43
0.0000001
 44
0.0000000001
 40
0.0
 40
0.0
 40
0.0
 40
0.0
 40
0.4883303939
 40
1.0
 40
1.0
 40
1.0
 40
1.0
 10
776.5147904619
 20
345.3005719505
 30
0.0
 10
775.2770765419
 20
346.3044094632
 30
0.0
 10
772.323374837
 20
347.8688459231
 30
0.0
 10
769.0380343472
 20
348.3822161238
 30
0.0
 10
767.3682487771
 20
348.3822161238
 30
0.0
  0
SPLINE
  5
832
100
AcDbEntity
  8
RUNDUNGEN
100
AcDbSpline
 62
7
  6
CONTINUOUS
 70
0
 71
3
 72
9
 73
5
 74
0
 42
0.0000001
 43
0.0000001
 44
0.0000000001
 40
0.0
 40
0.0
 40
0.0
 40
0.0
 40
0.5100364627
 40
1.0
 40
1.0
 40
1.0
 40
1.0
 10
739.4533365114
 20
294.4817379185
 30
0.0
 10
739.1142875864
 20
294.0850946308
 30
0.0
 10
738.5655305218
 20
293.1952861555
 30
0.0
 10
738.3682487771
 20
292.1639286138
 30
0.0
 10
738.3682487771
 20
291.6626600561
 30
0.0
  0
SPLINE
  5
833
100
AcDbEntity
  8
RUNDUNGEN
100
AcDbSpline
 62
7
  6
CONTINUOUS
 70
0
 71
3
 72
9
 73
5
 74
0
 42
0.0000001
 43
0.0000001
 44
0.0000000001
 40
0.0
 40
0.0
 40
0.0
 40
0.0
 40
0.5207218849
 40
1.0
 40
1.0
 40
1.0
 40
1.0
 10
725.7085997142
 20
376.6955135924
 30
0.0
 10
725.4607011629
 20
376.5533248248
 30
0.0
 10
725.0305149106
 20
376.1743048439
 30
0.0
 10
724.8559024256
 20
375.6174138125
 30
0.0
 10
724.8557670584
 20
375.3543769934
 30
0.0
  0
SPLINE
  5
834
100
AcDbEntity
  8
RUNDUNGEN
100
AcDbSpline
 62
7
  6
CONTINUOUS
 70
0
 71
3
 72
9
 73
5
 74
0
 42
0.0000001
 43
0.0000001
 44
0.0000000001
 40
0.0
 40
0.0
 40
0.0
 40
0.0
 40
0.4894696503
 40
1.0
 40
1.0
 40
1.0
 40
1.0
 10
735.3749338475
 20
380.2398950772
 30
0.0
 10
735.0595328734
 20
380.6088733281
 30
0.0
 10
734.0809942239
 20
381.081877639
 30
0.0
 10
733.0286578809
 20
380.8941264696
 30
0.0
 10
732.5894768862
 20
380.6422225997
 30
0.0
  0
SPLINE
  5
835
100
AcDbEntity
  8
0
100
AcDbSpline
 62
7
  6
CONTINUOUS
 70
0
 71
3
 72
9
 73
5
 74
0
 42
0.0000001
 43
0.0000001
 44
0.0000000001
 40
0.0
 40
0.0
 40
0.0
 40
0.0
 40
0.4930606418
 40
1.0
 40
1.0
 40
1.0
 40
1.0
 10
770.8967200501
 20
376.6727472698
 30
0.0
 10
772.2450234954
 20
377.446102355
 30
0.0
 10
775.1640855202
 20
378.7077922887
 30
0.0
 10
778.2762504759
 20
379.3425249188
 30
0.0
 10
779.8658838736
 20
379.506816609
 30
0.0
  0
SPLINE
  5
836
100
AcDbEntity
  8
0
100
AcDbSpline
 62
7
  6
CONTINUOUS
 70
0
 71
3
 72
9
 73
5
 74
0
 42
0.0000001
 43
0.0000001
 44
0.0000000001
 40
0.0
 40
0.0
 40
0.0
 40
0.0
 40
0.5069393582
 40
1.0
 40
1.0
 40
1.0
 40
1.0
 10
784.8706136806
 20
379.506816609
 30
0.0
 10
786.4602470783
 20
379.3425249188
 30
0.0
 10
789.5724120341
 20
378.7077922887
 30
0.0
 10
792.4914740588
 20
377.446102355
 30
0.0
 10
793.8397775041
 20
376.6727472698
 30
0.0
  0
SPLINE
  5
837
100
AcDbEntity
  8
RUNDUNGEN
100
AcDbSpline
 62
7
  6
CONTINUOUS
 70
0
 71
3
 72
13
 73
9
 74
0
 42
0.0000001
 43
0.0000001
 44
0.0000000001
 40
0.0
 40
0.0
 40
0.0
 40
0.0
 40
0.2509768001
 40
0.5089114091
 40
0.6369573314
 40
0.762124946
 40
0.8833219968
 40
1.0
 40
1.0
 40
1.0
 40
1.0
 10
834.1129855743
 20
379.5145914548
 30
0.0
 10
832.1371594394
 20
380.6478787681
 30
0.0
 10
827.6831983712
 20
382.2155839285
 30
0.0
 10
821.801884137
 20
382.3120237916
 30
0.0
 10
817.2610659519
 20
381.2786737145
 30
0.0
 10
814.1034255044
 20
379.9766292929
 30
0.0
 10
811.3112367109
 20
378.195212193
 30
0.0
 10
809.7319220128
 20
376.6985719881
 30
0.0
 10
809.0438729228
 20
375.8936437519
 30
0.0
  0
SPLINE
  5
838
100
AcDbEntity
  8
RUNDUNGEN
100
AcDbSpline
 62
7
  6
CONTINUOUS
 70
0
 71
3
 72
9
 73
5
 74
0
 42
0.0000001
 43
0.0000001
 44
0.0000000001
 40
0.0
 40
0.0
 40
0.0
 40
0.0
 40
0.4792926302
 40
1.0
 40
1.0
 40
1.0
 40
1.0
 10
824.7579478772
 20
357.6497757139
 30
0.0
 10
824.7578083614
 20
357.9062397932
 30
0.0
 10
824.5875526599
 20
358.4491946881
 30
0.0
 10
824.1681275542
 20
358.8187276779
 30
0.0
 10
823.9264375226
 20
358.957355385
 30
0.0
  0
SPLINE
  5
839
100
AcDbEntity
  8
RUNDUNGEN
100
AcDbSpline
 62
7
  6
CONTINUOUS
 70
0
 71
3
 72
9
 73
5
 74
0
 42
0.0000001
 43
0.0000001
 44
0.0000000001
 40
0.0
 40
0.0
 40
0.0
 40
0.0
 40
0.4899475725
 40
1.0
 40
1.0
 40
1.0
 40
1.0
 10
824.7579495574
 20
354.7818299979
 30
0.0
 10
824.7580290686
 20
354.6187907271
 30
0.0
 10
824.6940732337
 20
354.2832777635
 30
0.0
 10
824.5155938105
 20
353.9938210683
 30
0.0
 10
824.4053099581
 20
353.8648032582
 30
0.0
  0
SPLINE
  5
83A
100
AcDbEntity
  8
RUNDUNGEN
100
AcDbSpline
 62
7
  6
CONTINUOUS
 70
0
 71
3
 72
11
 73
7
 74
0
 42
0.0000001
 43
0.0000001
 44
0.0000000001
 40
0.0
 40
0.0
 40
0.0
 40
0.0
 40
0.2368725802
 40
0.479989656
 40
0.7337910193
 40
1.0
 40
1.0
 40
1.0
 40
1.0
 10
838.3098281196
 20
374.5479448382
 30
0.0
 10
838.3098941672
 20
374.9416166716
 30
0.0
 10
838.1905383718
 20
375.7439777039
 30
0.0
 10
837.6688798591
 20
376.863022593
 30
0.0
 10
836.8416923156
 20
377.8419093632
 30
0.0
 10
836.1350688476
 20
378.3547721369
 30
0.0
 10
835.7512896629
 20
378.574898834
 30
0.0
  0
SPLINE
  5
83B
100
AcDbEntity
  8
RUNDUNGEN
100
AcDbSpline
 62
7
  6
CONTINUOUS
 70
0
 71
3
 72
9
 73
5
 74
0
 42
0.0000001
 43
0.0000001
 44
0.0000000001
 40
0.0
 40
0.0
 40
0.0
 40
0.0
 40
0.4899449596
 40
1.0
 40
1.0
 40
1.0
 40
1.0
 10
838.3098281196
 20
371.6800626565
 30
0.0
 10
838.3097440475
 20
371.1789568949
 30
0.0
 10
838.1123160182
 20
370.1479468523
 30
0.0
 10
837.5637073259
 20
369.2584223144
 30
0.0
 10
837.2247433105
 20
368.8618783599
 30
0.0
  0
SPLINE
  5
83C
100
AcDbEntity
  8
RUNDUNGEN
100
AcDbSpline
 62
7
  6
CONTINUOUS
 70
0
 71
3
 72
9
 73
5
 74
0
 42
0.0000001
 43
0.0000001
 44
0.0000000001
 40
0.0
 40
0.0
 40
0.0
 40
0.0
 40
0.4912288
 40
1.0
 40
1.0
 40
1.0
 40
1.0
 10
761.788930541
 20
326.0503925784
 30
0.0
 10
761.5364887022
 20
327.2433629773
 30
0.0
 10
760.6922545972
 20
329.6115759098
 30
0.0
 10
759.2863344271
 20
331.6897388251
 30
0.0
 10
758.4657282338
 20
332.6497416873
 30
0.0
  0
SPLINE
  5
83D
100
AcDbEntity
  8
RUNDUNGEN
100
AcDbSpline
 62
7
  6
CONTINUOUS
 70
0
 71
3
 72
11
 73
7
 74
0
 42
0.0000001
 43
0.0000001
 44
0.0000000001
 40
0.0
 40
0.0
 40
0.0
 40
0.0
 40
0.243706026
 40
0.4901196846
 40
0.7416244645
 40
1.0
 40
1.0
 40
1.0
 40
1.0
 10
762.082687348
 20
326.1206983426
 30
0.0
 10
762.082687373
 20
325.2863316074
 30
0.0
 10
761.9248480614
 20
323.6042412331
 30
0.0
 10
761.2220895553
 20
321.1502418535
 30
0.0
 10
760.0720132656
 20
318.8160150852
 30
0.0
 10
759.0405014825
 20
317.3961816404
 30
0.0
 10
758.4657282338
 20
316.7237714534
 30
0.0
  0
SPLINE
  5
83E
100
AcDbEntity
  8
RUNDUNGEN
100
AcDbSpline
 62
7
  6
CONTINUOUS
 70
0
 71
3
 72
9
 73
5
 74
0
 42
0.0000001
 43
0.0000001
 44
0.0000000001
 40
0.0
 40
0.0
 40
0.0
 40
0.0
 40
0.4899633717
 40
1.0
 40
1.0
 40
1.0
 40
1.0
 10
826.3682487771
 20
291.6626600561
 30
0.0
 10
826.3682487771
 20
292.1639284445
 30
0.0
 10
826.1709671059
 20
293.1952859786
 30
0.0
 10
825.6222100781
 20
294.0850945019
 30
0.0
 10
825.2831610428
 20
294.4817379185
 30
0.0
  0
SPLINE
  5
83F
100
AcDbEntity
  8
BEZUGSACHSEN
100
AcDbSpline
 62
7
  6
CONTINUOUS
 70
0
 71
3
 72
17
 73
13
 74
0
 42
0.0000001
 43
0.0000001
 44
0.0000000001
 40
0.0
 40
0.0
 40
0.0
 40
0.0
 40
0.0564615519
 40
0.1139474006
 40
0.2342509487
 40
0.3639877024
 40
0.5
 40
0.6360122976
 40
0.7657490513
 40
0.8860525994
 40
0.9435384481
 40
1.0
 40
1.0
 40
1.0
 40
1.0
 10
787.8682487771
 20
371.0344902573
 30
0.0
 10
787.8682487771
 20
370.7394078251
 30
0.0
 10
787.7955925915
 20
370.141463438
 30
0.0
 10
787.3642292029
 20
368.9853619511
 30
0.0
 10
786.2962127227
 20
367.7152766967
 30
0.0
 10
784.4776037587
 20
366.7511921079
 30
0.0
 10
782.3682487771
 20
366.4155477254
 30
0.0
 10
780.2588937956
 20
366.7511921079
 30
0.0
 10
778.4402848315
 20
367.7152766967
 30
0.0
 10
777.3722683513
 20
368.9853619511
 30
0.0
 10
776.9409049627
 20
370.141463438
 30
0.0
 10
776.8682487771
 20
370.7394078251
 30
0.0
 10
776.8682487771
 20
371.0344902573
 30
0.0
  0
SPLINE
  5
840
100
AcDbEntity
  8
BEZUGSACHSEN
100
AcDbSpline
 62
7
  6
CONTINUOUS
 70
0
 71
3
 72
9
 73
5
 74
0
 42
0.0000001
 43
0.0000001
 44
0.0000000001
 40
0.0
 40
0.0
 40
0.0
 40
0.0
 40
0.4810813889
 40
1.0
 40
1.0
 40
1.0
 40
1.0
 10
777.1545610537
 20
369.6012823987
 30
0.0
 10
777.3865259306
 20
370.1669179199
 30
0.0
 10
778.1517738989
 20
371.2360242223
 30
0.0
 10
779.2564992383
 20
371.923476488
 30
0.0
 10
779.8647725268
 20
372.1781491596
 30
0.0
  0
SPLINE
  5
841
100
AcDbEntity
  8
BEZUGSACHSEN
100
AcDbSpline
 62
7
  6
CONTINUOUS
 70
0
 71
3
 72
9
 73
5
 74
0
 42
0.0000001
 43
0.0000001
 44
0.0000000001
 40
0.0
 40
0.0
 40
0.0
 40
0.0
 40
0.5189186111
 40
1.0
 40
1.0
 40
1.0
 40
1.0
 10
784.8717250274
 20
372.1781491596
 30
0.0
 10
785.479998316
 20
371.923476488
 30
0.0
 10
786.5847236553
 20
371.2360242223
 30
0.0
 10
787.3499716237
 20
370.1669179199
 30
0.0
 10
787.5819365005
 20
369.6012823987
 30
0.0
  0
SPLINE
  5
842
100
AcDbEntity
  8
RUNDUNGEN
100
AcDbSpline
 62
7
  6
CONTINUOUS
 70
0
 71
3
 72
10
 73
6
 74
0
 42
0.0000001
 43
0.0000001
 44
0.0000000001
 40
0.0
 40
0.0
 40
0.0
 40
0.0
 40
0.5287465116
 40
0.7715851181
 40
1.0
 40
1.0
 40
1.0
 40
1.0
 10
816.8682487771
 20
273.9614028734
 30
0.0
 10
816.7437962266
 20
273.9614028734
 30
0.0
 10
816.5519604415
 20
274.0203850496
 30
0.0
 10
816.3966554415
 20
274.2048184145
 30
0.0
 10
816.3682487771
 20
274.3172162437
 30
0.0
 10
816.3682487771
 20
274.3709788956
 30
0.0
  0
SPLINE
  5
843
100
AcDbEntity
  8
RUNDUNGEN
100
AcDbSpline
 62
7
  6
CONTINUOUS
 70
0
 71
3
 72
12
 73
8
 74
0
 42
0.0000001
 43
0.0000001
 44
0.0000000001
 40
0.0
 40
0.0
 40
0.0
 40
0.0
 40
0.1129252919
 40
0.2278923346
 40
0.4685006758
 40
0.7279747127
 40
1.0
 40
1.0
 40
1.0
 40
1.0
 10
826.3682487771
 20
278.8763151392
 30
0.0
 10
826.3682487771
 20
278.5544001375
 30
0.0
 10
826.2889972601
 20
277.9020990974
 30
0.0
 10
825.8184365869
 20
276.6409117453
 30
0.0
 10
824.6529329814
 20
275.2553451593
 30
0.0
 10
822.6709536874
 20
274.2036052299
 30
0.0
 10
821.1437085465
 20
273.9614028734
 30
0.0
 10
820.3682487771
 20
273.9614028734
 30
0.0
  0
SPLINE
  5
844
100
AcDbEntity
  8
RUNDUNGEN
100
AcDbSpline
 62
7
  6
CONTINUOUS
 70
0
 71
3
 72
9
 73
5
 74
0
 42
0.0000001
 43
0.0000001
 44
0.0000000001
 40
0.0
 40
0.0
 40
0.0
 40
0.0
 40
0.4894476479
 40
1.0
 40
1.0
 40
1.0
 40
1.0
 10
833.7546058706
 20
364.8022674263
 30
0.0
 10
833.4471037539
 20
364.4425298146
 30
0.0
 10
832.4930450044
 20
363.981338761
 30
0.0
 10
831.4670052438
 20
364.1643812417
 30
0.0
 10
831.0387853333
 20
364.4099980919
 30
0.0
  0
SPLINE
  5
845
100
AcDbEntity
  8
RUNDUNGEN
100
AcDbSpline
 62
7
  6
CONTINUOUS
 70
0
 71
3
 72
9
 73
5
 74
0
 42
0.0000001
 43
0.0000001
 44
0.0000000001
 40
0.0
 40
0.0
 40
0.0
 40
0.0
 40
0.5100519425
 40
1.0
 40
1.0
 40
1.0
 40
1.0
 10
725.2174484983
 20
371.5459186466
 30
0.0
 10
725.1043269333
 20
371.6782562124
 30
0.0
 10
724.9212579124
 20
371.9751647623
 30
0.0
 10
724.8556742716
 20
372.3193167942
 30
0.0
 10
724.855768711
 20
372.4865515444
 30
0.0
  0
SPLINE
  5
846
100
AcDbEntity
  8
RUNDUNGEN
100
AcDbSpline
 62
7
  6
CONTINUOUS
 70
0
 71
3
 72
12
 73
8
 74
0
 42
0.0000001
 43
0.0000001
 44
0.0000000001
 40
0.0
 40
0.0
 40
0.0
 40
0.0
 40
0.272025514
 40
0.531499521
 40
0.7721078617
 40
0.8870747862
 40
1.0
 40
1.0
 40
1.0
 40
1.0
 10
744.3682487771
 20
273.9614028734
 30
0.0
 10
743.592788363
 20
273.9614028734
 30
0.0
 10
742.0655426275
 20
274.2036054966
 30
0.0
 10
740.0835631315
 20
275.2553462847
 30
0.0
 10
738.9180603361
 20
276.6409129808
 30
0.0
 10
738.4475001247
 20
277.902099878
 30
0.0
 10
738.3682487771
 20
278.5544003609
 30
0.0
 10
738.3682487771
 20
278.8763151392
 30
0.0
  0
SPLINE
  5
847
100
AcDbEntity
  8
RUNDUNGEN
100
AcDbSpline
 62
7
  6
CONTINUOUS
 70
0
 71
3
 72
10
 73
6
 74
0
 42
0.0000001
 43
0.0000001
 44
0.0000000001
 40
0.0
 40
0.0
 40
0.0
 40
0.0
 40
0.2284261672
 40
0.4712729379
 40
1.0
 40
1.0
 40
1.0
 40
1.0
 10
748.3682487771
 20
274.3709788956
 30
0.0
 10
748.3682487771
 20
274.3172135559
 30
0.0
 10
748.3398386124
 20
274.2048111609
 30
0.0
 10
748.1845291243
 20
274.0203813044
 30
0.0
 10
747.9926968227
 20
273.9614028734
 30
0.0
 10
747.8682487771
 20
273.9614028734
 30
0.0
  0
SPLINE
  5
848
100
AcDbEntity
  8
RUNDUNGEN
100
AcDbSpline
 62
7
  6
CONTINUOUS
 70
0
 71
3
 72
9
 73
5
 74
0
 42
0.0000001
 43
0.0000001
 44
0.0000000001
 40
0.0
 40
0.0
 40
0.0
 40
0.0
 40
0.4830594406
 40
1.0
 40
1.0
 40
1.0
 40
1.0
 10
768.5481528532
 20
288.5191708081
 30
0.0
 10
767.9286203491
 20
287.794398095
 30
0.0
 10
766.2390407652
 20
286.6262790532
 30
0.0
 10
764.2440157831
 20
286.2486835378
 30
0.0
 10
763.2236645653
 20
286.2486835378
 30
0.0
  0
SPLINE
  5
849
100
AcDbEntity
  8
RUNDUNGEN
100
AcDbSpline
 62
7
  6
CONTINUOUS
 70
0
 71
3
 72
9
 73
5
 74
0
 42
0.0000001
 43
0.0000001
 44
0.0000000001
 40
0.0
 40
0.0
 40
0.0
 40
0.0
 40
0.5169408637
 40
1.0
 40
1.0
 40
1.0
 40
1.0
 10
801.5128329889
 20
286.2486835378
 30
0.0
 10
800.4924811696
 20
286.2486835378
 30
0.0
 10
798.497456122
 20
286.626279299
 30
0.0
 10
796.8078768155
 20
287.7943985508
 30
0.0
 10
796.1883447011
 20
288.5191708081
 30
0.0
  0
SPLINE
  5
84A
100
AcDbEntity
  8
RUNDUNGEN
100
AcDbSpline
 62
7
  6
CONTINUOUS
 70
0
 71
3
 72
12
 73
8
 74
0
 42
0.0000001
 43
0.0000001
 44
0.0000000001
 40
0.0
 40
0.0
 40
0.0
 40
0.0
 40
0.1129252919
 40
0.2278923346
 40
0.4685006758
 40
0.7279747127
 40
1.0
 40
1.0
 40
1.0
 40
1.0
 10
816.3682487771
 20
281.333771272
 30
0.0
 10
816.3682487771
 20
281.6556862737
 30
0.0
 10
816.2889972601
 20
282.3079873138
 30
0.0
 10
815.8184365869
 20
283.5691746659
 30
0.0
 10
814.6529329814
 20
284.9547412519
 30
0.0
 10
812.6709536874
 20
286.0064811813
 30
0.0
 10
811.1437085465
 20
286.2486835378
 30
0.0
 10
810.3682487771
 20
286.2486835378
 30
0.0
  0
SPLINE
  5
84B
100
AcDbEntity
  8
RUNDUNGEN
100
AcDbSpline
 62
7
  6
CONTINUOUS
 70
0
 71
3
 72
12
 73
8
 74
0
 42
0.0000001
 43
0.0000001
 44
0.0000000001
 40
0.0
 40
0.0
 40
0.0
 40
0.0
 40
0.272025514
 40
0.531499521
 40
0.7721078617
 40
0.8870747862
 40
1.0
 40
1.0
 40
1.0
 40
1.0
 10
754.3682487771
 20
286.2486835378
 30
0.0
 10
753.592788363
 20
286.2486835378
 30
0.0
 10
752.0655426274
 20
286.0064809146
 30
0.0
 10
750.0835631315
 20
284.9547401266
 30
0.0
 10
748.9180603361
 20
283.5691734304
 30
0.0
 10
748.4475001247
 20
282.3079865332
 30
0.0
 10
748.3682487771
 20
281.6556860504
 30
0.0
 10
748.3682487771
 20
281.333771272
 30
0.0
  0
SPLINE
  5
84C
100
AcDbEntity
  8
RUNDUNGEN
100
AcDbSpline
 62
7
  6
CONTINUOUS
 70
0
 71
3
 72
13
 73
9
 74
0
 42
0.0000001
 43
0.0000001
 44
0.0000000001
 40
0.0
 40
0.0
 40
0.0
 40
0.0
 40
0.1184368293
 40
0.2423533637
 40
0.5000000759
 40
0.7576467918
 40
0.8815632436
 40
1.0
 40
1.0
 40
1.0
 40
1.0
 10
788.9214651314
 20
297.020477821
 30
0.0
 10
788.5463673102
 20
297.4592936439
 30
0.0
 10
787.6595424074
 20
298.2605235057
 30
0.0
 10
785.5135623011
 20
299.4496956639
 30
0.0
 10
782.3682476292
 20
300.0615404269
 30
0.0
 10
779.2229334073
 20
299.4496951136
 30
0.0
 10
777.0769543008
 20
298.2605227414
 30
0.0
 10
776.190130013
 20
297.4592933736
 30
0.0
 10
775.8150324228
 20
297.020477821
 30
0.0
  0
SPLINE
  5
84D
100
AcDbEntity
  8
RUNDUNGEN
100
AcDbSpline
 62
7
  6
CONTINUOUS
 70
0
 71
3
 72
11
 73
7
 74
0
 42
0.0000001
 43
0.0000001
 44
0.0000000001
 40
0.0
 40
0.0
 40
0.0
 40
0.0
 40
0.2583755132
 40
0.5098802774
 40
0.7562939531
 40
1.0
 40
1.0
 40
1.0
 40
1.0
 10
806.2707693205
 20
316.7237714534
 30
0.0
 10
805.6959961972
 20
317.3961814935
 30
0.0
 10
804.6644845873
 20
318.816014612
 30
0.0
 10
803.5144083856
 20
321.1502409566
 30
0.0
 10
802.8116497393
 20
323.6042400152
 30
0.0
 10
802.6538102312
 20
325.2863302834
 30
0.0
 10
802.6538102062
 20
326.1206969798
 30
0.0
  0
SPLINE
  5
84E
100
AcDbEntity
  8
RUNDUNGEN
100
AcDbSpline
 62
7
  6
CONTINUOUS
 70
0
 71
3
 72
9
 73
5
 74
0
 42
0.0000001
 43
0.0000001
 44
0.0000000001
 40
0.0
 40
0.0
 40
0.0
 40
0.0
 40
0.5087712295
 40
1.0
 40
1.0
 40
1.0
 40
1.0
 10
806.2707693205
 20
332.6497416873
 30
0.0
 10
805.4501638223
 20
331.6897396384
 30
0.0
 10
804.0442447209
 20
329.6115787889
 30
0.0
 10
803.2000106526
 20
327.2433683407
 30
0.0
 10
802.947568436
 20
326.0503992249
 30
0.0
  0
SPLINE
  5
84F
100
AcDbEntity
  8
RUNDUNGEN
100
AcDbSpline
 62
7
  6
CONTINUOUS
 70
0
 71
3
 72
11
 73
7
 74
0
 42
0.0000001
 43
0.0000001
 44
0.0000000001
 40
0.0
 40
0.0
 40
0.0
 40
0.0
 40
0.25148871
 40
0.5099382871
 40
0.7627436596
 40
1.0
 40
1.0
 40
1.0
 40
1.0
 10
826.6972794986
 20
366.900183537
 30
0.0
 10
826.3405127972
 20
367.1048165102
 30
0.0
 10
825.5358684848
 20
367.3878765428
 30
0.0
 10
824.2687235333
 20
367.4086956382
 30
0.0
 10
823.0788092949
 20
367.0414111897
 30
0.0
 10
822.4230270819
 20
366.5413433485
 30
0.0
 10
822.1709119365
 20
366.2464013128
 30
0.0
  0
SPLINE
  5
850
100
AcDbEntity
  8
RUNDUNGEN
100
AcDbSpline
 62
7
  6
CONTINUOUS
 70
0
 71
3
 72
10
 73
6
 74
0
 42
0.0000001
 43
0.0000001
 44
0.0000000001
 40
0.0
 40
0.0
 40
0.0
 40
0.0
 40
0.518175965
 40
0.7622266534
 40
1.0
 40
1.0
 40
1.0
 40
1.0
 10
819.5849316879
 20
361.4475408301
 30
0.0
 10
819.1821203578
 20
361.6785839173
 30
0.0
 10
818.6463041498
 20
362.158304534
 30
0.0
 10
818.2644815888
 20
362.979300444
 30
0.0
 10
818.1992011441
 20
363.4137163555
 30
0.0
 10
818.1990810474
 20
363.6267991379
 30
0.0
  0
SPLINE
  5
851
100
AcDbEntity
  8
RUNDUNGEN
100
AcDbSpline
 62
7
  6
CONTINUOUS
 70
0
 71
3
 72
11
 73
7
 74
0
 42
0.0000001
 43
0.0000001
 44
0.0000000001
 40
0.0
 40
0.0
 40
0.0
 40
0.0
 40
0.2514756395
 40
0.5099218234
 40
0.7627401174
 40
1.0
 40
1.0
 40
1.0
 40
1.0
 10
754.0221879377
 20
366.9939132757
 30
0.0
 10
753.3635755607
 20
366.6161487355
 30
0.0
 10
751.8781349131
 20
366.0935877303
 30
0.0
 10
749.5387982564
 20
366.0550690558
 30
0.0
 10
747.3419932925
 20
366.7331621947
 30
0.0
 10
746.1312676242
 20
367.6563790174
 30
0.0
 10
745.6658170539
 20
368.2008958433
 30
0.0
  0
SPLINE
  5
852
100
AcDbEntity
  8
RUNDUNGEN
100
AcDbSpline
 62
7
  6
CONTINUOUS
 70
0
 71
3
 72
11
 73
7
 74
0
 42
0.0000001
 43
0.0000001
 44
0.0000000001
 40
0.0
 40
0.0
 40
0.0
 40
0.0
 40
0.2372640843
 40
0.4900819944
 40
0.7485263166
 40
1.0
 40
1.0
 40
1.0
 40
1.0
 10
807.930212698
 20
374.5908056646
 30
0.0
 10
807.4647538836
 20
374.0462791942
 30
0.0
 10
806.2540146332
 20
373.1230581341
 30
0.0
 10
804.057200514
 20
372.4449758493
 30
0.0
 10
801.7178774905
 20
372.4835027302
 30
0.0
 10
800.2324490701
 20
373.0060614942
 30
0.0
 10
799.5738418142
 20
373.383823097
 30
0.0
  0
SPLINE
  5
853
100
AcDbEntity
  8
RUNDUNGEN
100
AcDbSpline
 62
7
  6
CONTINUOUS
 70
0
 71
3
 72
9
 73
5
 74
0
 42
0.0000001
 43
0.0000001
 44
0.0000000001
 40
0.0
 40
0.0
 40
0.0
 40
0.0
 40
0.4830591363
 40
1.0
 40
1.0
 40
1.0
 40
1.0
 10
796.1883447011
 20
291.3870529899
 30
0.0
 10
796.8078768155
 20
290.6622807326
 30
0.0
 10
798.497456122
 20
289.4941614808
 30
0.0
 10
800.4924811696
 20
289.1165657195
 30
0.0
 10
801.5128329889
 20
289.1165657195
 30
0.0
  0
SPLINE
  5
854
100
AcDbEntity
  8
RUNDUNGEN
100
AcDbSpline
 62
7
  6
CONTINUOUS
 70
0
 71
3
 72
9
 73
5
 74
0
 42
0.0000001
 43
0.0000001
 44
0.0000000001
 40
0.0
 40
0.0
 40
0.0
 40
0.0
 40
0.5169405594
 40
1.0
 40
1.0
 40
1.0
 40
1.0
 10
763.2236645653
 20
289.1165657195
 30
0.0
 10
764.2440157831
 20
289.1165657195
 30
0.0
 10
766.2390407652
 20
289.4941612349
 30
0.0
 10
767.9286203491
 20
290.6622802768
 30
0.0
 10
768.5481528532
 20
291.3870529899
 30
0.0
  0
SPLINE
  5
855
100
AcDbEntity
  8
RUNDUNGEN
100
AcDbSpline
 62
7
  6
CONTINUOUS
 70
0
 71
3
 72
10
 73
6
 74
0
 42
0.0000001
 43
0.0000001
 44
0.0000000001
 40
0.0
 40
0.0
 40
0.0
 40
0.0
 40
0.5287270621
 40
0.7715738328
 40
1.0
 40
1.0
 40
1.0
 40
1.0
 10
747.8682487771
 20
276.8292850552
 30
0.0
 10
747.9926968227
 20
276.8292850552
 30
0.0
 10
748.1845291243
 20
276.8882634861
 30
0.0
 10
748.3398386124
 20
277.0726933427
 30
0.0
 10
748.3682487771
 20
277.1850957377
 30
0.0
 10
748.3682487771
 20
277.2388610773
 30
0.0
  0
SPLINE
  5
856
100
AcDbEntity
  8
RUNDUNGEN
100
AcDbSpline
 62
7
  6
CONTINUOUS
 70
0
 71
3
 72
9
 73
5
 74
0
 42
0.0000001
 43
0.0000001
 44
0.0000000001
 40
0.0
 40
0.0
 40
0.0
 40
0.0
 40
0.5100550404
 40
1.0
 40
1.0
 40
1.0
 40
1.0
 10
837.2247433105
 20
371.7297605417
 30
0.0
 10
837.5637073259
 20
372.1263044962
 30
0.0
 10
838.1123160182
 20
373.0158290341
 30
0.0
 10
838.3097440475
 20
374.0468390767
 30
0.0
 10
838.3098281196
 20
374.5479448382
 30
0.0
  0
SPLINE
  5
857
100
AcDbEntity
  8
RUNDUNGEN
100
AcDbSpline
 62
7
  6
CONTINUOUS
 70
0
 71
3
 72
9
 73
5
 74
0
 42
0.0000001
 43
0.0000001
 44
0.0000000001
 40
0.0
 40
0.0
 40
0.0
 40
0.0
 40
0.5105319386
 40
1.0
 40
1.0
 40
1.0
 40
1.0
 10
831.0387853333
 20
367.2778802736
 30
0.0
 10
831.4669881395
 20
367.032273234
 30
0.0
 10
832.4930169383
 20
366.8492168296
 30
0.0
 10
833.4470909164
 20
367.3103969782
 30
0.0
 10
833.7546058706
 20
367.6701496081
 30
0.0
  0
SPLINE
  5
858
100
AcDbEntity
  8
RUNDUNGEN
100
AcDbSpline
 62
7
  6
CONTINUOUS
 70
0
 71
3
 72
10
 73
6
 74
0
 42
0.0000001
 43
0.0000001
 44
0.0000000001
 40
0.0
 40
0.0
 40
0.0
 40
0.0
 40
0.2284148819
 40
0.4712534884
 40
1.0
 40
1.0
 40
1.0
 40
1.0
 10
816.3682487771
 20
277.2388610773
 30
0.0
 10
816.3682487771
 20
277.1850984255
 30
0.0
 10
816.3966554415
 20
277.0727005962
 30
0.0
 10
816.5519604415
 20
276.8882672313
 30
0.0
 10
816.7437962266
 20
276.8292850552
 30
0.0
 10
816.8682487771
 20
276.8292850552
 30
0.0
  0
SPLINE
  5
859
100
AcDbEntity
  8
RUNDUNGEN
100
AcDbSpline
 62
7
  6
CONTINUOUS
 70
0
 71
3
 72
9
 73
5
 74
0
 42
0.0000001
 43
0.0000001
 44
0.0000000001
 40
0.0
 40
0.0
 40
0.0
 40
0.0
 40
0.5100534332
 40
1.0
 40
1.0
 40
1.0
 40
1.0
 10
824.4053099581
 20
356.73268544
 30
0.0
 10
824.5156009014
 20
356.8617115454
 30
0.0
 10
824.6940894977
 20
357.1511887153
 30
0.0
 10
824.7580365754
 20
357.4867266212
 30
0.0
 10
824.7579478772
 20
357.6497757139
 30
0.0
  0
SPLINE
  5
85A
100
AcDbEntity
  8
RUNDUNGEN
100
AcDbSpline
 62
7
  6
CONTINUOUS
 70
0
 71
3
 72
12
 73
8
 74
0
 42
0.0000001
 43
0.0000001
 44
0.0000000001
 40
0.0
 40
0.0
 40
0.0
 40
0.0
 40
0.2720252873
 40
0.5314993242
 40
0.7721076654
 40
0.8870747081
 40
1.0
 40
1.0
 40
1.0
 40
1.0
 10
820.3682487771
 20
276.8292850552
 30
0.0
 10
821.1437085465
 20
276.8292850552
 30
0.0
 10
822.6709536874
 20
277.0714874117
 30
0.0
 10
824.6529329814
 20
278.1232273411
 30
0.0
 10
825.8184365869
 20
279.5087939271
 30
0.0
 10
826.2889972601
 20
280.7699812792
 30
0.0
 10
826.3682487771
 20
281.4222823193
 30
0.0
 10
826.3682487771
 20
281.7441973209
 30
0.0
  0
SPLINE
  5
85B
100
AcDbEntity
  8
RUNDUNGEN
100
AcDbSpline
 62
7
  6
CONTINUOUS
 70
0
 71
3
 72
12
 73
8
 74
0
 42
0.0000001
 43
0.0000001
 44
0.0000000001
 40
0.0
 40
0.0
 40
0.0
 40
0.0
 40
0.1129252138
 40
0.2278921383
 40
0.468500479
 40
0.727974486
 40
1.0
 40
1.0
 40
1.0
 40
1.0
 10
738.3682487771
 20
281.7441973209
 30
0.0
 10
738.3682487771
 20
281.4222825426
 30
0.0
 10
738.4475001247
 20
280.7699820597
 30
0.0
 10
738.9180603361
 20
279.5087951626
 30
0.0
 10
740.0835631315
 20
278.1232284664
 30
0.0
 10
742.0655426275
 20
277.0714876783
 30
0.0
 10
743.592788363
 20
276.8292850552
 30
0.0
 10
744.3682487771
 20
276.8292850552
 30
0.0
  0
SPLINE
  5
85C
100
AcDbEntity
  8
RUNDUNGEN
100
AcDbSpline
 62
7
  6
CONTINUOUS
 70
0
 71
3
 72
9
 73
5
 74
0
 42
0.0000001
 43
0.0000001
 44
0.0000000001
 40
0.0
 40
0.0
 40
0.0
 40
0.0
 40
0.4899470822
 40
1.0
 40
1.0
 40
1.0
 40
1.0
 10
818.1990810474
 20
363.6267991379
 30
0.0
 10
818.198927882
 20
363.8985545026
 30
0.0
 10
818.3055022726
 20
364.4578000534
 30
0.0
 10
818.6029884487
 20
364.940275562
 30
0.0
 10
818.7868109621
 20
365.1553240718
 30
0.0
  0
SPLINE
  5
85D
100
AcDbEntity
  8
RUNDUNGEN
100
AcDbSpline
 62
7
  6
CONTINUOUS
 70
0
 71
3
 72
9
 73
5
 74
0
 42
0.0000001
 43
0.0000001
 44
0.0000000001
 40
0.0
 40
0.0
 40
0.0
 40
0.0
 40
0.4899490154
 40
1.0
 40
1.0
 40
1.0
 40
1.0
 10
724.8557670584
 20
375.3543769934
 30
0.0
 10
724.8556809984
 20
375.1871509808
 30
0.0
 10
724.9212724298
 20
374.8430212534
 30
0.0
 10
725.1043332803
 20
374.546130969
 30
0.0
 10
725.2174484983
 20
374.4138008283
 30
0.0
  0
SPLINE
  5
85E
100
AcDbEntity
  8
RUNDUNGEN
100
AcDbSpline
 62
7
  6
CONTINUOUS
 70
0
 71
3
 72
11
 73
7
 74
0
 42
0.0000001
 43
0.0000001
 44
0.0000000001
 40
0.0
 40
0.0
 40
0.0
 40
0.0
 40
0.243706026
 40
0.4901196846
 40
0.7416244645
 40
1.0
 40
1.0
 40
1.0
 40
1.0
 10
802.6538102062
 20
326.1206969798
 30
0.0
 10
802.6538101812
 20
326.955063715
 30
0.0
 10
802.8116494928
 20
328.6371540893
 30
0.0
 10
803.5144079989
 20
331.0911534689
 30
0.0
 10
804.6644842887
 20
333.4253802372
 30
0.0
 10
805.6959960717
 20
334.8452136821
 30
0.0
 10
806.2707693205
 20
335.5176238691
 30
0.0
  0
SPLINE
  5
85F
100
AcDbEntity
  8
RUNDUNGEN
100
AcDbSpline
 62
7
  6
CONTINUOUS
 70
0
 71
3
 72
12
 73
8
 74
0
 42
0.0000001
 43
0.0000001
 44
0.0000000001
 40
0.0
 40
0.0
 40
0.0
 40
0.0
 40
0.1129252138
 40
0.2278921383
 40
0.468500479
 40
0.727974486
 40
1.0
 40
1.0
 40
1.0
 40
1.0
 10
748.3682487771
 20
284.2016534538
 30
0.0
 10
748.3682487771
 20
284.5235682321
 30
0.0
 10
748.4475001247
 20
285.175868715
 30
0.0
 10
748.9180603361
 20
286.4370556121
 30
0.0
 10
750.0835631315
 20
287.8226223083
 30
0.0
 10
752.0655426275
 20
288.8743630964
 30
0.0
 10
753.592788363
 20
289.1165657195
 30
0.0
 10
754.3682487771
 20
289.1165657195
 30
0.0
  0
SPLINE
  5
860
100
AcDbEntity
  8
BEZUGSACHSEN
100
AcDbSpline
 62
7
  6
CONTINUOUS
 70
0
 71
3
 72
11
 73
7
 74
0
 42
0.0000001
 43
0.0000001
 44
0.0000000001
 40
0.0
 40
0.0
 40
0.0
 40
0.0
 40
0.2341723638
 40
0.4762304601
 40
0.7312416548
 40
1.0
 40
1.0
 40
1.0
 40
1.0
 10
776.8682487771
 20
371.0344902573
 30
0.0
 10
776.8682487771
 20
371.4474254661
 30
0.0
 10
777.013214228
 20
372.2934022548
 30
0.0
 10
777.6387623395
 20
373.4441038649
 30
0.0
 10
778.6132394012
 20
374.4037360788
 30
0.0
 10
779.4276180176
 20
374.8630029085
 30
0.0
 10
779.8647725268
 20
375.0460313414
 30
0.0
  0
SPLINE
  5
861
100
AcDbEntity
  8
BEZUGSACHSEN
100
AcDbSpline
 62
7
  6
CONTINUOUS
 70
0
 71
3
 72
11
 73
7
 74
0
 42
0.0000001
 43
0.0000001
 44
0.0000000001
 40
0.0
 40
0.0
 40
0.0
 40
0.0
 40
0.2687583452
 40
0.5237695399
 40
0.7658276362
 40
1.0
 40
1.0
 40
1.0
 40
1.0
 10
784.8717250274
 20
375.0460313414
 30
0.0
 10
785.3088795367
 20
374.8630029085
 30
0.0
 10
786.123258153
 20
374.4037360788
 30
0.0
 10
787.0977352147
 20
373.4441038649
 30
0.0
 10
787.7232833262
 20
372.2934022548
 30
0.0
 10
787.8682487771
 20
371.4474254661
 30
0.0
 10
787.8682487771
 20
371.0344902573
 30
0.0
  0
SPLINE
  5
862
100
AcDbEntity
  8
RUNDUNGEN
100
AcDbSpline
 62
7
  6
CONTINUOUS
 70
0
 71
3
 72
12
 73
8
 74
0
 42
0.0000001
 43
0.0000001
 44
0.0000000001
 40
0.0
 40
0.0
 40
0.0
 40
0.0
 40
0.2720252873
 40
0.5314993242
 40
0.7721076654
 40
0.8870747081
 40
1.0
 40
1.0
 40
1.0
 40
1.0
 10
810.3682487771
 20
289.1165657195
 30
0.0
 10
811.1437085465
 20
289.1165657195
 30
0.0
 10
812.6709536874
 20
288.874363363
 30
0.0
 10
814.6529329814
 20
287.8226234336
 30
0.0
 10
815.8184365869
 20
286.4370568477
 30
0.0
 10
816.2889972601
 20
285.1758694956
 30
0.0
 10
816.3682487771
 20
284.5235684554
 30
0.0
 10
816.3682487771
 20
284.2016534538
 30
0.0
  0
SPLINE
  5
863
100
AcDbEntity
  8
RUNDUNGEN
100
AcDbSpline
 62
7
  6
CONTINUOUS
 70
0
 71
3
 72
13
 73
9
 74
0
 42
0.0000001
 43
0.0000001
 44
0.0000000001
 40
0.0
 40
0.0
 40
0.0
 40
0.0
 40
0.1184367564
 40
0.2423532082
 40
0.4999999241
 40
0.7576466363
 40
0.8815631707
 40
1.0
 40
1.0
 40
1.0
 40
1.0
 10
775.8150324228
 20
299.8883600028
 30
0.0
 10
776.190130013
 20
300.3271755553
 30
0.0
 10
777.0769543008
 20
301.1284049231
 30
0.0
 10
779.2229334073
 20
302.3175772954
 30
0.0
 10
782.3682476292
 20
302.9294226087
 30
0.0
 10
785.5135623011
 20
302.3175778456
 30
0.0
 10
787.6595424074
 20
301.1284056874
 30
0.0
 10
788.5463673102
 20
300.3271758257
 30
0.0
 10
788.9214651314
 20
299.8883600028
 30
0.0
  0
SPLINE
  5
864
100
AcDbEntity
  8
RUNDUNGEN
100
AcDbSpline
 62
7
  6
CONTINUOUS
 70
0
 71
3
 72
11
 73
7
 74
0
 42
0.0000001
 43
0.0000001
 44
0.0000000001
 40
0.0
 40
0.0
 40
0.0
 40
0.0
 40
0.2583755132
 40
0.5098802774
 40
0.7562939531
 40
1.0
 40
1.0
 40
1.0
 40
1.0
 10
758.4657282338
 20
335.5176238691
 30
0.0
 10
759.040501357
 20
334.8452138289
 30
0.0
 10
760.0720129669
 20
333.4253807105
 30
0.0
 10
761.2220891686
 20
331.0911543658
 30
0.0
 10
761.9248478149
 20
328.6371553072
 30
0.0
 10
762.082687323
 20
326.955065039
 30
0.0
 10
762.082687348
 20
326.1206983426
 30
0.0
  0
SPLINE
  5
865
100
AcDbEntity
  8
RUNDUNGEN
100
AcDbSpline
 62
7
  6
CONTINUOUS
 70
0
 71
3
 72
11
 73
7
 74
0
 42
0.0000001
 43
0.0000001
 44
0.0000000001
 40
0.0
 40
0.0
 40
0.0
 40
0.0
 40
0.2372685625
 40
0.4900827559
 40
0.7485222805
 40
1.0
 40
1.0
 40
1.0
 40
1.0
 10
822.1709119365
 20
369.1142834946
 30
0.0
 10
822.4230400505
 20
369.4092407018
 30
0.0
 10
823.0788594953
 20
369.9093211041
 30
0.0
 10
824.2687983147
 20
370.276589882
 30
0.0
 10
825.5359213649
 20
370.2557440128
 30
0.0
 10
826.3405284154
 20
369.9726897337
 30
0.0
 10
826.6972794986
 20
369.7680657187
 30
0.0
  0
SPLINE
  5
866
100
AcDbEntity
  8
0
100
AcDbSpline
 62
7
  6
CONTINUOUS
 70
0
 71
3
 72
11
 73
7
 74
0
 42
0.0000001
 43
0.0000001
 44
0.0000000001
 40
0.0
 40
0.0
 40
0.0
 40
0.0
 40
0.2339248035
 40
0.4803478662
 40
0.7372255944
 40
1.0
 40
1.0
 40
1.0
 40
1.0
 10
778.1745966932
 20
317.9290971144
 30
0.0
 10
777.6314217225
 20
318.7333145231
 30
0.0
 10
776.26233949
 20
320.2229697644
 30
0.0
 10
773.654450185
 20
321.8771067475
 30
0.0
 10
770.6218139152
 20
322.9139620402
 30
0.0
 10
768.4584011721
 20
323.148126896
 30
0.0
 10
767.3682487771
 20
323.148126896
 30
0.0
  0
SPLINE
  5
867
100
AcDbEntity
  8
0
100
AcDbSpline
 62
7
  6
CONTINUOUS
 70
0
 71
3
 72
11
 73
7
 74
0
 42
0.0000001
 43
0.0000001
 44
0.0000000001
 40
0.0
 40
0.0
 40
0.0
 40
0.0
 40
0.2339190732
 40
0.4803480136
 40
0.7372317666
 40
1.0
 40
1.0
 40
1.0
 40
1.0
 10
778.1745966932
 20
318.301921798
 30
0.0
 10
777.6314350741
 20
319.1061194386
 30
0.0
 10
776.2623651612
 20
320.5957868656
 30
0.0
 10
773.6544415695
 20
322.2499198044
 30
0.0
 10
770.621789784
 20
323.2868022789
 30
0.0
 10
768.4583754739
 20
323.5209515797
 30
0.0
 10
767.3682487771
 20
323.5209515797
 30
0.0
  0
SPLINE
  5
868
100
AcDbEntity
  8
0
100
AcDbSpline
 62
7
  6
CONTINUOUS
 70
0
 71
3
 72
9
 73
5
 74
0
 42
0.0000001
 43
0.0000001
 44
0.0000000001
 40
0.0
 40
0.0
 40
0.0
 40
0.0
 40
0.4891383058
 40
1.0
 40
1.0
 40
1.0
 40
1.0
 10
776.6871350499
 20
345.5306156288
 30
0.0
 10
775.4022922742
 20
346.513753145
 30
0.0
 10
772.3860063067
 20
348.0402792668
 30
0.0
 10
769.0579311824
 20
348.541840269
 30
0.0
 10
767.3682487771
 20
348.541840269
 30
0.0
  0
SPLINE
  5
869
100
AcDbEntity
  8
0
100
AcDbSpline
 62
7
  6
CONTINUOUS
 70
0
 71
3
 72
9
 73
5
 74
0
 42
0.0000001
 43
0.0000001
 44
0.0000000001
 40
0.0
 40
0.0
 40
0.0
 40
0.0
 40
0.4883303939
 40
1.0
 40
1.0
 40
1.0
 40
1.0
 10
776.9721175461
 20
345.6789385706
 30
0.0
 10
775.6725179301
 20
346.7329679589
 30
0.0
 10
772.57113114
 20
348.3756262418
 30
0.0
 10
769.1215236257
 20
348.9146649526
 30
0.0
 10
767.3682487771
 20
348.9146649526
 30
0.0
  0
SPLINE
  5
86A
100
AcDbEntity
  8
BEZUGSACHSEN
100
AcDbSpline
 62
7
  6
CONTINUOUS
 70
0
 71
3
 72
8
 73
4
 74
0
 42
0.0000001
 43
0.0000001
 44
0.0000000001
 40
0.0
 40
0.0
 40
0.0
 40
0.0
 40
1.0
 40
1.0
 40
1.0
 40
1.0
 10
804.677523562
 20
256.1535916064
 30
0.0
 10
804.6293996401
 20
256.3704141151
 30
0.0
 10
804.6069487031
 20
256.5940411473
 30
0.0
 10
804.6069487771
 20
256.8161400265
 30
0.0
  0
SPLINE
  5
86B
100
AcDbEntity
  8
BEZUGSACHSEN
100
AcDbSpline
 62
7
  6
CONTINUOUS
 70
0
 71
3
 72
11
 73
7
 74
0
 42
0.0000001
 43
0.0000001
 44
0.0000000001
 40
0.0
 40
0.0
 40
0.0
 40
0.0
 40
0.2500104169
 40
0.5000108951
 40
0.75000483
 40
1.0
 40
1.0
 40
1.0
 40
1.0
 10
825.8465936403
 20
262.1148703371
 30
0.0
 10
826.0317455407
 20
262.1881801157
 30
0.0
 10
826.3820234339
 20
262.3924341374
 30
0.0
 10
826.7903055045
 20
262.8407017827
 30
0.0
 10
827.0460365133
 20
263.3905410473
 30
0.0
 10
827.0979456446
 20
263.7928657139
 30
0.0
 10
827.0929679074
 20
263.9919283556
 30
0.0
  0
SPLINE
  5
86C
100
AcDbEntity
  8
BEZUGSACHSEN
100
AcDbSpline
 62
7
  6
CONTINUOUS
 70
0
 71
3
 72
11
 73
7
 74
0
 42
0.0000001
 43
0.0000001
 44
0.0000000001
 40
0.0
 40
0.0
 40
0.0
 40
0.0
 40
0.250034634
 40
0.5000539361
 40
0.7500425615
 40
1.0
 40
1.0
 40
1.0
 40
1.0
 10
768.5568488561
 20
220.6622498001
 30
0.0
 10
768.8131720425
 20
220.6622495066
 30
0.0
 10
769.3312737904
 20
220.7631295396
 30
0.0
 10
769.9894502305
 20
221.1964055315
 30
0.0
 10
770.4335837437
 20
221.847774529
 30
0.0
 10
770.5382487391
 20
222.3660198755
 30
0.0
 10
770.5382487771
 20
222.6222639249
 30
0.0
  0
SPLINE
  5
86D
100
AcDbEntity
  8
RUNDUNGEN
100
AcDbSpline
 62
7
  6
CONTINUOUS
 70
0
 71
3
 72
8
 73
4
 74
0
 42
0.0000001
 43
0.0000001
 44
0.0000000001
 40
0.0
 40
0.0
 40
0.0
 40
0.0
 40
1.0
 40
1.0
 40
1.0
 40
1.0
 10
760.0589739782
 20
220.2137027898
 30
0.0
 10
760.10710355
 20
219.9968815358
 30
0.0
 10
760.1295488522
 20
219.7732532516
 30
0.0
 10
760.1295487771
 20
219.551154373
 30
0.0
  0
SPLINE
  5
86E
100
AcDbEntity
  8
RUNDUNGEN
100
AcDbSpline
 62
7
  6
CONTINUOUS
 70
0
 71
3
 72
11
 73
7
 74
0
 42
0.0000001
 43
0.0000001
 44
0.0000000001
 40
0.0
 40
0.0
 40
0.0
 40
0.0
 40
0.2500129568
 40
0.5000131449
 40
0.7500058437
 40
1.0
 40
1.0
 40
1.0
 40
1.0
 10
738.5681218798
 20
214.1355481101
 30
0.0
 10
738.3701809781
 20
214.0681992052
 30
0.0
 10
737.9931389235
 20
213.8687897849
 30
0.0
 10
737.5517408604
 20
213.4086703361
 30
0.0
 10
737.2767745916
 20
212.8333057126
 30
0.0
 10
737.224444174
 20
212.4097869849
 30
0.0
 10
737.2324187322
 20
212.2008699979
 30
0.0
  0
SPLINE
  5
86F
100
AcDbEntity
  8
RUNDUNGEN
100
AcDbSpline
 62
7
  6
CONTINUOUS
 70
0
 71
3
 72
11
 73
7
 74
0
 42
0.0000001
 43
0.0000001
 44
0.0000000001
 40
0.0
 40
0.0
 40
0.0
 40
0.0
 40
0.2500346339
 40
0.500053936
 40
0.7500425614
 40
1.0
 40
1.0
 40
1.0
 40
1.0
 10
796.1796486981
 20
255.7050445998
 30
0.0
 10
795.9233255116
 20
255.7050448934
 30
0.0
 10
795.4052237621
 20
255.6041648651
 30
0.0
 10
794.7470473223
 20
255.17088887
 30
0.0
 10
794.3029138096
 20
254.5195198716
 30
0.0
 10
794.1982488148
 20
254.0012745242
 30
0.0
 10
794.1982487771
 20
253.7450304746
 30
0.0
  0
SPLINE
  5
870
100
AcDbEntity
  8
BEZUGSACHSEN
100
AcDbSpline
 62
7
  6
CONTINUOUS
 70
0
 71
3
 72
30
 73
26
 74
0
 42
0.0000001
 43
0.0000001
 44
0.0000000001
 40
0.0
 40
0.0
 40
0.0
 40
0.0
 40
0.0125480428
 40
0.0248977535
 40
0.0388708593
 40
0.0556717905
 40
0.0758742338
 40
0.0996633815
 40
0.1577207518
 40
0.2282833688
 40
0.3087261201
 40
0.3958710984
 40
0.4862231663
 40
0.5761520817
 40
0.6620675849
 40
0.7406367777
 40
0.8091129919
 40
0.8390305357
 40
0.8660099607
 40
0.8902691713
 40
0.912330136
 40
0.9330873334
 40
0.9537623976
 40
0.9756852277
 40
1.0
 40
1.0
 40
1.0
 40
1.0
 10
822.8696387771
 20
247.7197285866
 30
0.0
 10
822.8696387771
 20
247.6349042642
 30
0.0
 10
822.8436981455
 20
247.4639598577
 30
0.0
 10
822.7011502201
 20
247.2356418628
 30
0.0
 10
822.4692819889
 20
247.0525901609
 30
0.0
 10
822.1569513119
 20
246.9032479437
 30
0.0
 10
821.7641350818
 20
246.7795465135
 30
0.0
 10
821.0892405579
 20
246.6337990586
 30
0.0
 10
820.0645350845
 20
246.5119755016
 30
0.0
 10
818.6538987554
 20
246.4242953776
 30
0.0
 10
817.0443528453
 20
246.3791084484
 30
0.0
 10
815.3006336801
 20
246.3695397278
 30
0.0
 10
813.4928837805
 20
246.3946436194
 30
0.0
 10
811.6943882681
 20
246.4582524394
 30
0.0
 10
809.977682596
 20
246.5691802898
 30
0.0
 10
808.4118693749
 20
246.7416350445
 30
0.0
 10
807.2330743105
 20
246.9599687253
 30
0.0
 10
806.4196083001
 20
247.2009129655
 30
0.0
 10
805.9094551089
 20
247.4055632729
 30
0.0
 10
805.4749172215
 20
247.6472656081
 30
0.0
 10
805.1190611454
 20
247.9326926643
 30
0.0
 10
804.8459568512
 20
248.2686103403
 30
0.0
 10
804.6592917344
 20
248.6583728566
 30
0.0
 10
804.5568393546
 20
249.1019022555
 30
0.0
 10
804.5395587771
 20
249.4152117511
 30
0.0
 10
804.5395587771
 20
249.5795787464
 30
0.0
  0
SPLINE
  5
871
100
AcDbEntity
  8
BEZUGSACHSEN
100
AcDbSpline
 62
7
  6
CONTINUOUS
 70
0
 71
3
 72
9
 73
5
 74
0
 42
0.0000001
 43
0.0000001
 44
0.0000000001
 40
0.0
 40
0.0
 40
0.0
 40
0.0
 40
0.476492546
 40
1.0
 40
1.0
 40
1.0
 40
1.0
 10
741.8668587771
 20
235.0703127727
 30
0.0
 10
741.8668587771
 20
235.5648743613
 30
0.0
 10
741.9002251283
 20
236.6024516067
 30
0.0
 10
741.9179094938
 20
237.640287854
 30
0.0
 10
741.9179094938
 20
238.1836471997
 30
0.0
  0
SPLINE
  5
872
100
AcDbEntity
  8
BEZUGSACHSEN
100
AcDbSpline
 62
7
  6
CONTINUOUS
 70
0
 71
3
 72
30
 73
26
 74
0
 42
0.0000001
 43
0.0000001
 44
0.0000000001
 40
0.0
 40
0.0
 40
0.0
 40
0.0
 40
0.0125480428
 40
0.0248977535
 40
0.0388708593
 40
0.0556717905
 40
0.0758742338
 40
0.0996633815
 40
0.1577207518
 40
0.2282833688
 40
0.3087261201
 40
0.3958710984
 40
0.4862231663
 40
0.5761520817
 40
0.6620675849
 40
0.7406367777
 40
0.8091129919
 40
0.8390305357
 40
0.8660099607
 40
0.8902691713
 40
0.912330136
 40
0.9330873334
 40
0.9537623976
 40
0.9756852277
 40
1.0
 40
1.0
 40
1.0
 40
1.0
 10
741.8668587771
 20
228.6475658128
 30
0.0
 10
741.8668587771
 20
228.7323901353
 30
0.0
 10
741.8927994087
 20
228.9033345418
 30
0.0
 10
742.0353473341
 20
229.1316525367
 30
0.0
 10
742.2672155654
 20
229.3147042386
 30
0.0
 10
742.5795462423
 20
229.4640464557
 30
0.0
 10
742.9723624724
 20
229.5877478859
 30
0.0
 10
743.6472569964
 20
229.7334953409
 30
0.0
 10
744.6719624698
 20
229.8553188978
 30
0.0
 10
746.0825987989
 20
229.9429990218
 30
0.0
 10
747.692144709
 20
229.9881859511
 30
0.0
 10
749.4358638741
 20
229.9977546717
 30
0.0
 10
751.2436137737
 20
229.97265078
 30
0.0
 10
753.0421092861
 20
229.9090419601
 30
0.0
 10
754.7588149582
 20
229.7981141096
 30
0.0
 10
756.3246281793
 20
229.625659355
 30
0.0
 10
757.5034232437
 20
229.4073256741
 30
0.0
 10
758.3168892541
 20
229.166381434
 30
0.0
 10
758.8270424453
 20
228.9617311266
 30
0.0
 10
759.2615803327
 20
228.7200287913
 30
0.0
 10
759.6174364088
 20
228.4346017351
 30
0.0
 10
759.890540703
 20
228.0986840591
 30
0.0
 10
760.0772058198
 20
227.7089215429
 30
0.0
 10
760.1796581996
 20
227.265392144
 30
0.0
 10
760.1969387771
 20
226.9520826483
 30
0.0
 10
760.1969387771
 20
226.7877156531
 30
0.0
  0
SPLINE
  5
873
100
AcDbEntity
  8
BEZUGSACHSEN
100
AcDbSpline
 62
7
  6
CONTINUOUS
 70
0
 71
3
 72
9
 73
5
 74
0
 42
0.0000001
 43
0.0000001
 44
0.0000000001
 40
0.0
 40
0.0
 40
0.0
 40
0.0
 40
0.5235074202
 40
1.0
 40
1.0
 40
1.0
 40
1.0
 10
804.5906094938
 20
238.1836471997
 30
0.0
 10
804.5906094938
 20
237.640287889
 30
0.0
 10
804.5729251216
 20
236.6024516419
 30
0.0
 10
804.5395587771
 20
235.5648743963
 30
0.0
 10
804.5395587771
 20
235.0703127727
 30
0.0
  0
SPLINE
  5
874
100
AcDbEntity
  8
BEZUGSACHSEN
100
AcDbSpline
 62
7
  6
CONTINUOUS
 70
0
 71
3
 72
9
 73
5
 74
0
 42
0.0000001
 43
0.0000001
 44
0.0000000001
 40
0.0
 40
0.0
 40
0.0
 40
0.0
 40
0.5235074072
 40
1.0
 40
1.0
 40
1.0
 40
1.0
 10
822.8185880604
 20
238.1836471997
 30
0.0
 10
822.8185880604
 20
238.727006497
 30
0.0
 10
822.8362724138
 20
239.7648427444
 30
0.0
 10
822.8696387771
 20
240.8024199897
 30
0.0
 10
822.8696387771
 20
241.2969816267
 30
0.0
  0
SPLINE
  5
875
100
AcDbEntity
  8
BEZUGSACHSEN
100
AcDbSpline
 62
7
  6
CONTINUOUS
 70
0
 71
3
 72
9
 73
5
 74
0
 42
0.0000001
 43
0.0000001
 44
0.0000000001
 40
0.0
 40
0.0
 40
0.0
 40
0.0
 40
0.5235075
 40
1.0
 40
1.0
 40
1.0
 40
1.0
 10
741.9179094938
 20
238.1836471997
 30
0.0
 10
741.9179094938
 20
238.7270065932
 30
0.0
 10
741.9002251173
 20
239.7648428403
 30
0.0
 10
741.8668587771
 20
240.802420086
 30
0.0
 10
741.8668587771
 20
241.2969816267
 30
0.0
  0
SPLINE
  5
876
100
AcDbEntity
  8
BEZUGSACHSEN
100
AcDbSpline
 62
7
  6
CONTINUOUS
 70
0
 71
3
 72
9
 73
5
 74
0
 42
0.0000001
 43
0.0000001
 44
0.0000000001
 40
0.0
 40
0.0
 40
0.0
 40
0.0
 40
0.4764925162
 40
1.0
 40
1.0
 40
1.0
 40
1.0
 10
760.1969387771
 20
241.2969816267
 30
0.0
 10
760.1969387771
 20
240.8024200691
 30
0.0
 10
760.1635724323
 20
239.7648428235
 30
0.0
 10
760.1458880604
 20
238.7270065764
 30
0.0
 10
760.1458880604
 20
238.1836471997
 30
0.0
  0
SPLINE
  5
877
100
AcDbEntity
  8
BEZUGSACHSEN
100
AcDbSpline
 62
7
  6
CONTINUOUS
 70
0
 71
3
 72
9
 73
5
 74
0
 42
0.0000001
 43
0.0000001
 44
0.0000000001
 40
0.0
 40
0.0
 40
0.0
 40
0.0
 40
0.5235074388
 40
1.0
 40
1.0
 40
1.0
 40
1.0
 10
760.1458880604
 20
238.1836471997
 30
0.0
 10
760.1458880604
 20
237.6402878698
 30
0.0
 10
760.1635724216
 20
236.6024516224
 30
0.0
 10
760.1969387771
 20
235.564874377
 30
0.0
 10
760.1969387771
 20
235.0703127727
 30
0.0
  0
SPLINE
  5
878
100
AcDbEntity
  8
BEZUGSACHSEN
100
AcDbSpline
 62
7
  6
CONTINUOUS
 70
0
 71
3
 72
9
 73
5
 74
0
 42
0.0000001
 43
0.0000001
 44
0.0000000001
 40
0.0
 40
0.0
 40
0.0
 40
0.0
 40
0.4764925634
 40
1.0
 40
1.0
 40
1.0
 40
1.0
 10
804.5395587771
 20
241.2969816267
 30
0.0
 10
804.5395587771
 20
240.8024200202
 30
0.0
 10
804.5729251199
 20
239.7648427746
 30
0.0
 10
804.5906094938
 20
238.7270065274
 30
0.0
 10
804.5906094938
 20
238.1836471997
 30
0.0
  0
SPLINE
  5
879
100
AcDbEntity
  8
BEZUGSACHSEN
100
AcDbSpline
 62
7
  6
CONTINUOUS
 70
0
 71
3
 72
9
 73
5
 74
0
 42
0.0000001
 43
0.0000001
 44
0.0000000001
 40
0.0
 40
0.0
 40
0.0
 40
0.0
 40
0.4764926083
 40
1.0
 40
1.0
 40
1.0
 40
1.0
 10
822.8696387771
 20
235.0703127727
 30
0.0
 10
822.8696387771
 20
235.5648744259
 30
0.0
 10
822.8362724121
 20
236.6024516712
 30
0.0
 10
822.8185880604
 20
237.6402879187
 30
0.0
 10
822.8185880604
 20
238.1836471997
 30
0.0
  0
ELLIPSE
  5
87A
100
AcDbEntity
  8
KONSTRUKTIONSELEMENTE
100
AcDbEllipse
 62
7
  6
CONTINUOUS
 10
372.2082463271
 20
441.1211498944
 30
0.0
 11
15.0
 21
-0.0
 31
0.0
 40
0.9791658496
 41
0.2362336651
 42
0.2950421164
  0
ELLIPSE
  5
87B
100
AcDbEntity
  8
KONSTRUKTIONSELEMENTE
100
AcDbEllipse
 62
7
  6
CONTINUOUS
 10
372.2082463271
 20
436.8502956125
 30
0.0
 11
0.0
 21
29.3750595301
 31
0.0
 40
0.510637263
 41
-1.2757542104
 42
-1.2459650002
  0
ELLIPSE
  5
87C
100
AcDbEntity
  8
KONSTRUKTIONSELEMENTE
100
AcDbEllipse
 62
7
  6
CONTINUOUS
 10
372.2082463271
 20
422.7878475058
 30
0.0
 11
0.0
 21
73.4373966977
 31
0.0
 40
0.2042556065
 41
-1.2459650002
 42
-1.2309594173
  0
ELLIPSE
  5
87D
100
AcDbEntity
  8
KONSTRUKTIONSELEMENTE
100
AcDbEllipse
 62
7
  6
CONTINUOUS
 10
372.2082463271
 20
473.6211679993
 30
0.0
 11
0.0
 21
73.4375647828
 31
0.0
 40
0.204255139
 41
-1.9106332362
 42
-1.8956276534
  0
ELLIPSE
  5
87E
100
AcDbEntity
  8
KONSTRUKTIONSELEMENTE
100
AcDbEllipse
 62
7
  6
CONTINUOUS
 10
372.2082463271
 20
459.5586662484
 30
0.0
 11
-0.0
 21
29.3750595301
 31
0.0
 40
0.510637263
 41
-1.8956276534
 42
-1.8658384432
  0
ELLIPSE
  5
87F
100
AcDbEntity
  8
KONSTRUKTIONSELEMENTE
100
AcDbEllipse
 62
7
  6
CONTINUOUS
 10
372.2082463271
 20
455.2877997475
 30
0.0
 11
15.0
 21
0.0
 31
0.0
 40
0.9791630482
 41
-0.2950421164
 42
-0.2362336651
  0
ELLIPSE
  5
880
100
AcDbEntity
  8
KONSTRUKTIONSELEMENTE
100
AcDbEllipse
 62
7
  6
CONTINUOUS
 10
372.2082463271
 20
452.5378172537
 30
0.0
 11
15.0
 21
0.0
 31
0.0
 40
0.195834741
 41
-0.2362336651
 42
-0.1638527432
  0
ELLIPSE
  5
881
100
AcDbEntity
  8
KONSTRUKTIONSELEMENTE
100
AcDbEllipse
 62
7
  6
CONTINUOUS
 10
372.2082463271
 20
434.5326078707
 30
0.0
 11
15.0
 21
0.0
 31
0.0
 40
0.244790762
 41
0.1782473677
 42
0.2362336651
  0
ELLIPSE
  5
882
100
AcDbEntity
  8
KONSTRUKTIONSELEMENTE
100
AcDbEllipse
 62
7
  6
CONTINUOUS
 10
372.2082463271
 20
431.9544725982
 30
0.0
 11
15.0
 21
0.0
 31
0.0
 40
0.979168651
 41
0.2362336651
 42
0.2950421164
  0
ELLIPSE
  5
883
100
AcDbEntity
  8
KONSTRUKTIONSELEMENTE
100
AcDbEllipse
 62
7
  6
CONTINUOUS
 10
372.2082463271
 20
427.6836549732
 30
0.0
 11
0.0
 21
29.3749754876
 31
0.0
 40
0.510638724
 41
-1.2757542104
 42
-1.2459650002
  0
ELLIPSE
  5
884
100
AcDbEntity
  8
KONSTRUKTIONSELEMENTE
100
AcDbEllipse
 62
7
  6
CONTINUOUS
 10
372.2082463271
 20
418.3086627466
 30
0.0
 11
0.0
 21
58.7499509752
 31
0.0
 40
0.255319362
 41
-1.2459650002
 42
-1.2309594173
  0
ELLIPSE
  5
885
100
AcDbEntity
  8
KONSTRUKTIONSELEMENTE
100
AcDbEllipse
 62
7
  6
CONTINUOUS
 10
372.2082463271
 20
463.4128354607
 30
0.0
 11
0.0
 21
73.4375647828
 31
0.0
 40
0.204255139
 41
-1.9106332362
 42
-1.8956276534
  0
ELLIPSE
  5
886
100
AcDbEntity
  8
KONSTRUKTIONSELEMENTE
100
AcDbEllipse
 62
7
  6
CONTINUOUS
 10
372.2082463271
 20
446.2253094788
 30
0.0
 11
0.0
 21
19.5833169917
 31
0.0
 40
0.765958086
 41
-1.8956276534
 42
-1.8510461683
  0
ELLIPSE
  5
887
100
AcDbEntity
  8
KONSTRUKTIONSELEMENTE
100
AcDbEllipse
 62
7
  6
CONTINUOUS
 10
372.2082463271
 20
443.8555226375
 30
0.0
 11
15.0
 21
0.0
 31
0.0
 40
0.7343750875
 41
-0.2802498415
 42
-0.2216690803
  0
ELLIPSE
  5
888
100
AcDbEntity
  8
KONSTRUKTIONSELEMENTE
100
AcDbEllipse
 62
7
  6
CONTINUOUS
 10
372.2082463271
 20
413.1053951097
 30
0.0
 11
15.0
 21
0.0
 31
0.0
 40
0.334349582
 41
-0.3398369095
 42
0.0000224353
  0
ELLIPSE
  5
889
100
AcDbEntity
  8
KONSTRUKTIONSELEMENTE
100
AcDbEllipse
 62
7
  6
CONTINUOUS
 10
372.2082463271
 20
442.5100321771
 30
0.0
 11
15.0
 21
-0.0
 31
0.0
 40
0.3263876827
 41
-0.2216690803
 42
-0.1782473677
  0
ELLIPSE
  5
88A
100
AcDbEntity
  8
KONSTRUKTIONSELEMENTE
100
AcDbEllipse
 62
7
  6
CONTINUOUS
 10
372.2082463271
 20
419.8711467788
 30
0.0
 11
15.0
 21
0.0
 31
0.0
 40
0.1958336205
 41
0.1065846569
 42
0.1782473677
  0
ELLIPSE
  5
88B
100
AcDbEntity
  8
KONSTRUKTIONSELEMENTE
100
AcDbEllipse
 62
7
  6
CONTINUOUS
 10
372.2082463271
 20
419.089898547
 30
0.0
 11
15.0
 21
-0.0
 31
0.0
 40
0.4895829248
 41
0.1782473677
 42
0.2362336651
  0
ELLIPSE
  5
88C
100
AcDbEntity
  8
KONSTRUKTIONSELEMENTE
100
AcDbEllipse
 62
7
  6
CONTINUOUS
 10
372.2082463271
 20
417.371144977
 30
0.0
 11
15.0
 21
0.0
 31
0.0
 40
0.9791672503
 41
0.2362336651
 42
0.2950421164
  0
ELLIPSE
  5
88D
100
AcDbEntity
  8
KONSTRUKTIONSELEMENTE
100
AcDbEllipse
 62
7
  6
CONTINUOUS
 10
372.2082463271
 20
413.1003212425
 30
0.0
 11
0.0
 21
29.3749754876
 31
0.0
 40
0.510638724
 41
-1.2757542104
 42
-1.2459650002
  0
ELLIPSE
  5
88E
100
AcDbEntity
  8
KONSTRUKTIONSELEMENTE
100
AcDbEllipse
 62
7
  6
CONTINUOUS
 10
372.2082463271
 20
399.0377926695
 30
0.0
 11
-0.0
 21
73.4375647828
 31
0.0
 40
0.204255139
 41
-1.2459650002
 42
-1.2309594173
  0
ELLIPSE
  5
88F
100
AcDbEntity
  8
KONSTRUKTIONSELEMENTE
100
AcDbEllipse
 62
7
  6
CONTINUOUS
 10
372.2082463271
 20
449.8711411772
 30
0.0
 11
0.0
 21
73.4374807402
 31
0.0
 40
0.2042553727
 41
-1.9106332362
 42
-1.8956276534
  0
ELLIPSE
  5
890
100
AcDbEntity
  8
KONSTRUKTIONSELEMENTE
100
AcDbEllipse
 62
7
  6
CONTINUOUS
 10
372.2082463271
 20
435.8086528373
 30
0.0
 11
0.0
 21
29.3750175089
 31
0.0
 40
0.5106379935
 41
-1.8956276534
 42
-1.8658384432
  0
ELLIPSE
  5
891
100
AcDbEntity
  8
KONSTRUKTIONSELEMENTE
100
AcDbEllipse
 62
7
  6
CONTINUOUS
 10
372.2082463271
 20
431.5378107744
 30
0.0
 11
15.0
 21
0.0
 31
0.0
 40
0.9791658496
 41
-0.2950421164
 42
-0.2362336651
  0
ELLIPSE
  5
892
100
AcDbEntity
  8
KONSTRUKTIONSELEMENTE
100
AcDbEllipse
 62
7
  6
CONTINUOUS
 10
372.2082463271
 20
428.7878145119
 30
0.0
 11
15.0
 21
0.0
 31
0.0
 40
0.1958336205
 41
-0.2362336651
 42
-0.1638527432
  0
ELLIPSE
  5
893
100
AcDbEntity
  8
KONSTRUKTIONSELEMENTE
100
AcDbEllipse
 62
7
  6
CONTINUOUS
 10
372.2082463271
 20
415.5952324245
 30
0.0
 11
15.0
 21
-0.0
 31
0.0
 40
0.334349582
 41
-0.0000224353
 42
0.3398369095
  0
ELLIPSE
  5
894
100
AcDbEntity
  8
KONSTRUKTIONSELEMENTE
100
AcDbEllipse
 62
7
  6
CONTINUOUS
 10
372.2082463271
 20
443.6211485669
 30
0.0
 11
15.0
 21
0.0
 31
0.0
 40
0.1958324999
 41
0.1065846569
 42
0.1782473677
  0
ELLIPSE
  5
895
100
AcDbEntity
  8
KONSTRUKTIONSELEMENTE
100
AcDbEllipse
 62
7
  6
CONTINUOUS
 10
372.2082463271
 20
442.8398936297
 30
0.0
 11
15.0
 21
0.0
 31
0.0
 40
0.4895843255
 41
0.1782473677
 42
0.2362336651
  0
ELLIPSE
  5
896
100
AcDbEntity
  8
0
100
AcDbEllipse
 62
7
  6
CONTINUOUS
 10
726.3682487771
 20
238.1836471997
 30
0.0
 11
-0.0
 21
5.8710168
 31
0.0
 40
0.1051042353
 41
-3.1415926536
 42
-0.0
  0
ELLIPSE
  5
897
100
AcDbEntity
  8
0
100
AcDbEllipse
 62
7
  6
CONTINUOUS
 10
770.5382487771
 20
238.1836471997
 30
0.0
 11
0.0
 21
5.5
 31
0.0
 40
0.1583844403
 41
-0.0
 42
3.1415926536
  0
ELLIPSE
  5
898
100
AcDbEntity
  8
BEZUGSACHSEN
100
AcDbEllipse
 62
7
  6
CONTINUOUS
 10
726.3682487771
 20
238.1836471997
 30
0.0
 11
-0.0
 21
5.8710168
 31
0.0
 40
0.1051042353
 41
-3.1415926536
 42
-0.0
  0
ELLIPSE
  5
899
100
AcDbEntity
  8
0
100
AcDbEllipse
 62
7
  6
CONTINUOUS
 10
838.3682487771
 20
238.1836471997
 30
0.0
 11
0.0
 21
5.8710168
 31
0.0
 40
0.1051042353
 41
-0.0
 42
3.1415926536
  0
ELLIPSE
  5
89A
100
AcDbEntity
  8
BEZUGSACHSEN
100
AcDbEllipse
 62
7
  6
CONTINUOUS
 10
770.5382487771
 20
238.1836471997
 30
0.0
 11
0.0
 21
5.5
 31
0.0
 40
0.1583844403
 41
0.0
 42
3.1415926536
  0
ELLIPSE
  5
89B
100
AcDbEntity
  8
0
100
AcDbEllipse
 62
7
  6
CONTINUOUS
 10
794.1982487771
 20
238.1836471997
 30
0.0
 11
0.0
 21
5.5
 31
0.0
 40
0.1583844403
 41
-3.1415926536
 42
0.0
  0
ENDSEC
  0
SECTION
  2
OBJECTS
  0
DICTIONARY
  5
C
100
AcDbDictionary
280
0
281
1
  3
ACAD_GROUP
350
D
  3
ACAD_MLINESTYLE
350
17
  3
ACAD_LAYOUT
350
1A
  3
ACAD_PLOTSETTINGS
350
19
  3
ACAD_PLOTSTYLENAME
350
E
  0
DICTIONARY
  5
D
102
{ACAD_REACTORS
330
C
102
}
100
AcDbDictionary
280
0
281
1
  0
ACDBDICTIONARYWDFLT
  5
E
102
{ACAD_REACTORS
330
C
102
}
100
AcDbDictionary
281
1
  3
Normal
350
F
100
AcDbDictionaryWithDefault
340
F
  0
DICTIONARY
  5
17
102
{ACAD_REACTORS
330
C
102
}
100
AcDbDictionary
280
0
281
1
  3
Standard
350
18
  0
DICTIONARY
  5
19
102
{ACAD_REACTORS
330
C
102
}
100
AcDbDictionary
281
1
  0
DICTIONARY
  5
1A
102
{ACAD_REACTORS
330
C
102
}
100
AcDbDictionary
281
1
  3
Model
350
89C
  3
Layout1
350
89D
  0
ACDBPLACEHOLDER
  5
F
102
{ACAD_REACTORS
330
E
102
}
  0
MLINESTYLE
  5
18
102
{ACAD_REACTORS
330
17
102
}
100
AcDbMlineStyle
  2
STANDARD
 70
0
  3

 62
256
 51
90.0
 52
90.0
 71
2
 49
0.5
 62
256
  6
BYLAYER
 49
-0.5
 62
256
  6
BYLAYER
  0
LAYOUT
  5
89C
102
{ACAD_REACTORS
330
1A
102
}
100
AcDbPlotSettings
  1

  2
none_device
  4
ISO_A0_(1189.00_x_841.00_MM)
  6

 40
0.0
 41
0.0
 42
0.0
 43
0.0
 44
1189.0
 45
841.0
 46
0.0
 47
0.0
 48
0.0
 49
0.0
140
0.0
141
0.0
142
1.0
143
1.0
 70
1024
 72
1
 73
0
 74
0
  7

 75
0
147
1.0
148
0.0
149
0.0
100
AcDbLayout
  1
Model
 70
0
 71
0
 10
0.0
 20
0.0
 11
1189.0
 21
841.0
 12
0.0
 22
0.0
 32
0.0
 14
0.0
 24
0.0
 34
0.0
 15
0.0
 25
0.0
 35
0.0
146
0.0
 13
0.0
 23
0.0
 33
0.0
 16
1.0
 26
0.0
 36
0.0
 17
0.0
 27
1.0
 37
0.0
 76
0
330
20E
345
0
346
0
  0
LAYOUT
  5
89D
102
{ACAD_REACTORS
330
1A
102
}
100
AcDbPlotSettings
  1

  2
none_device
  4
ISO_A0_(1189.00_x_841.00_MM)
  6

 40
0.0
 41
0.0
 42
0.0
 43
0.0
 44
1189.0
 45
841.0
 46
0.0
 47
0.0
 48
0.0
 49
0.0
140
0.0
141
0.0
142
1.0
143
1.0
 70
0
 72
1
 73
0
 74
0
  7

 75
0
147
1.0
148
0.0
149
0.0
100
AcDbLayout
  1
Layout1
 70
0
 71
1
 10
0.0
 20
0.0
 11
1189.0
 21
841.0
 12
0.0
 22
0.0
 32
0.0
 14
0.0
 24
0.0
 34
0.0
 15
0.0
 25
0.0
 35
0.0
146
0.0
 13
0.0
 23
0.0
 33
0.0
 16
1.0
 26
0.0
 36
0.0
 17
0.0
 27
1.0
 37
0.0
 76
0
330
20F
345
0
346
0
  0
ENDSEC
  0
EOF
