999
DXF file: 001-m34345-p-1.dxf
999
Pro/ENGINEER 2011490 by Parametric Technology Corporation
  0
SECTION
  2
HEADER
  9
$ACADVER
  1
AC1015
  9
$DWGCODEPAGE
  3
ANSI_1252
  9
$EXTMAX
 10
420.0
 20
297.0
 30
0.0
  9
$EXTMIN
 10
0.0
 20
-0.0
 30
0.0
  9
$LIMMIN
 10
0.0
 20
-0.0
  9
$LIMMAX
 10
420.0
 20
297.0
  9
$VIEWCTR
 10
210.0
 20
148.5
  9
$VIEWSIZE
 40
297.0
  9
$CLAYER
  8
0
  9
$LTSCALE
 40
23.1
  9
$CELTYPE
  6
BYLAYER
  9
$DIMSCALE
 40
1.0
  9
$DIMASZ
 40
3.5
  9
$DIMEXO
 40
2.625
  9
$DIMDLI
 40
15.96
  9
$DIMEXE
 40
7.56
  9
$DIMCEN
 40
3.78
  9
$DIMLFAC
 40
1.0
  9
$DIMBLK
  1
_FILLED
  9
$DIMTXT
 40
3.5
  9
$DIMTOL
 70
1
  9
$DIMLIM
 70
0
  9
$DIMTFAC
 40
1.0
  9
$DIMTP
 40
0.005
  9
$DIMTM
 40
0.005
  9
$PDMODE
 70
3
  9
$PDSIZE
 40
0.3125
  9
$HANDSEED
  5
394
  9
$TILEMODE
 70
1
  9
$MEASUREMENT
 70
1
  9
$INSUNITS
 70
4
  0
ENDSEC
  0
SECTION
  2
CLASSES
  0
CLASS
  1
ACDBDICTIONARYWDFLT
  2
AcDbDictionaryWithDefault
  3
AutoCAD 2000
 90
0
280
0
281
0
  0
CLASS
  1
ACDBPLACEHOLDER
  2
AcDbPlaceHolder
  3
AutoCAD 2000
 90
0
280
0
281
0
  0
CLASS
  1
LAYOUT
  2
AcDbLayout
  3
AutoCAD 2000
 90
0
280
0
281
0
  0
ENDSEC
  0
SECTION
  2
TABLES
  0
TABLE
  2
VPORT
  5
8
100
AcDbSymbolTable
 70
2
  0
VPORT
  5
1F4
100
AcDbSymbolTableRecord
100
AcDbViewportTableRecord
  2
*ACTIVE
 70
0
 10
0.0
 20
0.0
 11
1.0
 21
1.0
 12
210.0
 22
148.5
 13
0.0
 23
0.0
 14
1.0
 24
1.0
 15
0.0
 25
0.0
 16
0.0
 26
0.0
 36
1.0
 17
0.0
 27
0.0
 37
0.0
 40
297.0
 41
1.4141414141
 42
50.0
 43
0.0
 44
0.0
 50
0.0
 51
0.0
 71
0
 72
100
 73
1
 74
1
 75
0
 76
0
 77
0
 78
0
  0
ENDTAB
  0
TABLE
  2
LTYPE
  5
5
100
AcDbSymbolTable
 70
6
  0
LTYPE
  5
14
100
AcDbSymbolTableRecord
100
AcDbLinetypeTableRecord
  2
BYBLOCK
 70
0
  3

 72
65
 73
0
 40
0.0
  0
LTYPE
  5
15
100
AcDbSymbolTableRecord
100
AcDbLinetypeTableRecord
  2
BYLAYER
 70
0
  3

 72
65
 73
0
 40
0.0
  0
LTYPE
  5
16
100
AcDbSymbolTableRecord
100
AcDbLinetypeTableRecord
  2
CONTINUOUS
 70
64
  3
Solid line
 72
65
 73
0
 40
0.0
  0
LTYPE
  5
1F5
100
AcDbSymbolTableRecord
100
AcDbLinetypeTableRecord
  2
CENTER
 70
64
  3
____ _ ____ _ ____ _ ____ _ ____ _ ____ _ ____
 72
65
 73
4
 40
0.6
 49
0.375
 74
0
 49
-0.075
 74
0
 49
0.075
 74
0
 49
-0.075
 74
0
  0
LTYPE
  5
1F6
100
AcDbSymbolTableRecord
100
AcDbLinetypeTableRecord
  2
HIDDEN
 70
64
  3
- - - - - - - - - - - - - - - - - - - -
 72
65
 73
2
 40
0.2
 49
0.1
 74
0
 49
-0.1
 74
0
  0
LTYPE
  5
1F7
100
AcDbSymbolTableRecord
100
AcDbLinetypeTableRecord
  2
PHANTOM
 70
64
  3
_____ _ _ _____ _ _ _____ _ _ _____
 72
65
 73
6
 40
0.8
 49
0.45
 74
0
 49
-0.05
 74
0
 49
0.1
 74
0
 49
-0.05
 74
0
 49
0.1
 74
0
 49
-0.05
 74
0
  0
LTYPE
  5
1F8
100
AcDbSymbolTableRecord
100
AcDbLinetypeTableRecord
  2
DOT
 70
64
  3
. . . . . . . . . . . . . . . . . . . .
 72
65
 73
2
 40
0.2
 49
0.1
 74
0
 49
-0.1
 74
0
  0
LTYPE
  5
1F9
100
AcDbSymbolTableRecord
100
AcDbLinetypeTableRecord
  2
DASHED
 70
64
  3
- - - - - - - - - - - - - - - - - - - -
 72
65
 73
2
 40
0.2
 49
0.1
 74
0
 49
-0.1
 74
0
  0
ENDTAB
  0
TABLE
  2
LAYER
  5
2
100
AcDbSymbolTable
 70
36
  0
LAYER
  5
10
100
AcDbSymbolTableRecord
100
AcDbLayerTableRecord
  2
0
 70
0
 62
7
  6
CONTINUOUS
370
-3
390
F
  0
LAYER
  5
1FA
100
AcDbSymbolTableRecord
100
AcDbLayerTableRecord
  2
DEFAULT_1
 70
0
 62
7
  6
CENTER
370
-3
390
F
  0
LAYER
  5
1FB
100
AcDbSymbolTableRecord
100
AcDbLayerTableRecord
  2
DEFAULT_2
 70
0
 62
8
  6
HIDDEN
370
-3
390
F
  0
LAYER
  5
1FC
100
AcDbSymbolTableRecord
100
AcDbLayerTableRecord
  2
DEFAULT_3
 70
0
 62
7
  6
PHANTOM
370
-3
390
F
  0
LAYER
  5
1FD
100
AcDbSymbolTableRecord
100
AcDbLayerTableRecord
  2
AUSFORMSCHRAEGEN
 70
0
 62
7
  6
CONTINUOUS
370
-3
390
F
  0
LAYER
  5
1FE
100
AcDbSymbolTableRecord
100
AcDbLayerTableRecord
  2
BEZUGSACHSEN
 70
0
 62
7
  6
CONTINUOUS
370
-3
390
F
  0
LAYER
  5
1FF
100
AcDbSymbolTableRecord
100
AcDbLayerTableRecord
  2
BEZUGSEBENEN
 70
0
 62
7
  6
CONTINUOUS
370
-3
390
F
  0
LAYER
  5
200
100
AcDbSymbolTableRecord
100
AcDbLayerTableRecord
  2
BG_STARTBEZUEGE
 70
0
 62
7
  6
CONTINUOUS
370
-3
390
F
  0
LAYER
  5
201
100
AcDbSymbolTableRecord
100
AcDbLayerTableRecord
  2
FASEN
 70
0
 62
7
  6
CONTINUOUS
370
-3
390
F
  0
LAYER
  5
202
100
AcDbSymbolTableRecord
100
AcDbLayerTableRecord
  2
HILFEN
 70
0
 62
7
  6
CONTINUOUS
370
-3
390
F
  0
LAYER
  5
203
100
AcDbSymbolTableRecord
100
AcDbLayerTableRecord
  2
NORM
 70
0
 62
7
  6
CONTINUOUS
370
-3
390
F
  0
LAYER
  5
204
100
AcDbSymbolTableRecord
100
AcDbLayerTableRecord
  2
PLATZIERUNG
 70
0
 62
7
  6
CONTINUOUS
370
-3
390
F
  0
LAYER
  5
205
100
AcDbSymbolTableRecord
100
AcDbLayerTableRecord
  2
RUNDUNGEN
 70
0
 62
7
  6
CONTINUOUS
370
-3
390
F
  0
LAYER
  5
206
100
AcDbSymbolTableRecord
100
AcDbLayerTableRecord
  2
T_STARTBEZUEGE
 70
0
 62
7
  6
CONTINUOUS
370
-3
390
F
  0
LAYER
  5
207
100
AcDbSymbolTableRecord
100
AcDbLayerTableRecord
  2
ZEICHNUNGSBEMASSUNGEN
 70
0
 62
7
  6
CONTINUOUS
370
-3
390
F
  0
ENDTAB
  0
TABLE
  2
STYLE
  5
3
100
AcDbSymbolTable
 70
1
  0
STYLE
  5
11
100
AcDbSymbolTableRecord
100
AcDbTextStyleTableRecord
  2
STANDARD
 70
0
 40
0.0
 41
0.7
 50
0.0
 71
0
 42
0.2
  3
txt
  4

  0
STYLE
  5
208
100
AcDbSymbolTableRecord
100
AcDbTextStyleTableRecord
  2
TEXTSTYLE_1
 70
0
 40
0.0
 41
0.8
 50
0.0
 71
0
 42
0.2
  3
gdt
  4

  0
ENDTAB
  0
TABLE
  2
VIEW
  5
6
100
AcDbSymbolTable
 70
0
  0
ENDTAB
  0
TABLE
  2
UCS
  5
7
100
AcDbSymbolTable
 70
0
  0
ENDTAB
  0
TABLE
  2
APPID
  5
9
100
AcDbSymbolTable
 70
1
  0
APPID
  5
209
100
AcDbSymbolTableRecord
100
AcDbRegAppTableRecord
  2
ACAD
 70
0
  0
ENDTAB
  0
TABLE
  2
BLOCK_RECORD
  5
1
100
AcDbSymbolTable
 70
0
  0
BLOCK_RECORD
  5
20A
100
AcDbSymbolTableRecord
100
AcDbBlockTableRecord
  2
*Model_Space
  0
BLOCK_RECORD
  5
20B
100
AcDbSymbolTableRecord
100
AcDbBlockTableRecord
  2
*Paper_Space
  0
ENDTAB
  0
TABLE
  2
DIMSTYLE
  5
A
100
AcDbSymbolTable
 70
1
100
AcDbDimStyleTable
 71
0
  0
DIMSTYLE
105
20C
100
AcDbSymbolTableRecord
100
AcDbDimStyleTableRecord
  2
STANDARD
 70
0
  3

  4

 40
1.0
 41
3.5
 42
0.0625
 43
0.38
 44
0.18
 45
0.0
 46
0.0
 47
0.005
 48
0.005
140
3.5
141
0.09
142
0.0
143
25.4
144
1.0
145
0.0
146
1.0
147
0.09
 71
1.0
 72
0.0
 73
0
 74
0
 75
0
 76
0
 77
1
 78
8
170
0
171
2
172
0
173
0
174
0
175
0
176
0
177
0
178
5
270
2
271
3
272
3
273
2
274
2
275
0
280
0
281
0
282
0
283
1
284
8
285
0
286
0
287
3
288
0
340
11
  0
ENDTAB
  0
ENDSEC
  0
SECTION
  2
BLOCKS
  0
BLOCK
  5
20
100
AcDbEntity
  8
0
100
AcDbBlockBegin
  2
*Model_Space
 70
0
 10
0.0
 20
0.0
 30
0.0
  3
*Model_Space
  1

  0
ENDBLK
  5
21
100
AcDbEntity
  8
0
100
AcDbBlockEnd
  0
BLOCK
  5
1C
100
AcDbEntity
  8
0
100
AcDbBlockBegin
  2
*Paper_Space
 70
0
 10
0.0
 20
0.0
 30
0.0
  3
*Paper_Space
  1

  0
ENDBLK
  5
1D
100
AcDbEntity
  8
0
100
AcDbBlockEnd
  0
ENDSEC
  0
SECTION
  2
ENTITIES
  0
MTEXT
  5
20D
100
AcDbEntity
  8
0
100
AcDbMText
 62
5
  6
CONTINUOUS
  7
STANDARD
 71
1
 72
1
 10
293.7716848605
 20
73.451322838
 30
0.0
 11
0.0
 21
1.0
 31
0.0
 44
0.9
  1
RUD IMEG-10
 40
7.0
 41
59.6666666667
  0
LINE
  5
20E
100
AcDbEntity
  8
0
100
AcDbLine
 62
7
  6
CONTINUOUS
 10
0.0
 20
-0.0
 11
0.0
 21
297.0
  0
LINE
  5
20F
100
AcDbEntity
  8
0
100
AcDbLine
 62
7
  6
CONTINUOUS
 10
0.0
 20
-0.0
 11
420.0
 21
-0.0
  0
LINE
  5
210
100
AcDbEntity
  8
0
100
AcDbLine
 62
7
  6
CONTINUOUS
 10
0.0
 20
297.0
 11
420.0
 21
297.0
  0
LINE
  5
211
100
AcDbEntity
  8
0
100
AcDbLine
 62
7
  6
CONTINUOUS
 10
420.0
 20
-0.0
 11
420.0
 21
297.0
  0
LINE
  5
212
100
AcDbEntity
  8
RUNDUNGEN
100
AcDbLine
 62
7
  6
CONTINUOUS
 10
101.2472944451
 20
70.3674751921
 11
82.4327333474
 21
96.7873974232
  0
LINE
  5
213
100
AcDbEntity
  8
0
100
AcDbLine
 62
7
  6
CONTINUOUS
 10
98.6889204389
 20
95.7313677177
 11
99.1163054436
 21
95.6015434107
  0
LINE
  5
214
100
AcDbEntity
  8
0
100
AcDbLine
 62
7
  6
CONTINUOUS
 10
98.9220754037
 20
96.2050473685
 11
98.5890532754
 21
96.3839938798
  0
LINE
  5
215
100
AcDbEntity
  8
0
100
AcDbLine
 62
7
  6
CONTINUOUS
 10
101.077742621
 20
99.2061875011
 11
101.4107647493
 21
99.0272409899
  0
LINE
  5
216
100
AcDbEntity
  8
0
100
AcDbLine
 62
7
  6
CONTINUOUS
 10
95.0242365777
 20
103.9231177709
 11
94.6912143833
 21
104.1020642478
  0
LINE
  5
217
100
AcDbEntity
  8
0
100
AcDbLine
 62
7
  6
CONTINUOUS
 10
98.1653370808
 20
96.0459873625
 11
98.6889204389
 21
95.7313677177
  0
LINE
  5
218
100
AcDbEntity
  8
0
100
AcDbLine
 62
7
  6
CONTINUOUS
 10
101.8344797852
 20
99.3652495918
 11
101.3108975527
 21
99.6798671347
  0
LINE
  5
219
100
AcDbEntity
  8
0
100
AcDbLine
 62
7
  6
CONTINUOUS
 10
94.1731358958
 20
103.7149344861
 11
94.5542566793
 21
103.4435913784
  0
LINE
  5
21A
100
AcDbEntity
  8
0
100
AcDbLine
 62
7
  6
CONTINUOUS
 10
94.6912143833
 20
104.1020642478
 11
94.4044559175
 21
104.4225306128
  0
LINE
  5
21B
100
AcDbEntity
  8
0
100
AcDbLine
 62
7
  6
CONTINUOUS
 10
98.5890532754
 20
96.3839938798
 11
98.2541956287
 21
96.7968579115
  0
LINE
  5
21C
100
AcDbEntity
  8
0
100
AcDbLine
 62
7
  6
CONTINUOUS
 10
93.8382787913
 20
104.1277974562
 11
94.1731358958
 21
103.7149344861
  0
LINE
  5
21D
100
AcDbEntity
  8
0
100
AcDbLine
 62
7
  6
CONTINUOUS
 10
97.7823813459
 20
96.5512469419
 11
98.1653370808
 21
96.0459873625
  0
LINE
  5
21E
100
AcDbEntity
  8
0
100
AcDbLine
 62
7
  6
CONTINUOUS
 10
84.4193443505
 20
111.2886629818
 11
94.706391423
 21
93.4709747924
  0
LINE
  5
21F
100
AcDbEntity
  8
0
100
AcDbLine
 62
7
  6
CONTINUOUS
 10
99.1163054436
 20
95.6015434107
 11
99.5899541439
 21
95.6132389746
  0
LINE
  5
220
100
AcDbEntity
  8
0
100
AcDbLine
 62
7
  6
CONTINUOUS
 10
99.6806470514
 20
96.1301940878
 11
98.9220754037
 21
96.2050473685
  0
LINE
  5
221
100
AcDbEntity
  8
0
100
AcDbLine
 62
7
  6
CONTINUOUS
 10
100.3191696741
 20
99.2810427934
 11
101.077742621
 21
99.2061875011
  0
LINE
  5
222
100
AcDbEntity
  8
0
100
AcDbLine
 62
7
  6
CONTINUOUS
 10
98.9742380368
 20
101.6342409079
 11
99.9233710879
 21
101.4237145841
  0
LINE
  5
223
100
AcDbEntity
  8
0
100
AcDbLine
 62
7
  6
CONTINUOUS
 10
100.6782738346
 20
101.8166920804
 11
99.7291410479
 21
102.0272185419
  0
LINE
  5
224
100
AcDbEntity
  8
0
100
AcDbLine
 62
7
  6
CONTINUOUS
 10
101.3108975527
 20
99.6798671347
 11
100.883512581
 21
99.8096914589
  0
LINE
  5
225
100
AcDbEntity
  8
0
100
AcDbLine
 62
7
  6
CONTINUOUS
 10
94.5542566793
 20
103.4435913784
 11
95.1241037082
 21
103.2704915917
  0
LINE
  5
226
100
AcDbEntity
  8
0
100
AcDbLine
 62
7
  6
CONTINUOUS
 10
96.6544865285
 20
107.4727918751
 11
96.9875086569
 21
107.2938453639
  0
LINE
  5
227
100
AcDbEntity
  8
0
100
AcDbLine
 62
7
  6
CONTINUOUS
 10
97.5055870865
 20
107.6809750954
 11
97.1244657774
 21
107.9523192734
  0
LINE
  5
228
100
AcDbEntity
  8
0
100
AcDbLine
 62
7
  6
CONTINUOUS
 10
96.9875086569
 20
107.2938453639
 11
97.2742665722
 21
106.9733800562
  0
LINE
  5
229
100
AcDbEntity
  8
0
100
AcDbLine
 62
7
  6
CONTINUOUS
 10
101.4107647493
 20
99.0272409899
 11
101.745621295
 21
98.6143790729
  0
LINE
  5
22A
100
AcDbEntity
  8
0
100
AcDbLine
 62
7
  6
CONTINUOUS
 10
97.8404436323
 20
107.2681131785
 11
97.5055870865
 21
107.6809750954
  0
LINE
  5
22B
100
AcDbEntity
  8
0
100
AcDbLine
 62
7
  6
CONTINUOUS
 10
102.2174355118
 20
98.8599900081
 11
101.8344797852
 21
99.3652495918
  0
LINE
  5
22C
100
AcDbEntity
  8
0
100
AcDbLine
 62
7
  6
CONTINUOUS
 10
87.1525438457
 20
116.9709747924
 11
87.4411367289
 21
116.4165930217
  0
LINE
  5
22D
100
AcDbEntity
  8
0
100
AcDbLine
 62
7
  6
CONTINUOUS
 10
87.825927217
 20
115.6774173714
 11
88.1145201003
 21
115.1230356007
  0
LINE
  5
22E
100
AcDbEntity
  8
0
100
AcDbLine
 62
7
  6
CONTINUOUS
 10
88.7879034717
 20
113.8294781797
 11
89.1726940286
 21
113.0903023973
  0
LINE
  5
22F
100
AcDbEntity
  8
0
100
AcDbLine
 62
7
  6
CONTINUOUS
 10
89.8460773311
 20
111.7967451085
 11
90.1346702144
 21
111.2423633377
  0
LINE
  5
230
100
AcDbEntity
  8
0
100
AcDbLine
 62
7
  6
CONTINUOUS
 10
90.5194609089
 20
110.503187291
 11
92.2510179333
 21
107.1768971952
  0
LINE
  5
231
100
AcDbEntity
  8
0
100
AcDbLine
 62
7
  6
CONTINUOUS
 10
93.4053894664
 20
104.9593701123
 11
93.8382787913
 21
104.1277974562
  0
LINE
  5
232
100
AcDbEntity
  8
0
100
AcDbLine
 62
7
  6
CONTINUOUS
 10
96.2432196687
 20
99.5079490142
 11
96.531812552
 21
98.9535672435
  0
LINE
  5
233
100
AcDbEntity
  8
0
100
AcDbLine
 62
7
  6
CONTINUOUS
 10
94.4044559175
 20
104.4225306128
 11
93.9715665926
 21
105.2541032689
  0
LINE
  5
234
100
AcDbEntity
  8
0
100
AcDbLine
 62
7
  6
CONTINUOUS
 10
92.8171950595
 20
107.4716303519
 11
91.3742309183
 21
110.2435386769
  0
LINE
  5
235
100
AcDbEntity
  8
0
100
AcDbLine
 62
7
  6
CONTINUOUS
 10
96.5006215326
 20
102.9301408404
 11
97.17400456
 21
101.6365840803
  0
LINE
  5
236
100
AcDbEntity
  8
0
100
AcDbLine
 62
7
  6
CONTINUOUS
 10
95.6774372922
 20
105.2026379439
 11
96.1103266171
 21
104.3710652878
  0
LINE
  5
237
100
AcDbEntity
  8
0
100
AcDbLine
 62
7
  6
CONTINUOUS
 10
92.8840366101
 20
111.0294937727
 11
94.1346056792
 21
108.6271729424
  0
LINE
  5
238
100
AcDbEntity
  8
0
100
AcDbLine
 62
7
  6
CONTINUOUS
 10
97.6458189089
 20
101.8821950843
 11
96.9724358815
 21
103.1757518444
  0
LINE
  5
239
100
AcDbEntity
  8
0
100
AcDbLine
 62
7
  6
CONTINUOUS
 10
96.9650965604
 20
104.1114166394
 11
96.2436143522
 21
105.4973710662
  0
LINE
  5
23A
100
AcDbEntity
  8
0
100
AcDbLine
 62
7
  6
CONTINUOUS
 10
94.7007827393
 20
108.9219060647
 11
93.4502136702
 21
111.324226895
  0
LINE
  5
23B
100
AcDbEntity
  8
0
100
AcDbLine
 62
7
  6
CONTINUOUS
 10
97.5257692672
 20
105.1078980935
 11
97.8143621505
 21
104.5535163227
  0
LINE
  5
23C
100
AcDbEntity
  8
0
100
AcDbLine
 62
7
  6
CONTINUOUS
 10
94.676930898
 20
111.9628154641
 11
96.1198950391
 21
109.1909071392
  0
LINE
  5
23D
100
AcDbEntity
  8
0
100
AcDbLine
 62
7
  6
CONTINUOUS
 10
97.2742665722
 20
106.9733800562
 11
97.7071558971
 21
106.1418074001
  0
LINE
  5
23E
100
AcDbEntity
  8
0
100
AcDbLine
 62
7
  6
CONTINUOUS
 10
100.9668667179
 20
101.2623103097
 11
100.6782738346
 21
101.8166920804
  0
LINE
  5
23F
100
AcDbEntity
  8
0
100
AcDbLine
 62
7
  6
CONTINUOUS
 10
98.2733329572
 20
106.4365405224
 11
97.8404436323
 21
107.2681131785
  0
LINE
  5
240
100
AcDbEntity
  8
0
100
AcDbLine
 62
7
  6
CONTINUOUS
 10
96.6860720992
 20
109.4856402614
 11
94.9545150748
 21
112.8119303571
  0
LINE
  5
241
100
AcDbEntity
  8
0
100
AcDbLine
 62
7
  6
CONTINUOUS
 10
94.5697243803
 20
113.5511064039
 11
94.1368350554
 21
114.38267906
  0
LINE
  5
242
100
AcDbEntity
  8
0
100
AcDbLine
 62
7
  6
CONTINUOUS
 10
92.6938707078
 20
117.1545877815
 11
92.2609813829
 21
117.9861604376
  0
LINE
  5
243
100
AcDbEntity
  8
0
100
AcDbLine
 62
7
  6
CONTINUOUS
 10
91.8761908948
 20
118.7253360879
 11
91.5875980116
 21
119.2797178586
  0
LINE
  5
244
100
AcDbEntity
  8
0
100
AcDbLine
 62
7
  6
CONTINUOUS
 10
97.5881513142
 20
97.154750904
 11
97.7823813459
 21
96.5512469419
  0
LINE
  5
245
100
AcDbEntity
  8
0
100
AcDbLine
 62
7
  6
CONTINUOUS
 10
93.2592586156
 20
105.4704764076
 11
93.4053894664
 21
104.9593701123
  0
LINE
  5
246
100
AcDbEntity
  8
RUNDUNGEN
100
AcDbLine
 62
7
  6
CONTINUOUS
 10
91.1597125755
 20
170.9460298138
 11
91.1597125755
 21
146.2761185573
  0
LINE
  5
247
100
AcDbEntity
  8
RUNDUNGEN
100
AcDbLine
 62
7
  6
CONTINUOUS
 10
77.8794527941
 20
142.1808603739
 11
100.1734074177
 21
192.2539022943
  0
LINE
  5
248
100
AcDbEntity
  8
0
100
AcDbLine
 62
7
  6
CONTINUOUS
 10
99.5899541439
 20
95.6132389746
 11
99.9211418547
 21
95.668207869
  0
LINE
  5
249
100
AcDbEntity
  8
0
100
AcDbLine
 62
7
  6
CONTINUOUS
 10
177.6745120784
 20
105.3098534644
 11
176.9440651373
 21
105.1968704723
  0
LINE
  5
24A
100
AcDbEntity
  8
0
100
AcDbLine
 62
7
  6
CONTINUOUS
 10
182.9171806316
 20
105.70448075
 11
182.3861797538
 21
105.6520819491
  0
LINE
  5
24B
100
AcDbEntity
  8
0
100
AcDbLine
 62
7
  6
CONTINUOUS
 10
100.883512581
 20
99.8096914589
 11
100.4098639469
 21
99.7979959294
  0
LINE
  5
24C
100
AcDbEntity
  8
0
100
AcDbLine
 62
7
  6
CONTINUOUS
 10
96.2751999229
 20
107.5102194525
 11
96.6544865285
 21
107.4727918751
  0
LINE
  5
24D
100
AcDbEntity
  8
0
100
AcDbLine
 62
7
  6
CONTINUOUS
 10
97.1244657774
 20
107.9523192734
 11
96.5546193319
 21
108.12541802
  0
LINE
  5
24E
100
AcDbEntity
  8
0
100
AcDbLine
 62
7
  6
CONTINUOUS
 10
105.5406995704
 20
98.5230956524
 11
98.5039449421
 21
117.8564200998
  0
LINE
  5
24F
100
AcDbEntity
  8
0
100
AcDbLine
 62
7
  6
CONTINUOUS
 10
102.4116655517
 20
98.2564860503
 11
102.2174355118
 21
98.8599900081
  0
LINE
  5
250
100
AcDbEntity
  8
0
100
AcDbLine
 62
7
  6
CONTINUOUS
 10
98.2541956287
 20
96.7968579115
 11
98.1080647696
 21
97.3079642026
  0
LINE
  5
251
100
AcDbEntity
  8
0
100
AcDbLine
 62
7
  6
CONTINUOUS
 10
98.4194643667
 20
105.9254331739
 11
98.2733329572
 21
106.4365405224
  0
LINE
  5
252
100
AcDbEntity
  8
0
100
AcDbLine
 62
7
  6
CONTINUOUS
 10
101.745621295
 20
98.6143790729
 11
101.891753255
 21
98.103270667
  0
LINE
  5
253
100
AcDbEntity
  8
0
100
AcDbLine
 62
7
  6
CONTINUOUS
 10
93.9715665926
 20
105.2541032689
 11
93.8735343639
 21
105.6728129507
  0
LINE
  5
254
100
AcDbEntity
  8
0
100
AcDbLine
 62
7
  6
CONTINUOUS
 10
97.7071558971
 20
106.1418074001
 11
97.8051886763
 21
105.723096661
  0
LINE
  5
255
100
AcDbEntity
  8
0
100
AcDbLine
 62
7
  6
CONTINUOUS
 10
93.2555887046
 20
105.9383093467
 11
93.2592586156
 21
105.4704764076
  0
LINE
  5
256
100
AcDbEntity
  8
0
100
AcDbLine
 62
7
  6
CONTINUOUS
 10
98.4231337521
 20
105.4576013051
 11
98.4194643667
 21
105.9254331739
  0
LINE
  5
257
100
AcDbEntity
  8
0
100
AcDbLine
 62
7
  6
CONTINUOUS
 10
100.4098639469
 20
99.7979959294
 11
100.0786759716
 21
99.7430268974
  0
LINE
  5
258
100
AcDbEntity
  8
0
100
AcDbLine
 62
7
  6
CONTINUOUS
 10
95.3554237381
 20
103.9780877227
 11
95.0242365777
 21
103.9231177709
  0
LINE
  5
259
100
AcDbEntity
  8
0
100
AcDbLine
 62
7
  6
CONTINUOUS
 10
183.5303786537
 20
116.236320362
 11
184.0613799016
 21
116.2887189703
  0
LINE
  5
25A
100
AcDbEntity
  8
0
100
AcDbLine
 62
7
  6
CONTINUOUS
 10
96.5546193319
 20
108.12541802
 11
96.0809701473
 21
108.1137235478
  0
LINE
  5
25B
100
AcDbEntity
  8
0
100
AcDbLine
 62
7
  6
CONTINUOUS
 10
182.1142578905
 20
104.8071767783
 11
182.7773666489
 21
104.7908040991
  0
LINE
  5
25C
100
AcDbEntity
  8
0
100
AcDbLine
 62
7
  6
CONTINUOUS
 10
182.9614008082
 20
102.886493283
 11
179.3168718276
 21
103.3040261798
  0
LINE
  5
25D
100
AcDbEntity
  8
0
100
AcDbLine
 62
7
  6
CONTINUOUS
 10
179.177057656
 20
102.3903493921
 11
182.4900323038
 21
101.9810028107
  0
LINE
  5
25E
100
AcDbEntity
  8
0
100
AcDbLine
 62
7
  6
CONTINUOUS
 10
177.2704820418
 20
104.5337189854
 11
177.734144259
 21
104.4567614229
  0
LINE
  5
25F
100
AcDbEntity
  8
0
100
AcDbLine
 62
7
  6
CONTINUOUS
 10
178.1381742956
 20
105.232895902
 11
177.6745120784
 21
105.3098534644
  0
LINE
  5
260
100
AcDbEntity
  8
RUNDUNGEN
100
AcDbLine
 62
7
  6
CONTINUOUS
 10
107.1844658918
 20
113.035988732
 11
118.8193583644
 21
87.7055865017
  0
LINE
  5
261
100
AcDbEntity
  8
RUNDUNGEN
100
AcDbLine
 62
7
  6
CONTINUOUS
 10
101.9025438457
 20
250.4709310951
 11
101.9025438457
 21
200.3888650479
  0
LINE
  5
262
100
AcDbEntity
  8
RUNDUNGEN
100
AcDbLine
 62
7
  6
CONTINUOUS
 10
103.9025438457
 20
132.471049049
 11
103.9025438457
 21
180.1999286545
  0
LINE
  5
263
100
AcDbEntity
  8
RUNDUNGEN
100
AcDbLine
 62
7
  6
CONTINUOUS
 10
105.1525438457
 20
131.5197550906
 11
105.1525438457
 21
148.8308425867
  0
LINE
  5
264
100
AcDbEntity
  8
0
100
AcDbLine
 62
7
  6
CONTINUOUS
 10
97.6307461666
 20
97.764101582
 11
97.5881513142
 21
97.154750904
  0
LINE
  5
265
100
AcDbEntity
  8
0
100
AcDbLine
 62
7
  6
CONTINUOUS
 10
102.369071825
 20
97.6471332704
 11
102.4116655517
 21
98.2564860503
  0
LINE
  5
266
100
AcDbEntity
  8
0
100
AcDbLine
 62
7
  6
CONTINUOUS
 10
93.8735343639
 20
105.6728129507
 11
93.917963675
 21
106.0482482445
  0
LINE
  5
267
100
AcDbEntity
  8
0
100
AcDbLine
 62
7
  6
CONTINUOUS
 10
97.8051886763
 20
105.723096661
 11
97.7607594312
 21
105.3476614015
  0
LINE
  5
268
100
AcDbEntity
  8
0
100
AcDbLine
 62
7
  6
CONTINUOUS
 10
98.1080647696
 20
97.3079642026
 11
98.1524940147
 21
97.683399462
  0
LINE
  5
269
100
AcDbEntity
  8
0
100
AcDbLine
 62
7
  6
CONTINUOUS
 10
95.1241037082
 20
103.2704915917
 11
95.5496537781
 21
103.3745837649
  0
LINE
  5
26A
100
AcDbEntity
  8
0
100
AcDbLine
 62
7
  6
CONTINUOUS
 10
95.8496499191
 20
107.4061273136
 11
96.2751999229
 21
107.5102194525
  0
LINE
  5
26B
100
AcDbEntity
  8
0
100
AcDbLine
 62
7
  6
CONTINUOUS
 10
94.1368350554
 20
114.38267906
 11
89.4521131017
 21
113.7055011259
  0
LINE
  5
26C
100
AcDbEntity
  8
0
100
AcDbLine
 62
7
  6
CONTINUOUS
 10
89.1726940286
 20
113.0903023973
 11
93.3375030636
 21
113.6142663042
  0
LINE
  5
26D
100
AcDbEntity
  8
0
100
AcDbLine
 62
7
  6
CONTINUOUS
 10
184.3333015874
 20
117.1336247038
 11
183.6701927289
 21
117.1499969648
  0
LINE
  5
26E
100
AcDbEntity
  8
0
100
AcDbLine
 62
7
  6
CONTINUOUS
 10
182.3861797538
 20
105.6520819491
 11
181.7904097485
 21
105.7978109435
  0
LINE
  5
26F
100
AcDbEntity
  8
0
100
AcDbLine
 62
7
  6
CONTINUOUS
 10
181.3863795193
 20
105.0216760944
 11
182.1142578905
 21
104.8071767783
  0
LINE
  5
270
100
AcDbEntity
  8
0
100
AcDbLine
 62
7
  6
CONTINUOUS
 10
101.891753255
 20
98.103270667
 11
101.84732401
 21
97.7278354076
  0
LINE
  5
271
100
AcDbEntity
  8
RUNDUNGEN
100
AcDbLine
 62
7
  6
CONTINUOUS
 10
114.2895776482
 20
157.36452465
 11
112.4272995133
 21
151.3962583065
  0
LINE
  5
272
100
AcDbEntity
  8
0
100
AcDbLine
 62
7
  6
CONTINUOUS
 10
93.440645039
 20
106.5043856068
 11
93.2555887046
 21
105.9383093467
  0
LINE
  5
273
100
AcDbEntity
  8
0
100
AcDbLine
 62
7
  6
CONTINUOUS
 10
98.2380780012
 20
104.8915240049
 11
98.4231337521
 21
105.4576013051
  0
LINE
  5
274
100
AcDbEntity
  8
RUNDUNGEN
100
AcDbLine
 62
7
  6
CONTINUOUS
 10
165.6609377528
 20
126.5194223785
 11
137.9025438457
 21
126.4709747924
  0
LINE
  5
275
100
AcDbEntity
  8
RUNDUNGEN
100
AcDbLine
 62
7
  6
CONTINUOUS
 10
137.9025438457
 20
126.4709747924
 11
110.1441499386
 21
126.5194223785
  0
LINE
  5
276
100
AcDbEntity
  8
0
100
AcDbLine
 62
7
  6
CONTINUOUS
 10
184.0613799016
 20
116.2887189703
 11
184.6571499069
 21
116.1429899759
  0
LINE
  5
277
100
AcDbEntity
  8
0
100
AcDbLine
 62
7
  6
CONTINUOUS
 10
174.1934680134
 20
101.2032150851
 11
180.4025438457
 21
97.9709747924
  0
LINE
  5
278
100
AcDbEntity
  8
0
100
AcDbLine
 62
7
  6
CONTINUOUS
 10
180.8065738822
 20
98.7471092715
 11
178.0323059178
 21
100.1913017632
  0
LINE
  5
279
100
AcDbEntity
  8
0
100
AcDbLine
 62
7
  6
CONTINUOUS
 10
177.2396580337
 20
100.6039281343
 11
175.2580379534
 21
101.6354942548
  0
LINE
  5
27A
100
AcDbEntity
  8
0
100
AcDbLine
 62
7
  6
CONTINUOUS
 10
177.734144259
 20
104.4567614229
 11
178.1304685712
 21
104.2504480447
  0
LINE
  5
27B
100
AcDbEntity
  8
0
100
AcDbLine
 62
7
  6
CONTINUOUS
 10
178.6666065884
 20
104.9578114619
 11
178.1381742956
 21
105.232895902
  0
LINE
  5
27C
100
AcDbEntity
  8
RUNDUNGEN
100
AcDbLine
 62
7
  6
CONTINUOUS
 10
118.0027951035
 20
237.515537439
 11
118.0027951035
 21
224.9370749801
  0
LINE
  5
27D
100
AcDbEntity
  8
RUNDUNGEN
100
AcDbLine
 62
7
  6
CONTINUOUS
 10
121.4025438457
 20
161.4709747924
 11
121.4025438457
 21
194.9709747924
  0
LINE
  5
27E
100
AcDbEntity
  8
RUNDUNGEN
100
AcDbLine
 62
7
  6
CONTINUOUS
 10
122.6525438457
 20
150.9946538375
 11
122.6525438457
 21
165.7971357121
  0
LINE
  5
27F
100
AcDbEntity
  8
RUNDUNGEN
100
AcDbLine
 62
7
  6
CONTINUOUS
 10
122.6525438457
 20
165.8030280316
 11
122.6525438457
 21
176.9460230676
  0
LINE
  5
280
100
AcDbEntity
  8
0
100
AcDbLine
 62
7
  6
CONTINUOUS
 10
97.769538288
 20
98.1886590457
 11
97.6307461666
 21
97.764101582
  0
LINE
  5
281
100
AcDbEntity
  8
0
100
AcDbLine
 62
7
  6
CONTINUOUS
 10
102.2302797366
 20
97.2225758239
 11
102.369071825
 21
97.6471332704
  0
LINE
  5
282
100
AcDbEntity
  8
0
100
AcDbLine
 62
7
  6
CONTINUOUS
 10
93.917963675
 20
106.0482482445
 11
94.1048543938
 21
106.3804090817
  0
LINE
  5
283
100
AcDbEntity
  8
0
100
AcDbLine
 62
7
  6
CONTINUOUS
 10
185.0611799435
 20
116.9191244549
 11
184.3333015874
 21
117.1336247038
  0
LINE
  5
284
100
AcDbEntity
  8
0
100
AcDbLine
 62
7
  6
CONTINUOUS
 10
177.291031563
 20
107.153579301
 11
181.3863795193
 21
105.0216760944
  0
LINE
  5
285
100
AcDbEntity
  8
0
100
AcDbLine
 62
7
  6
CONTINUOUS
 10
181.7904097485
 20
105.7978109435
 11
177.6950617922
 21
107.9297141501
  0
LINE
  5
286
100
AcDbEntity
  8
0
100
AcDbLine
 62
7
  6
CONTINUOUS
 10
179.3111819385
 20
111.0342520662
 11
183.4065298948
 21
108.9023488596
  0
LINE
  5
287
100
AcDbEntity
  8
0
100
AcDbLine
 62
7
  6
CONTINUOUS
 10
183.8105599314
 20
109.6784833387
 11
179.7152119751
 21
111.8103865452
  0
LINE
  5
288
100
AcDbEntity
  8
0
100
AcDbLine
 62
7
  6
CONTINUOUS
 10
180.2539185621
 20
112.8452322706
 11
186.4629943944
 21
109.6129919779
  0
LINE
  5
289
100
AcDbEntity
  8
0
100
AcDbLine
 62
7
  6
CONTINUOUS
 10
98.1524940147
 20
97.683399462
 11
98.5262755183
 21
98.3477211708
  0
LINE
  5
28A
100
AcDbEntity
  8
0
100
AcDbLine
 62
7
  6
CONTINUOUS
 10
93.7218986672
 20
106.8856686654
 11
93.440645039
 21
106.5043856068
  0
LINE
  5
28B
100
AcDbEntity
  8
0
100
AcDbLine
 62
7
  6
CONTINUOUS
 10
91.6059458327
 20
116.9405567965
 11
88.7879034717
 21
113.8294781797
  0
LINE
  5
28C
100
AcDbEntity
  8
0
100
AcDbLine
 62
7
  6
CONTINUOUS
 10
89.4521131017
 20
113.7055011259
 11
92.6938707078
 21
117.1545877815
  0
LINE
  5
28D
100
AcDbEntity
  8
0
100
AcDbLine
 62
7
  6
CONTINUOUS
 10
186.0743764543
 20
110.8017528763
 11
181.4505964828
 21
113.2087403784
  0
LINE
  5
28E
100
AcDbEntity
  8
0
100
AcDbLine
 62
7
  6
CONTINUOUS
 10
184.6571499069
 20
116.1429899759
 11
186.6387698022
 21
115.1114239517
  0
LINE
  5
28F
100
AcDbEntity
  8
0
100
AcDbLine
 62
7
  6
CONTINUOUS
 10
187.0427998387
 20
115.8875584307
 11
185.0611799435
 21
116.9191244549
  0
LINE
  5
290
100
AcDbEntity
  8
0
100
AcDbLine
 62
7
  6
CONTINUOUS
 10
132.1525438457
 20
248.2331428383
 11
132.1525438457
 21
218.8171272151
  0
LINE
  5
291
100
AcDbEntity
  8
RUNDUNGEN
100
AcDbLine
 62
7
  6
CONTINUOUS
 10
137.9025438457
 20
177.9709747924
 11
137.9025438449
 21
169.89230061
  0
LINE
  5
292
100
AcDbEntity
  8
RUNDUNGEN
100
AcDbLine
 62
7
  6
CONTINUOUS
 10
137.9025438457
 20
168.4401884103
 11
137.9025438457
 21
162.5215067051
  0
LINE
  5
293
100
AcDbEntity
  8
RUNDUNGEN
100
AcDbLine
 62
7
  6
CONTINUOUS
 10
137.9025438457
 20
127.4709732694
 11
137.9025438457
 21
139.3521996954
  0
LINE
  5
294
100
AcDbEntity
  8
BEZUGSACHSEN
100
AcDbLine
 62
7
  6
CONTINUOUS
 10
137.9025438457
 20
139.3521996954
 11
137.9025438457
 21
148.9473487987
  0
LINE
  5
295
100
AcDbEntity
  8
RUNDUNGEN
100
AcDbLine
 62
7
  6
CONTINUOUS
 10
137.9025438457
 20
158.5222407174
 11
137.9025438457
 21
159.9786020072
  0
LINE
  5
296
100
AcDbEntity
  8
0
100
AcDbLine
 62
7
  6
CONTINUOUS
 10
101.84732401
 20
97.7278354076
 11
101.4735412071
 21
97.0635157104
  0
LINE
  5
297
100
AcDbEntity
  8
0
100
AcDbLine
 62
7
  6
CONTINUOUS
 10
98.0507924667
 20
98.5699410469
 11
97.769538288
 21
98.1886590457
  0
LINE
  5
298
100
AcDbEntity
  8
RUNDUNGEN
100
AcDbLine
 62
7
  6
CONTINUOUS
 10
137.9025438457
 20
148.9473487987
 11
151.3359552586
 21
148.9764626392
  0
LINE
  5
299
100
AcDbEntity
  8
RUNDUNGEN
100
AcDbLine
 62
7
  6
CONTINUOUS
 10
137.9025438457
 20
148.9473487987
 11
124.4691226414
 21
148.976463624
  0
LINE
  5
29A
100
AcDbEntity
  8
0
100
AcDbLine
 62
7
  6
CONTINUOUS
 10
184.403761367
 20
109.2052720361
 11
183.8105599314
 21
109.6784833387
  0
LINE
  5
29B
100
AcDbEntity
  8
0
100
AcDbLine
 62
7
  6
CONTINUOUS
 10
183.4065298948
 20
108.9023488596
 11
183.8676233497
 21
108.497908619
  0
LINE
  5
29C
100
AcDbEntity
  8
0
100
AcDbLine
 62
7
  6
CONTINUOUS
 10
178.1304685712
 20
104.2504480447
 11
178.459454238
 21
103.914779236
  0
LINE
  5
29D
100
AcDbEntity
  8
0
100
AcDbLine
 62
7
  6
CONTINUOUS
 10
178.9955922553
 20
104.6221426532
 11
178.6666065884
 21
104.9578114619
  0
LINE
  5
29E
100
AcDbEntity
  8
BEZUGSACHSEN
100
AcDbLine
 62
7
  6
CONTINUOUS
 10
143.6525438457
 20
248.2331428383
 11
143.6525438457
 21
218.8171272151
  0
LINE
  5
29F
100
AcDbEntity
  8
0
100
AcDbLine
 62
7
  6
CONTINUOUS
 10
101.949025624
 20
96.8412938571
 11
102.2302797366
 21
97.2225758239
  0
LINE
  5
2A0
100
AcDbEntity
  8
0
100
AcDbLine
 62
7
  6
CONTINUOUS
 10
97.7607594312
 20
105.3476614015
 11
97.5257692672
 21
105.1078980935
  0
LINE
  5
2A1
100
AcDbEntity
  8
0
100
AcDbLine
 62
7
  6
CONTINUOUS
 10
98.2857818159
 20
98.8097052748
 11
98.0507924667
 21
98.5699410469
  0
LINE
  5
2A2
100
AcDbEntity
  8
0
100
AcDbLine
 62
7
  6
CONTINUOUS
 10
94.1048543938
 20
106.3804090817
 11
94.4342071368
 21
106.6692944392
  0
LINE
  5
2A3
100
AcDbEntity
  8
0
100
AcDbLine
 62
7
  6
CONTINUOUS
 10
94.1456142535
 20
107.2236762099
 11
93.7218986672
 21
106.8856686654
  0
LINE
  5
2A4
100
AcDbEntity
  8
0
100
AcDbLine
 62
7
  6
CONTINUOUS
 10
91.5875980116
 20
119.2797178586
 11
87.1525438457
 21
116.9709747924
  0
LINE
  5
2A5
100
AcDbEntity
  8
0
100
AcDbLine
 62
7
  6
CONTINUOUS
 10
87.4411367289
 20
116.4165930217
 11
91.8761908948
 21
118.7253360879
  0
LINE
  5
2A6
100
AcDbEntity
  8
RUNDUNGEN
100
AcDbLine
 62
7
  6
CONTINUOUS
 10
106.9434869191
 20
150.8198863774
 11
118.175186162
 21
152.0003855371
  0
LINE
  5
2A7
100
AcDbEntity
  8
BEZUGSACHSEN
100
AcDbLine
 62
7
  6
CONTINUOUS
 10
158.6516719446
 20
159.4709747924
 11
156.4025438457
 21
159.4709747924
  0
LINE
  5
2A8
100
AcDbEntity
  8
RUNDUNGEN
100
AcDbLine
 62
7
  6
CONTINUOUS
 10
119.4025438457
 20
159.4709747924
 11
117.1534638865
 21
159.4709747924
  0
LINE
  5
2A9
100
AcDbEntity
  8
RUNDUNGEN
100
AcDbLine
 62
7
  6
CONTINUOUS
 10
157.6299015293
 20
152.0003855371
 11
168.8616007722
 21
150.8198863774
  0
LINE
  5
2AA
100
AcDbEntity
  8
0
100
AcDbLine
 62
7
  6
CONTINUOUS
 10
187.6360016596
 20
115.4143478684
 11
187.0427998387
 21
115.8875584307
  0
LINE
  5
2AB
100
AcDbEntity
  8
0
100
AcDbLine
 62
7
  6
CONTINUOUS
 10
186.6387698022
 20
115.1114239517
 11
187.0998636423
 21
114.7069844512
  0
LWPOLYLINE
  5
2AC
100
AcDbEntity
  8
RUNDUNGEN
100
AcDbPolyline
 62
7
  6
CONTINUOUS
 90
17
 70
0
 10
153.1525270378
 20
165.7990404651
 10
153.1461328243
 20
165.9602973907
 10
153.0983720264
 20
166.271205291
 10
152.9990797671
 20
166.5895519851
 10
152.846429656
 20
166.9039081575
 10
152.6416940347
 20
167.2059171434
 10
152.386885836
 20
167.4906278745
 10
152.0857897229
 20
167.753763006
 10
151.7410649378
 20
167.993459045
 10
151.3565150181
 20
168.2077817891
 10
150.9361808147
 20
168.3951470694
 10
150.4852529013
 20
168.5540149705
 10
150.0101106288
 20
168.6830108749
 10
149.5181988249
 20
168.7812137241
 10
149.0171201561
 20
168.8484021489
 10
148.5164140186
 20
168.884920915
 10
148.1619250966
 20
168.893058096
  0
LINE
  5
2AD
100
AcDbEntity
  8
RUNDUNGEN
100
AcDbLine
 62
7
  6
CONTINUOUS
 10
153.1525438457
 20
151.8249000848
 11
153.1525438457
 21
176.9460230675
  0
LINE
  5
2AE
100
AcDbEntity
  8
BEZUGSACHSEN
100
AcDbLine
 62
7
  6
CONTINUOUS
 10
154.4025438457
 20
161.4709747924
 11
154.4025438457
 21
194.9709747924
  0
LINE
  5
2AF
100
AcDbEntity
  8
0
100
AcDbLine
 62
7
  6
CONTINUOUS
 10
101.7140360105
 20
96.6015294916
 11
101.949025624
 21
96.8412938571
  0
LINE
  5
2B0
100
AcDbEntity
  8
0
100
AcDbLine
 62
7
  6
CONTINUOUS
 10
97.8143621505
 20
104.5535163227
 11
98.2380780012
 21
104.8915240049
  0
LINE
  5
2B1
100
AcDbEntity
  8
0
100
AcDbLine
 62
7
  6
CONTINUOUS
 10
98.709496984
 20
99.1477139455
 11
98.2857818159
 21
98.8097052748
  0
LINE
  5
2B2
100
AcDbEntity
  8
0
100
AcDbLine
 62
7
  6
CONTINUOUS
 10
92.2609813829
 20
117.9861604376
 11
87.825927217
 21
115.6774173714
  0
LINE
  5
2B3
100
AcDbEntity
  8
0
100
AcDbLine
 62
7
  6
CONTINUOUS
 10
88.1145201003
 20
115.1230356007
 11
91.6059458327
 21
116.9405567965
  0
LINE
  5
2B4
100
AcDbEntity
  8
0
100
AcDbLine
 62
7
  6
CONTINUOUS
 10
93.3375030636
 20
113.6142663042
 11
89.8460773311
 21
111.7967451085
  0
LINE
  5
2B5
100
AcDbEntity
  8
0
100
AcDbLine
 62
7
  6
CONTINUOUS
 10
90.1346702144
 20
111.2423633377
 11
94.5697243803
 21
113.5511064039
  0
LINE
  5
2B6
100
AcDbEntity
  8
0
100
AcDbLine
 62
7
  6
CONTINUOUS
 10
94.9545150748
 20
112.8119303571
 11
90.5194609089
 21
110.503187291
  0
LINE
  5
2B7
100
AcDbEntity
  8
0
100
AcDbLine
 62
7
  6
CONTINUOUS
 10
91.3742309183
 20
110.2435386769
 11
92.8840366101
 21
111.0294937727
  0
LINE
  5
2B8
100
AcDbEntity
  8
0
100
AcDbLine
 62
7
  6
CONTINUOUS
 10
93.4502136702
 20
111.324226895
 11
94.676930898
 21
111.9628154641
  0
LINE
  5
2B9
100
AcDbEntity
  8
RUNDUNGEN
100
AcDbLine
 62
7
  6
CONTINUOUS
 10
137.9018891087
 20
168.9176877612
 11
127.6431624532
 21
168.8930660757
  0
LINE
  5
2BA
100
AcDbEntity
  8
BEZUGSACHSEN
100
AcDbLine
 62
7
  6
CONTINUOUS
 10
154.4025438457
 20
165.4709747924
 11
153.1525438457
 21
165.4709747924
  0
LINE
  5
2BB
100
AcDbEntity
  8
BEZUGSACHSEN
100
AcDbLine
 62
7
  6
CONTINUOUS
 10
122.6525438457
 20
165.4709747924
 11
121.4025438457
 21
165.4709747924
  0
LINE
  5
2BC
100
AcDbEntity
  8
RUNDUNGEN
100
AcDbLine
 62
7
  6
CONTINUOUS
 10
148.1619252245
 20
168.8930660757
 11
137.9019328134
 21
168.9176907991
  0
LINE
  5
2BD
100
AcDbEntity
  8
0
100
AcDbLine
 62
7
  6
CONTINUOUS
 10
184.7975168318
 20
108.6714764942
 11
184.403761367
 21
109.2052720361
  0
LINE
  5
2BE
100
AcDbEntity
  8
0
100
AcDbLine
 62
7
  6
CONTINUOUS
 10
179.3220091597
 20
103.9589911662
 11
178.9955922553
 21
104.6221426532
  0
LINE
  5
2BF
100
AcDbEntity
  8
BEZUGSACHSEN
100
AcDbLine
 62
7
  6
CONTINUOUS
 10
157.8022925878
 20
237.515537439
 11
157.8022925878
 21
224.9370749801
  0
LINE
  5
2C0
100
AcDbEntity
  8
0
100
AcDbLine
 62
7
  6
CONTINUOUS
 10
101.2903198737
 20
96.2635230045
 11
101.7140360105
 21
96.6015294916
  0
LINE
  5
2C1
100
AcDbEntity
  8
0
100
AcDbLine
 62
7
  6
CONTINUOUS
 10
98.5262755183
 20
98.3477211708
 11
99.0443546306
 21
98.7348499138
  0
LINE
  5
2C2
100
AcDbEntity
  8
0
100
AcDbLine
 62
7
  6
CONTINUOUS
 10
101.4735412071
 20
97.0635157104
 11
100.9554633279
 21
96.6763849215
  0
LINE
  5
2C3
100
AcDbEntity
  8
0
100
AcDbLine
 62
7
  6
CONTINUOUS
 10
94.1346056792
 20
108.6271729424
 11
94.7007827393
 21
108.9219060647
  0
LINE
  5
2C4
100
AcDbEntity
  8
0
100
AcDbLine
 62
7
  6
CONTINUOUS
 10
92.2510179333
 20
107.1768971952
 11
92.8171950595
 21
107.4716303519
  0
LINE
  5
2C5
100
AcDbEntity
  8
0
100
AcDbLine
 62
7
  6
CONTINUOUS
 10
96.1198950391
 20
109.1909071392
 11
96.6860720992
 21
109.4856402614
  0
LINE
  5
2C6
100
AcDbEntity
  8
0
100
AcDbLine
 62
7
  6
CONTINUOUS
 10
95.5610570359
 20
107.9605090844
 11
94.1456142535
 21
107.2236762099
  0
LINE
  5
2C7
100
AcDbEntity
  8
0
100
AcDbLine
 62
7
  6
CONTINUOUS
 10
94.4342071368
 20
106.6692944392
 11
95.8496499191
 21
107.4061273136
  0
LINE
  5
2C8
100
AcDbEntity
  8
0
100
AcDbLine
 62
7
  6
CONTINUOUS
 10
96.2436143522
 20
105.4973710662
 11
95.6774372922
 21
105.2026379439
  0
LINE
  5
2C9
100
AcDbEntity
  8
0
100
AcDbLine
 62
7
  6
CONTINUOUS
 10
96.1103266171
 20
104.3710652878
 11
95.3554237381
 21
103.9780877227
  0
LINE
  5
2CA
100
AcDbEntity
  8
0
100
AcDbLine
 62
7
  6
CONTINUOUS
 10
95.5496537781
 20
103.3745837649
 11
96.9650965604
 21
104.1114166394
  0
LINE
  5
2CB
100
AcDbEntity
  8
0
100
AcDbLine
 62
7
  6
CONTINUOUS
 10
96.9724358815
 20
103.1757518444
 11
96.5006215326
 21
102.9301408404
  0
LWPOLYLINE
  5
2CC
100
AcDbEntity
  8
RUNDUNGEN
100
AcDbPolyline
 62
7
  6
CONTINUOUS
 90
17
 70
0
 10
127.6431625862
 20
168.8930580942
 10
127.3019990182
 20
168.8854898435
 10
126.8016234017
 20
168.8497959737
 10
126.3006758218
 20
168.7834908592
 10
125.808676698
 20
168.6862104985
 10
125.333213165
 20
168.5581526122
 10
124.8817366275
 20
168.4002247905
 10
124.4606492249
 20
168.2137845248
 10
124.0751591849
 20
168.0003656195
 10
123.7293306826
 20
167.7615435916
 10
123.4269794951
 20
167.4992423515
 10
123.1707669031
 20
167.2152938936
 10
122.9645066504
 20
166.9139576753
 10
122.8102330645
 20
166.6001378899
 10
122.7092702193
 20
166.2821783753
 10
122.6598634093
 20
165.97152002
 10
122.6525604541
 20
165.7989627673
  0
LINE
  5
2CD
100
AcDbEntity
  8
BEZUGSACHSEN
100
AcDbLine
 62
7
  6
CONTINUOUS
 10
154.4025438457
 20
173.4709747924
 11
153.1525438457
 21
173.4709747924
  0
LINE
  5
2CE
100
AcDbEntity
  8
BEZUGSACHSEN
100
AcDbLine
 62
7
  6
CONTINUOUS
 10
122.6525438457
 20
173.4709747924
 11
121.4025438457
 21
173.4709747924
  0
LINE
  5
2CF
100
AcDbEntity
  8
0
100
AcDbLine
 62
7
  6
CONTINUOUS
 10
188.0297567391
 20
114.8805515863
 11
187.6360016596
 21
115.4143478684
  0
LINE
  5
2D0
100
AcDbEntity
  8
0
100
AcDbLine
 62
7
  6
CONTINUOUS
 10
183.8676233497
 20
108.497908619
 11
184.1292707413
 21
108.0328841871
  0
LINE
  5
2D1
100
AcDbEntity
  8
0
100
AcDbLine
 62
7
  6
CONTINUOUS
 10
187.0998636423
 20
114.7069844512
 11
187.3615106486
 21
114.2419592792
  0
LINE
  5
2D2
100
AcDbEntity
  8
0
100
AcDbLine
 62
7
  6
CONTINUOUS
 10
178.459454238
 20
103.914779236
 11
178.5889934563
 21
103.5185254959
  0
LINE
  5
2D3
100
AcDbEntity
  8
BEZUGSACHSEN
100
AcDbLine
 62
7
  6
CONTINUOUS
 10
161.5155100431
 20
157.36452465
 11
163.377788178
 21
151.3962583065
  0
LINE
  5
2D4
100
AcDbEntity
  8
RUNDUNGEN
100
AcDbLine
 62
7
  6
CONTINUOUS
 10
170.6525438457
 20
148.8308425867
 11
170.6525438457
 21
131.5197550907
  0
LINE
  5
2D5
100
AcDbEntity
  8
0
100
AcDbLine
 62
7
  6
CONTINUOUS
 10
97.17400456
 20
101.6365840803
 11
97.6458189089
 21
101.8821950843
  0
LINE
  5
2D6
100
AcDbEntity
  8
0
100
AcDbLine
 62
7
  6
CONTINUOUS
 10
99.7291410479
 20
102.0272185419
 11
98.9742380368
 21
101.6342409079
  0
LINE
  5
2D7
100
AcDbEntity
  8
0
100
AcDbLine
 62
7
  6
CONTINUOUS
 10
99.9233710879
 20
101.4237145841
 11
96.2432196687
 21
99.5079490142
  0
LINE
  5
2D8
100
AcDbEntity
  8
0
100
AcDbLine
 62
7
  6
CONTINUOUS
 10
96.531812552
 20
98.9535672435
 11
100.9668667179
 21
101.2623103097
  0
LINE
  5
2D9
100
AcDbEntity
  8
0
100
AcDbLine
 62
7
  6
CONTINUOUS
 10
99.5587625741
 20
99.5898136289
 11
98.709496984
 21
99.1477139455
  0
LINE
  5
2DA
100
AcDbEntity
  8
0
100
AcDbLine
 62
7
  6
CONTINUOUS
 10
99.0443546306
 20
98.7348499138
 11
99.704894534
 21
99.078705223
  0
LINE
  5
2DB
100
AcDbEntity
  8
0
100
AcDbLine
 62
7
  6
CONTINUOUS
 10
100.9554633279
 20
96.6763849215
 11
100.2949234245
 21
96.3325296122
  0
LINE
  5
2DC
100
AcDbEntity
  8
0
100
AcDbLine
 62
7
  6
CONTINUOUS
 10
100.4410542836
 20
95.8214233211
 11
101.2903198737
 21
96.2635230045
  0
LINE
  5
2DD
100
AcDbEntity
  8
0
100
AcDbLine
 62
7
  6
CONTINUOUS
 10
96.0809701473
 20
108.1137235478
 11
95.5610570359
 21
107.9605090844
  0
LINE
  5
2DE
100
AcDbEntity
  8
AUSFORMSCHRAEGEN
100
AcDbLine
 62
7
  6
CONTINUOUS
 10
123.6507985173
 20
177.9461007792
 11
137.9025438457
 21
177.9709747924
  0
LINE
  5
2DF
100
AcDbEntity
  8
RUNDUNGEN
100
AcDbLine
 62
7
  6
CONTINUOUS
 10
121.4025438457
 20
180.9709747924
 11
154.4025438457
 21
180.9709747924
  0
LINE
  5
2E0
100
AcDbEntity
  8
AUSFORMSCHRAEGEN
100
AcDbLine
 62
7
  6
CONTINUOUS
 10
137.9025438457
 20
177.9709747924
 11
152.154289174
 21
177.9461007792
  0
LINE
  5
2E1
100
AcDbEntity
  8
0
100
AcDbLine
 62
7
  6
CONTINUOUS
 10
185.0565953146
 20
107.87896899
 11
184.7975168318
 21
108.6714764942
  0
LINE
  5
2E2
100
AcDbEntity
  8
BEZUGSACHSEN
100
AcDbLine
 62
7
  6
CONTINUOUS
 10
171.9025438457
 20
132.471049049
 11
171.9025438457
 21
180.1999286545
  0
LINE
  5
2E3
100
AcDbEntity
  8
BEZUGSACHSEN
100
AcDbLine
 62
7
  6
CONTINUOUS
 10
173.9025438457
 20
250.4709310951
 11
173.9025438457
 21
200.3888650479
  0
LINE
  5
2E4
100
AcDbEntity
  8
0
100
AcDbLine
 62
7
  6
CONTINUOUS
 10
99.704894534
 20
99.078705223
 11
100.3191696741
 21
99.2810427934
  0
LINE
  5
2E5
100
AcDbEntity
  8
0
100
AcDbLine
 62
7
  6
CONTINUOUS
 10
100.0786759716
 20
99.7430268974
 11
99.5587625741
 21
99.5898136289
  0
LINE
  5
2E6
100
AcDbEntity
  8
0
100
AcDbLine
 62
7
  6
CONTINUOUS
 10
188.2888356073
 20
114.0880448222
 11
188.0297567391
 21
114.8805515863
  0
LINE
  5
2E7
100
AcDbEntity
  8
0
100
AcDbLine
 62
7
  6
CONTINUOUS
 10
184.1292707413
 20
108.0328841871
 11
184.1914717769
 21
107.5072747757
  0
LINE
  5
2E8
100
AcDbEntity
  8
BEZUGSACHSEN
100
AcDbLine
 62
7
  6
CONTINUOUS
 10
184.6453751158
 20
170.9460298138
 11
184.6453751158
 21
146.2761185573
  0
LINE
  5
2E9
100
AcDbEntity
  8
0
100
AcDbLine
 62
7
  6
CONTINUOUS
 10
179.3168718276
 20
103.3040261798
 11
179.3220091597
 21
103.9589911662
  0
LINE
  5
2EA
100
AcDbEntity
  8
0
100
AcDbLine
 62
7
  6
CONTINUOUS
 10
185.0514578245
 20
107.2240036155
 11
185.0565953146
 21
107.87896899
  0
LINE
  5
2EB
100
AcDbEntity
  8
0
100
AcDbLine
 62
7
  6
CONTINUOUS
 10
178.5889934563
 20
103.5185254959
 11
178.5190864187
 21
103.0616871945
  0
LINE
  5
2EC
100
AcDbEntity
  8
BEZUGSACHSEN
100
AcDbLine
 62
7
  6
CONTINUOUS
 10
170.2643881209
 20
98.5230956524
 11
177.3011427492
 21
117.8564200998
  0
LINE
  5
2ED
100
AcDbEntity
  8
BEZUGSACHSEN
100
AcDbLine
 62
7
  6
CONTINUOUS
 10
168.6206217996
 20
113.035988732
 11
156.9857293269
 21
87.7055865017
  0
LINE
  5
2EE
100
AcDbEntity
  8
0
100
AcDbLine
 62
7
  6
CONTINUOUS
 10
100.2949234245
 20
96.3325296122
 11
99.6806470514
 21
96.1301940878
  0
LINE
  5
2EF
100
AcDbEntity
  8
0
100
AcDbLine
 62
7
  6
CONTINUOUS
 10
183.6701927289
 20
117.1499969648
 11
182.8724077054
 21
116.9076587196
  0
LINE
  5
2F0
100
AcDbEntity
  8
0
100
AcDbLine
 62
7
  6
CONTINUOUS
 10
99.9211418547
 20
95.668207869
 11
100.4410542836
 21
95.8214233211
  0
LINE
  5
2F1
100
AcDbEntity
  8
BEZUGSACHSEN
100
AcDbLine
 62
7
  6
CONTINUOUS
 10
152.4025617968
 20
196.9709747924
 11
123.4025258945
 21
196.9709747924
  0
LINE
  5
2F2
100
AcDbEntity
  8
0
100
AcDbLine
 62
7
  6
CONTINUOUS
 10
187.3615106486
 20
114.2419592792
 11
187.4237116842
 21
113.7163498678
  0
LINE
  5
2F3
100
AcDbEntity
  8
0
100
AcDbLine
 62
7
  6
CONTINUOUS
 10
188.2836985025
 20
113.4330801879
 11
188.2888356073
 21
114.0880448222
  0
LINE
  5
2F4
100
AcDbEntity
  8
0
100
AcDbLine
 62
7
  6
CONTINUOUS
 10
184.1914717769
 20
107.5072747757
 11
184.0542262714
 21
106.9210804811
  0
LINE
  5
2F5
100
AcDbEntity
  8
0
100
AcDbLine
 62
7
  6
CONTINUOUS
 10
181.8700387084
 20
115.9497701867
 11
180.2539185621
 21
112.8452322706
  0
LINE
  5
2F6
100
AcDbEntity
  8
0
100
AcDbLine
 62
7
  6
CONTINUOUS
 10
179.7152119751
 20
111.8103865452
 11
179.3111819385
 21
111.0342520662
  0
LINE
  5
2F7
100
AcDbEntity
  8
0
100
AcDbLine
 62
7
  6
CONTINUOUS
 10
177.6950617922
 20
107.9297141501
 11
177.291031563
 21
107.153579301
  0
LINE
  5
2F8
100
AcDbEntity
  8
0
100
AcDbLine
 62
7
  6
CONTINUOUS
 10
175.8095881597
 20
104.3077530012
 11
174.1934680134
 21
101.2032150851
  0
LINE
  5
2F9
100
AcDbEntity
  8
0
100
AcDbLine
 62
7
  6
CONTINUOUS
 10
175.2580379534
 20
101.6354942548
 11
176.5374663384
 21
104.0932533151
  0
LINE
  5
2FA
100
AcDbEntity
  8
0
100
AcDbLine
 62
7
  6
CONTINUOUS
 10
181.4505964828
 20
113.2087403784
 11
182.6626865925
 21
115.5371438155
  0
LINE
  5
2FB
100
AcDbEntity
  8
0
100
AcDbLine
 62
7
  6
CONTINUOUS
 10
182.8724077054
 20
116.9076587196
 11
182.3388386432
 21
116.5277783508
  0
LINE
  5
2FC
100
AcDbEntity
  8
0
100
AcDbLine
 62
7
  6
CONTINUOUS
 10
183.0641476741
 20
115.9857952462
 11
183.5303786537
 21
116.236320362
  0
LINE
  5
2FD
100
AcDbEntity
  8
BEZUGSACHSEN
100
AcDbLine
 62
7
  6
CONTINUOUS
 10
175.6316802736
 20
192.2539022943
 11
197.9256348972
 21
142.1808603739
  0
LINE
  5
2FE
100
AcDbEntity
  8
0
100
AcDbLine
 62
7
  6
CONTINUOUS
 10
187.4237116842
 20
113.7163498678
 11
187.2864665641
 21
113.1301563133
  0
LINE
  5
2FF
100
AcDbEntity
  8
0
100
AcDbLine
 62
7
  6
CONTINUOUS
 10
184.8468742481
 20
106.5084540618
 11
185.0514578245
 21
107.2240036155
  0
LINE
  5
300
100
AcDbEntity
  8
0
100
AcDbLine
 62
7
  6
CONTINUOUS
 10
188.0791145407
 20
112.717529894
 11
188.2836985025
 21
113.4330801879
  0
LINE
  5
301
100
AcDbEntity
  8
0
100
AcDbLine
 62
7
  6
CONTINUOUS
 10
178.5190864187
 20
103.0616871945
 11
177.2396580337
 21
100.6039281343
  0
LINE
  5
302
100
AcDbEntity
  8
0
100
AcDbLine
 62
7
  6
CONTINUOUS
 10
178.0323059178
 20
100.1913017632
 11
179.177057656
 21
102.3903493921
  0
LINE
  5
303
100
AcDbEntity
  8
0
100
AcDbLine
 62
7
  6
CONTINUOUS
 10
187.2864665641
 20
113.1301563133
 11
186.0743764543
 21
110.8017528763
  0
LINE
  5
304
100
AcDbEntity
  8
0
100
AcDbLine
 62
7
  6
CONTINUOUS
 10
184.0542262714
 20
106.9210804811
 11
183.7848727853
 21
106.4036572483
  0
LINE
  5
305
100
AcDbEntity
  8
0
100
AcDbLine
 62
7
  6
CONTINUOUS
 10
180.4025438457
 20
97.9709747924
 11
180.8065738822
 21
98.7471092715
  0
LINE
  5
306
100
AcDbEntity
  8
0
100
AcDbLine
 62
7
  6
CONTINUOUS
 10
182.4900323038
 20
101.9810028107
 11
182.9614008082
 21
102.886493283
  0
LINE
  5
307
100
AcDbEntity
  8
0
100
AcDbLine
 62
7
  6
CONTINUOUS
 10
184.5775207619
 20
105.991030829
 11
184.8468742481
 21
106.5084540618
  0
LINE
  5
308
100
AcDbEntity
  8
0
100
AcDbLine
 62
7
  6
CONTINUOUS
 10
186.4629943944
 20
109.6129919779
 11
188.0791145407
 21
112.717529894
  0
LINE
  5
309
100
AcDbEntity
  8
0
100
AcDbLine
 62
7
  6
CONTINUOUS
 10
182.3388386432
 20
116.5277783508
 11
181.8700387084
 21
115.9497701867
  0
LINE
  5
30A
100
AcDbEntity
  8
0
100
AcDbLine
 62
7
  6
CONTINUOUS
 10
176.2783879018
 20
104.8857607952
 11
175.8095881597
 21
104.3077530012
  0
LINE
  5
30B
100
AcDbEntity
  8
0
100
AcDbLine
 62
7
  6
CONTINUOUS
 10
182.6626865925
 20
115.5371438155
 11
183.0641476741
 21
115.9857952462
  0
LINE
  5
30C
100
AcDbEntity
  8
0
100
AcDbLine
 62
7
  6
CONTINUOUS
 10
183.7848727853
 20
106.4036572483
 11
183.3834117037
 21
105.9550058176
  0
LINE
  5
30D
100
AcDbEntity
  8
0
100
AcDbLine
 62
7
  6
CONTINUOUS
 10
176.5374663384
 20
104.0932533151
 11
176.8715893373
 21
104.4125494927
  0
LINE
  5
30E
100
AcDbEntity
  8
0
100
AcDbLine
 62
7
  6
CONTINUOUS
 10
183.3834117037
 20
105.9550058176
 11
182.9171806316
 21
105.70448075
  0
LINE
  5
30F
100
AcDbEntity
  8
0
100
AcDbLine
 62
7
  6
CONTINUOUS
 10
176.9440651373
 20
105.1968704723
 11
176.2783879018
 21
104.8857607952
  0
LINE
  5
310
100
AcDbEntity
  8
0
100
AcDbLine
 62
7
  6
CONTINUOUS
 10
176.8715893373
 20
104.4125494927
 11
177.2704820418
 21
104.5337189854
  0
LINE
  5
311
100
AcDbEntity
  8
0
100
AcDbLine
 62
7
  6
CONTINUOUS
 10
182.7773666489
 20
104.7908040991
 11
183.5751517187
 21
105.0331423201
  0
LINE
  5
312
100
AcDbEntity
  8
BEZUGSACHSEN
100
AcDbLine
 62
7
  6
CONTINUOUS
 10
191.3857433409
 20
111.2886629818
 11
181.0986962684
 21
93.4709747924
  0
LINE
  5
313
100
AcDbEntity
  8
0
100
AcDbLine
 62
7
  6
CONTINUOUS
 10
184.1087212009
 20
105.4130234111
 11
184.5775207619
 21
105.991030829
  0
LINE
  5
314
100
AcDbEntity
  8
0
100
AcDbLine
 62
7
  6
CONTINUOUS
 10
183.5751517187
 20
105.0331423201
 11
184.1087212009
 21
105.4130234111
  0
LINE
  5
315
100
AcDbEntity
  8
BEZUGSACHSEN
100
AcDbLine
 62
7
  6
CONTINUOUS
 10
193.372354344
 20
96.7873974232
 11
174.5577932462
 21
70.3674751921
  0
LINE
  5
316
100
AcDbEntity
  8
0
100
AcDbLine
 62
7
  6
CONTINUOUS
 10
132.1525438457
 20
228.4709747924
 11
143.6525438457
 21
228.4709747924
  0
LINE
  5
317
100
AcDbEntity
  8
0
100
AcDbLine
 62
7
  6
CONTINUOUS
 10
143.6525438457
 20
242.5709747924
 11
132.1525438457
 21
242.5709747924
  0
LINE
  5
318
100
AcDbEntity
  8
0
100
AcDbLine
 62
7
  6
CONTINUOUS
 10
103.9025438457
 20
252.4709747924
 11
120.1175897024
 21
252.4709747924
  0
LINE
  5
319
100
AcDbEntity
  8
BEZUGSACHSEN
100
AcDbLine
 62
7
  6
CONTINUOUS
 10
155.6874979889
 20
252.4709747924
 11
171.9025438457
 21
252.4709747924
  0
LINE
  5
31A
100
AcDbEntity
  8
0
100
AcDbLine
 62
7
  6
CONTINUOUS
 10
292.9625715247
 20
51.4709747924
 11
301.9625715247
 21
51.4709747924
  0
LINE
  5
31B
100
AcDbEntity
  8
RUNDUNGEN
100
AcDbLine
 62
7
  6
CONTINUOUS
 10
280.0424943144
 20
240.8349505998
 11
283.8502935678
 21
245.6443185565
  0
LINE
  5
31C
100
AcDbEntity
  8
AUSFORMSCHRAEGEN
100
AcDbLine
 62
7
  6
CONTINUOUS
 10
287.5337156599
 20
193.9195271662
 11
278.9625715247
 21
188.9709747924
  0
LINE
  5
31D
100
AcDbEntity
  8
RUNDUNGEN
100
AcDbLine
 62
7
  6
CONTINUOUS
 10
278.9625715247
 20
176.2717100468
 11
278.9625715247
 21
188.9709747924
  0
LINE
  5
31E
100
AcDbEntity
  8
RUNDUNGEN
100
AcDbLine
 62
7
  6
CONTINUOUS
 10
278.9625715247
 20
225.2795389887
 11
278.9625715247
 21
237.7312439987
  0
LINE
  5
31F
100
AcDbEntity
  8
RUNDUNGEN
100
AcDbLine
 62
7
  6
CONTINUOUS
 10
287.9625715247
 20
154.2956711602
 11
287.9625715247
 21
73.2678640366
  0
LINE
  5
320
100
AcDbEntity
  8
BEZUGSACHSEN
100
AcDbLine
 62
7
  6
CONTINUOUS
 10
287.9625715247
 20
56.4710183325
 11
287.9625715247
 21
73.2678640366
  0
LINE
  5
321
100
AcDbEntity
  8
RUNDUNGEN
100
AcDbLine
 62
7
  6
CONTINUOUS
 10
291.9625715247
 20
181.5986028468
 11
291.9625715247
 21
174.0012939934
  0
LINE
  5
322
100
AcDbEntity
  8
RUNDUNGEN
100
AcDbLine
 62
7
  6
CONTINUOUS
 10
291.8513314222
 20
172.9524568646
 11
288.0738090048
 21
155.3444804967
  0
LINE
  5
323
100
AcDbEntity
  8
RUNDUNGEN
100
AcDbLine
 62
7
  6
CONTINUOUS
 10
287.0838918682
 20
155.3288391687
 11
278.9521638846
 21
163.4605671524
  0
LINE
  5
324
100
AcDbEntity
  8
BEZUGSACHSEN
100
AcDbLine
 62
7
  6
CONTINUOUS
 10
306.9625715247
 20
73.2678640366
 11
306.9625715247
 21
56.4710188131
  0
LINE
  5
325
100
AcDbEntity
  8
RUNDUNGEN
100
AcDbLine
 62
7
  6
CONTINUOUS
 10
306.9625715247
 20
73.2678640366
 11
306.9625715247
 21
159.7158455321
  0
LINE
  5
326
100
AcDbEntity
  8
RUNDUNGEN
100
AcDbLine
 62
7
  6
CONTINUOUS
 10
320.7927937403
 20
159.6468879153
 11
308.1323493091
 21
144.5587577807
  0
LINE
  5
327
100
AcDbEntity
  8
RUNDUNGEN
100
AcDbLine
 62
7
  6
CONTINUOUS
 10
316.9625715247
 20
238.5055688809
 11
316.9625715247
 21
224.9370749801
  0
LINE
  5
328
100
AcDbEntity
  8
RUNDUNGEN
100
AcDbLine
 62
7
  6
CONTINUOUS
 10
321.9625715247
 20
169.0595288002
 11
321.9625715247
 21
162.8608259638
  0
LINE
  5
329
100
AcDbEntity
  8
RUNDUNGEN
100
AcDbLine
 62
7
  6
CONTINUOUS
 10
311.1445553924
 20
246.7280258778
 11
315.6242337102
 21
241.9103052935
  0
ARC
  5
32A
100
AcDbEntity
  8
RUNDUNGEN
100
AcDbCircle
 62
7
  6
CONTINUOUS
 10
-636.6129868065
 20
161.2500543561
 40
774.5165742658
100
AcDbArc
 50
359.9059427666
 51
0.0940572334
  0
ARC
  5
32B
100
AcDbEntity
  8
RUNDUNGEN
100
AcDbCircle
 62
7
  6
CONTINUOUS
 10
119.9025438457
 20
123.4709747924
 40
46.0
100
AcDbArc
 50
156.0
 51
215.4560126746
  0
ARC
  5
32C
100
AcDbEntity
  8
RUNDUNGEN
100
AcDbCircle
 62
7
  6
CONTINUOUS
 10
129.9025438457
 20
123.4709747924
 40
25.0
100
AcDbArc
 50
166.241844371
 51
204.6705119495
  0
ARC
  5
32D
100
AcDbEntity
  8
0
100
AcDbCircle
 62
7
  6
CONTINUOUS
 10
91.1743425
 20
115.1886629818
 40
7.8
100
AcDbArc
 50
20.0
 51
210.0
  0
ARC
  5
32E
100
AcDbEntity
  8
0
100
AcDbCircle
 62
7
  6
CONTINUOUS
 10
99.9025438457
 20
96.4709747924
 40
6.0
100
AcDbArc
 50
210.0
 51
20.0
  0
ARC
  5
32F
100
AcDbEntity
  8
RUNDUNGEN
100
AcDbCircle
 62
7
  6
CONTINUOUS
 10
110.1525438457
 20
131.5194153438
 40
5.0
100
AcDbArc
 50
179.9961067886
 51
269.9038128652
  0
ARC
  5
330
100
AcDbEntity
  8
RUNDUNGEN
100
AcDbCircle
 62
7
  6
CONTINUOUS
 10
108.9025438457
 20
132.4709747924
 40
5.0
100
AcDbArc
 50
179.9991490819
 51
217.2000633344
  0
ARC
  5
331
100
AcDbEntity
  8
RUNDUNGEN
100
AcDbCircle
 62
7
  6
CONTINUOUS
 10
103.3268390977
 20
128.2387748251
 40
2.0
100
AcDbArc
 50
349.8290806276
 51
37.2000633344
  0
ARC
  5
332
100
AcDbEntity
  8
RUNDUNGEN
100
AcDbCircle
 62
7
  6
CONTINUOUS
 10
117.6525438457
 20
156.9729950139
 40
5.0
100
AcDbArc
 50
276.0
 51
360.0
  0
ARC
  5
333
100
AcDbEntity
  8
RUNDUNGEN
100
AcDbCircle
 62
7
  6
CONTINUOUS
 10
96.1597125755
 20
170.9460294016
 40
5.0
100
AcDbArc
 50
156.000130166
 51
179.999995277
  0
ARC
  5
334
100
AcDbEntity
  8
RUNDUNGEN
100
AcDbCircle
 62
7
  6
CONTINUOUS
 10
126.7620553373
 20
151.7263768499
 40
4.1041603071
100
AcDbArc
 50
189.4484267322
 51
190.0642654407
  0
ARC
  5
335
100
AcDbEntity
  8
RUNDUNGEN
100
AcDbCircle
 62
7
  6
CONTINUOUS
 10
117.1534157467
 20
156.4709747924
 40
3.0
100
AcDbArc
 50
89.9990805991
 51
162.6714880436
  0
ARC
  5
336
100
AcDbEntity
  8
RUNDUNGEN
100
AcDbCircle
 62
7
  6
CONTINUOUS
 10
107.1525438457
 20
148.8308425867
 40
2.0
100
AcDbArc
 50
96.0
 51
180.0
  0
ARC
  5
337
100
AcDbEntity
  8
RUNDUNGEN
100
AcDbCircle
 62
7
  6
CONTINUOUS
 10
119.4025438457
 20
161.4709747924
 40
2.0
100
AcDbArc
 50
270.0
 51
360.0
  0
ARC
  5
338
100
AcDbEntity
  8
RUNDUNGEN
100
AcDbCircle
 62
7
  6
CONTINUOUS
 10
123.6525438457
 20
176.9461023023
 40
1.0
100
AcDbArc
 50
90.1
 51
180.0
  0
ARC
  5
339
100
AcDbEntity
  8
BEZUGSACHSEN
100
AcDbCircle
 62
7
  6
CONTINUOUS
 10
155.9025438457
 20
123.4709747924
 40
46.0
100
AcDbArc
 50
324.5439873254
 51
24.0
  0
ARC
  5
33A
100
AcDbEntity
  8
BEZUGSACHSEN
100
AcDbCircle
 62
7
  6
CONTINUOUS
 10
137.9025438457
 20
96.4709747924
 40
45.0
100
AcDbArc
 50
215.4560126746
 51
324.5439873254
  0
ARC
  5
33B
100
AcDbEntity
  8
BEZUGSACHSEN
100
AcDbCircle
 62
7
  6
CONTINUOUS
 10
145.9025438457
 20
123.4709747924
 40
25.0
100
AcDbArc
 50
335.3294880505
 51
13.7581556291
  0
ARC
  5
33C
100
AcDbEntity
  8
BEZUGSACHSEN
100
AcDbCircle
 62
7
  6
CONTINUOUS
 10
137.9025438457
 20
96.4709747924
 40
21.0
100
AcDbArc
 50
204.6705119495
 51
335.3294880505
  0
ARC
  5
33D
100
AcDbEntity
  8
BEZUGSACHSEN
100
AcDbCircle
 62
7
  6
CONTINUOUS
 10
184.6307451913
 20
115.1886629818
 40
7.8
100
AcDbArc
 50
330.0
 51
160.0
  0
ARC
  5
33E
100
AcDbEntity
  8
BEZUGSACHSEN
100
AcDbCircle
 62
7
  6
CONTINUOUS
 10
175.9025438457
 20
96.4709747924
 40
6.0
100
AcDbArc
 50
160.0
 51
330.0
  0
ARC
  5
33F
100
AcDbEntity
  8
RUNDUNGEN
100
AcDbCircle
 62
7
  6
CONTINUOUS
 10
165.6525438457
 20
131.5194153438
 40
5.0
100
AcDbArc
 50
270.0961871359
 51
0.003893212
  0
ARC
  5
340
100
AcDbEntity
  8
BEZUGSACHSEN
100
AcDbCircle
 62
7
  6
CONTINUOUS
 10
166.9025438457
 20
132.4709747924
 40
5.0
100
AcDbArc
 50
322.7999366656
 51
0.0008509181
  0
ARC
  5
341
100
AcDbEntity
  8
BEZUGSACHSEN
100
AcDbCircle
 62
7
  6
CONTINUOUS
 10
172.4782485936
 20
128.2387748251
 40
2.0
100
AcDbArc
 50
142.7999366656
 51
190.1709193724
  0
ARC
  5
342
100
AcDbEntity
  8
RUNDUNGEN
100
AcDbCircle
 62
7
  6
CONTINUOUS
 10
158.1525438457
 20
156.9729950139
 40
5.0
100
AcDbArc
 50
180.0013663227
 51
264.0
  0
ARC
  5
343
100
AcDbEntity
  8
BEZUGSACHSEN
100
AcDbCircle
 62
7
  6
CONTINUOUS
 10
179.6453751158
 20
170.9460294016
 40
5.0
100
AcDbArc
 50
0.000004723
 51
23.999869834
  0
ARC
  5
344
100
AcDbEntity
  8
BEZUGSACHSEN
100
AcDbCircle
 62
7
  6
CONTINUOUS
 10
158.6516719446
 20
156.4709747924
 40
3.0
100
AcDbArc
 50
17.3285119564
 51
90.0009194009
  0
ARC
  5
345
100
AcDbEntity
  8
RUNDUNGEN
100
AcDbCircle
 62
7
  6
CONTINUOUS
 10
168.6525438457
 20
148.8308425867
 40
2.0
100
AcDbArc
 50
0.0
 51
84.0
  0
ARC
  5
346
100
AcDbEntity
  8
BEZUGSACHSEN
100
AcDbCircle
 62
7
  6
CONTINUOUS
 10
156.4025438457
 20
161.4709747924
 40
2.0
100
AcDbArc
 50
180.0
 51
270.0
  0
ARC
  5
347
100
AcDbEntity
  8
RUNDUNGEN
100
AcDbCircle
 62
7
  6
CONTINUOUS
 10
152.1525438457
 20
176.9461023023
 40
1.0
100
AcDbArc
 50
0.0
 51
89.9
  0
ARC
  5
348
100
AcDbEntity
  8
BEZUGSACHSEN
100
AcDbCircle
 62
7
  6
CONTINUOUS
 10
137.9025438457
 20
283.7709747924
 40
36.0
100
AcDbArc
 50
279.1907733794
 51
299.6055774674
  0
ARC
  5
349
100
AcDbEntity
  8
0
100
AcDbCircle
 62
7
  6
CONTINUOUS
 10
137.9025438457
 20
283.7709747924
 40
36.0
100
AcDbArc
 50
240.3944225326
 51
260.8092266206
  0
ARC
  5
34A
100
AcDbEntity
  8
RUNDUNGEN
100
AcDbCircle
 62
7
  6
CONTINUOUS
 10
81.9025438457
 20
200.388737532
 40
20.0
100
AcDbArc
 50
335.9996789586
 51
0.0003653061
  0
ARC
  5
34B
100
AcDbEntity
  8
BEZUGSACHSEN
100
AcDbCircle
 62
7
  6
CONTINUOUS
 10
193.9025438457
 20
200.388737532
 40
20.0
100
AcDbArc
 50
179.9996346939
 51
204.0003210414
  0
ARC
  5
34C
100
AcDbEntity
  8
RUNDUNGEN
100
AcDbCircle
 62
7
  6
CONTINUOUS
 10
107.9406836587
 20
237.5126037768
 40
10.0621118725
100
AcDbArc
 50
0.0167048894
 51
5.6633695316
  0
ARC
  5
34D
100
AcDbEntity
  8
BEZUGSACHSEN
100
AcDbCircle
 62
7
  6
CONTINUOUS
 10
167.8644040326
 20
237.5126037768
 40
10.0621118725
100
AcDbArc
 50
174.3366304684
 51
179.9832951106
  0
ARC
  5
34E
100
AcDbEntity
  8
BEZUGSACHSEN
100
AcDbCircle
 62
7
  6
CONTINUOUS
 10
137.9025438457
 20
213.6209747924
 40
7.75
100
AcDbArc
 50
187.9544164444
 51
42.1034488707
  0
ARC
  5
34F
100
AcDbEntity
  8
0
100
AcDbCircle
 62
7
  6
CONTINUOUS
 10
137.9025438457
 20
213.6209747924
 40
7.75
100
AcDbArc
 50
137.8965511293
 51
187.9544164444
  0
CIRCLE
  5
350
100
AcDbEntity
  8
BEZUGSACHSEN
100
AcDbCircle
 62
7
  6
CONTINUOUS
 10
113.3025438457
 20
231.9709747924
 40
3.0
  0
ARC
  5
351
100
AcDbEntity
  8
BEZUGSACHSEN
100
AcDbCircle
 62
7
  6
CONTINUOUS
 10
171.9025438457
 20
250.4709747924
 40
2.0
100
AcDbArc
 50
0.0
 51
90.0
  0
ARC
  5
352
100
AcDbEntity
  8
RUNDUNGEN
100
AcDbCircle
 62
7
  6
CONTINUOUS
 10
103.9025438457
 20
250.4709747924
 40
2.0
100
AcDbArc
 50
90.0
 51
180.0
  0
ARC
  5
353
100
AcDbEntity
  8
RUNDUNGEN
100
AcDbCircle
 62
7
  6
CONTINUOUS
 10
123.4025438457
 20
194.9709747924
 40
2.0
100
AcDbArc
 50
90.000514262
 51
180.0004998082
  0
ARC
  5
354
100
AcDbEntity
  8
BEZUGSACHSEN
100
AcDbCircle
 62
7
  6
CONTINUOUS
 10
152.4025438457
 20
194.9709747924
 40
2.0
100
AcDbArc
 50
359.9995001918
 51
89.999485738
  0
ARC
  5
355
100
AcDbEntity
  8
BEZUGSACHSEN
100
AcDbCircle
 62
7
  6
CONTINUOUS
 10
292.9625715247
 20
56.4709747924
 40
5.0
100
AcDbArc
 50
180.0
 51
270.0
  0
ARC
  5
356
100
AcDbEntity
  8
RUNDUNGEN
100
AcDbCircle
 62
7
  6
CONTINUOUS
 10
251.52298568
 20
199.4936408038
 40
36.4395858447
100
AcDbArc
 50
318.0819302534
 51
38.4808328995
  0
ARC
  5
357
100
AcDbEntity
  8
RUNDUNGEN
100
AcDbCircle
 62
7
  6
CONTINUOUS
 10
280.2908702073
 20
149.2743280843
 40
32.1186533627
100
AcDbArc
 50
42.4338690593
 51
47.5661309407
  0
ARC
  5
358
100
AcDbEntity
  8
RUNDUNGEN
100
AcDbCircle
 62
7
  6
CONTINUOUS
 10
284.9625715247
 20
169.4709747924
 40
8.5
100
AcDbArc
 50
138.0819302534
 51
225.0
  0
ARC
  5
359
100
AcDbEntity
  8
RUNDUNGEN
100
AcDbCircle
 62
7
  6
CONTINUOUS
 10
286.9625715247
 20
174.0012784247
 40
5.0
100
AcDbArc
 50
347.8914593113
 51
0.0001784036
  0
ARC
  5
35A
100
AcDbEntity
  8
RUNDUNGEN
100
AcDbCircle
 62
7
  6
CONTINUOUS
 10
292.9625715247
 20
154.2956711602
 40
5.0
100
AcDbArc
 50
167.8916025699
 51
180.0
  0
ARC
  5
35B
100
AcDbEntity
  8
RUNDUNGEN
100
AcDbCircle
 62
7
  6
CONTINUOUS
 10
284.9625715247
 20
153.2075188252
 40
3.0
100
AcDbArc
 50
0.0
 51
45.0
  0
ARC
  5
35C
100
AcDbEntity
  8
RUNDUNGEN
100
AcDbCircle
 62
7
  6
CONTINUOUS
 10
276.9625715247
 20
176.2717100468
 40
2.0
100
AcDbArc
 50
319.6324064558
 51
360.0
  0
ARC
  5
35D
100
AcDbEntity
  8
RUNDUNGEN
100
AcDbCircle
 62
7
  6
CONTINUOUS
 10
297.9625715247
 20
234.4709747924
 40
18.0
100
AcDbArc
 50
42.9177114614
 51
141.6297101652
  0
ARC
  5
35E
100
AcDbEntity
  8
BEZUGSACHSEN
100
AcDbCircle
 62
7
  6
CONTINUOUS
 10
297.9625715247
 20
234.4709747924
 40
18.0
100
AcDbArc
 50
45.7062184114
 51
45.9532950275
  0
ARC
  5
35F
100
AcDbEntity
  8
BEZUGSACHSEN
100
AcDbCircle
 62
7
  6
CONTINUOUS
 10
297.9625715247
 20
234.4709747924
 40
18.0
100
AcDbArc
 50
50.2329950854
 51
129.7670049146
  0
ARC
  5
360
100
AcDbEntity
  8
BEZUGSACHSEN
100
AcDbCircle
 62
7
  6
CONTINUOUS
 10
297.9625715247
 20
234.4709747924
 40
18.0
100
AcDbArc
 50
135.8002329949
 51
141.6297101652
  0
ARC
  5
361
100
AcDbEntity
  8
RUNDUNGEN
100
AcDbCircle
 62
7
  6
CONTINUOUS
 10
283.9625715247
 20
225.2795389887
 40
5.0
100
AcDbArc
 50
180.0
 51
218.4808328995
  0
ARC
  5
362
100
AcDbEntity
  8
RUNDUNGEN
100
AcDbCircle
 62
7
  6
CONTINUOUS
 10
283.9625715247
 20
237.7312439987
 40
5.0
100
AcDbArc
 50
141.6297101652
 51
180.0
  0
ARC
  5
363
100
AcDbEntity
  8
BEZUGSACHSEN
100
AcDbCircle
 62
7
  6
CONTINUOUS
 10
283.9625715247
 20
237.7312439987
 40
5.0
100
AcDbArc
 50
141.6297101652
 51
180.0
  0
ARC
  5
364
100
AcDbEntity
  8
BEZUGSACHSEN
100
AcDbCircle
 62
7
  6
CONTINUOUS
 10
283.9625715247
 20
225.2795389887
 40
5.0
100
AcDbArc
 50
180.0
 51
218.4808328995
  0
ARC
  5
365
100
AcDbEntity
  8
BEZUGSACHSEN
100
AcDbCircle
 62
7
  6
CONTINUOUS
 10
301.9625715247
 20
56.4709747924
 40
5.0
100
AcDbArc
 50
270.0
 51
360.0
  0
ARC
  5
366
100
AcDbEntity
  8
RUNDUNGEN
100
AcDbCircle
 62
7
  6
CONTINUOUS
 10
311.9625715247
 20
141.3448197322
 40
5.0
100
AcDbArc
 50
140.0
 51
180.0
  0
ARC
  5
367
100
AcDbEntity
  8
RUNDUNGEN
100
AcDbCircle
 62
7
  6
CONTINUOUS
 10
316.9625715247
 20
162.8608259638
 40
5.0
100
AcDbArc
 50
320.0
 51
360.0
  0
ARC
  5
368
100
AcDbEntity
  8
RUNDUNGEN
100
AcDbCircle
 62
7
  6
CONTINUOUS
 10
316.9625715247
 20
169.0595288002
 40
5.0
100
AcDbArc
 50
0.0
 51
41.9868264584
  0
ARC
  5
369
100
AcDbEntity
  8
BEZUGSACHSEN
100
AcDbCircle
 62
7
  6
CONTINUOUS
 10
316.9625715247
 20
169.0595288002
 40
5.0
100
AcDbArc
 50
0.0
 51
38.9640220769
  0
ARC
  5
36A
100
AcDbEntity
  8
BEZUGSACHSEN
100
AcDbCircle
 62
7
  6
CONTINUOUS
 10
316.9625715247
 20
162.8608259638
 40
5.0
100
AcDbArc
 50
320.0
 51
335.9999999084
  0
ARC
  5
36B
100
AcDbEntity
  8
BEZUGSACHSEN
100
AcDbCircle
 62
7
  6
CONTINUOUS
 10
316.9625715247
 20
162.8608259638
 40
5.0
100
AcDbArc
 50
344.0000000887
 51
360.0
  0
ARC
  5
36C
100
AcDbEntity
  8
RUNDUNGEN
100
AcDbCircle
 62
7
  6
CONTINUOUS
 10
311.9625715247
 20
224.9370749801
 40
5.0
100
AcDbArc
 50
328.2395341854
 51
360.0
  0
ARC
  5
36D
100
AcDbEntity
  8
RUNDUNGEN
100
AcDbCircle
 62
7
  6
CONTINUOUS
 10
311.9625715247
 20
238.5055688809
 40
5.0
100
AcDbArc
 50
0.0
 51
42.9177114614
  0
ARC
  5
36E
100
AcDbEntity
  8
BEZUGSACHSEN
100
AcDbCircle
 62
7
  6
CONTINUOUS
 10
311.9625715247
 20
224.9370749801
 40
5.0
100
AcDbArc
 50
328.2395341854
 51
360.0
  0
ARC
  5
36F
100
AcDbEntity
  8
BEZUGSACHSEN
100
AcDbCircle
 62
7
  6
CONTINUOUS
 10
351.709047214
 20
200.3311679728
 40
41.7464756893
100
AcDbArc
 50
200.6267898587
 51
201.9697828832
  0
ARC
  5
370
100
AcDbEntity
  8
RUNDUNGEN
100
AcDbCircle
 62
7
  6
CONTINUOUS
 10
351.709047214
 20
200.3311679728
 40
41.7464756893
100
AcDbArc
 50
148.2395341854
 51
221.9870659769
  0
SPLINE
  5
371
100
AcDbEntity
  8
RUNDUNGEN
100
AcDbSpline
 62
7
  6
CONTINUOUS
 70
0
 71
3
 72
14
 73
10
 74
0
 42
0.0000001
 43
0.0000001
 44
0.0000000001
 40
0.0
 40
0.0
 40
0.0
 40
0.0
 40
0.4521173987
 40
0.6246920047
 40
0.76307062
 40
0.868423027
 40
0.9421145388
 40
0.985519137
 40
1.0
 40
1.0
 40
1.0
 40
1.0
 10
122.8172067379
 20
158.8707809118
 30
0.0
 10
122.7918772593
 20
158.8815391947
 30
0.0
 10
122.7570414018
 20
158.8968789577
 30
0.0
 10
122.7151685909
 20
158.9168377952
 30
0.0
 10
122.6922742807
 20
158.9279795833
 30
0.0
 10
122.6755341699
 20
158.9370322543
 30
0.0
 10
122.6626059104
 20
158.9429150791
 30
0.0
 10
122.6573150801
 20
158.9476930838
 30
0.0
 10
122.6525438457
 20
158.9486098867
 30
0.0
 10
122.6525438457
 20
158.9494913086
 30
0.0
  0
SPLINE
  5
372
100
AcDbEntity
  8
RUNDUNGEN
100
AcDbSpline
 62
7
  6
CONTINUOUS
 70
0
 71
3
 72
11
 73
7
 74
0
 42
0.0000001
 43
0.0000001
 44
0.0000000001
 40
0.0
 40
0.0
 40
0.0
 40
0.0
 40
0.3225217587
 40
0.613295294
 40
0.8456130174
 40
1.0
 40
1.0
 40
1.0
 40
1.0
 10
124.7680364686
 20
158.5307158875
 30
0.0
 10
124.5540476388
 20
158.5308538169
 30
0.0
 10
124.1468613707
 20
158.5532036249
 30
0.0
 10
123.5915466814
 20
158.6392137557
 30
0.0
 10
123.155092329
 20
158.7484305344
 30
0.0
 10
122.911489709
 20
158.8307386345
 30
0.0
 10
122.8172067379
 20
158.8707809118
 30
0.0
  0
SPLINE
  5
373
100
AcDbEntity
  8
RUNDUNGEN
100
AcDbSpline
 62
7
  6
CONTINUOUS
 70
0
 71
3
 72
11
 73
7
 74
0
 42
0.0000001
 43
0.0000001
 44
0.0000000001
 40
0.0
 40
0.0
 40
0.0
 40
0.0
 40
0.1543882774
 40
0.3867059315
 40
0.6774784076
 40
1.0
 40
1.0
 40
1.0
 40
1.0
 10
152.9878812305
 20
158.8707809117
 30
0.0
 10
152.8935974587
 20
158.8307383096
 30
0.0
 10
152.649993347
 20
158.7484319074
 30
0.0
 10
152.2135392056
 20
158.6392143896
 30
0.0
 10
151.6582254824
 20
158.5532028252
 30
0.0
 10
151.2510399524
 20
158.5308538722
 30
0.0
 10
151.0370512227
 20
158.5307158875
 30
0.0
  0
SPLINE
  5
374
100
AcDbEntity
  8
RUNDUNGEN
100
AcDbSpline
 62
7
  6
CONTINUOUS
 70
0
 71
3
 72
14
 73
10
 74
0
 42
0.0000001
 43
0.0000001
 44
0.0000000001
 40
0.0
 40
0.0
 40
0.0
 40
0.0
 40
0.0144809254
 40
0.0578856589
 40
0.1315772957
 40
0.2369297319
 40
0.3753082113
 40
0.5478826013
 40
1.0
 40
1.0
 40
1.0
 40
1.0
 10
153.1525438457
 20
158.9494913086
 30
0.0
 10
153.1525438457
 20
158.9486098841
 30
0.0
 10
153.1477725946
 20
158.9476930897
 30
0.0
 10
153.1424817579
 20
158.9429150824
 30
0.0
 10
153.1295534971
 20
158.9370322626
 30
0.0
 10
153.1128134141
 20
158.9279795925
 30
0.0
 10
153.0899191683
 20
158.9168377984
 30
0.0
 10
153.0480464615
 20
158.8968789405
 30
0.0
 10
153.0132106735
 20
158.8815391812
 30
0.0
 10
152.9878812305
 20
158.8707809117
 30
0.0
  0
LINE
  5
375
100
AcDbEntity
  8
RUNDUNGEN
100
AcDbLine
 62
7
  6
CONTINUOUS
 10
137.9025438457
 20
168.4401884103
 11
137.9018890724
 21
168.9176914009
  0
SPLINE
  5
376
100
AcDbEntity
  8
RUNDUNGEN
100
AcDbSpline
 62
7
  6
CONTINUOUS
 70
0
 71
3
 72
13
 73
9
 74
0
 42
0.0000001
 43
0.0000001
 44
0.0000000001
 40
0.0
 40
0.0
 40
0.0
 40
0.0
 40
0.2503396075
 40
0.3750290288
 40
0.4995786821
 40
0.6243359492
 40
0.7495509804
 40
1.0
 40
1.0
 40
1.0
 40
1.0
 10
122.888786316
 20
150.3855260214
 30
0.0
 10
122.9559172578
 20
150.2061440821
 30
0.0
 10
123.0503518202
 20
149.9343443376
 30
0.0
 10
123.2331325535
 20
149.5970772947
 30
0.0
 10
123.4135995151
 20
149.3724525522
 30
0.0
 10
123.6395253898
 20
149.192100713
 30
0.0
 10
123.9858538153
 20
149.0233965331
 30
0.0
 10
124.2775075756
 20
148.9768917437
 30
0.0
 10
124.4691226414
 20
148.976463624
 30
0.0
  0
SPLINE
  5
377
100
AcDbEntity
  8
RUNDUNGEN
100
AcDbSpline
 62
7
  6
CONTINUOUS
 70
0
 71
3
 72
9
 73
5
 74
0
 42
0.0000001
 43
0.0000001
 44
0.0000000001
 40
0.0
 40
0.0
 40
0.0
 40
0.0
 40
0.2503339
 40
1.0
 40
1.0
 40
1.0
 40
1.0
 10
152.9162971071
 20
150.3855262343
 30
0.0
 10
152.9590925327
 20
150.4998909594
 30
0.0
 10
153.1030349804
 20
150.9668633592
 30
0.0
 10
153.1525438457
 20
151.4592229644
 30
0.0
 10
153.1525438457
 20
151.8249000848
 30
0.0
  0
SPLINE
  5
378
100
AcDbEntity
  8
RUNDUNGEN
100
AcDbSpline
 62
7
  6
CONTINUOUS
 70
0
 71
3
 72
13
 73
9
 74
0
 42
0.0000001
 43
0.0000001
 44
0.0000000001
 40
0.0
 40
0.0
 40
0.0
 40
0.0
 40
0.2504910414
 40
0.3757005282
 40
0.500446649
 40
0.6249888125
 40
0.7496673633
 40
1.0
 40
1.0
 40
1.0
 40
1.0
 10
151.3359552586
 20
148.9764626392
 30
0.0
 10
151.5276044266
 20
148.9768770281
 30
0.0
 10
151.8193107563
 20
149.0233524213
 30
0.0
 10
152.1656126387
 20
149.1921554569
 30
0.0
 10
152.3915544934
 20
149.3724588941
 30
0.0
 10
152.5719744336
 20
149.597101824
 30
0.0
 10
152.754734471
 20
149.9343576139
 30
0.0
 10
152.8491716321
 20
150.2061458932
 30
0.0
 10
152.9162971071
 20
150.3855262343
 30
0.0
  0
SPLINE
  5
379
100
AcDbEntity
  8
RUNDUNGEN
100
AcDbSpline
 62
7
  6
CONTINUOUS
 70
0
 71
3
 72
22
 73
18
 74
0
 42
0.0000001
 43
0.0000001
 44
0.0000000001
 40
0.0
 40
0.0
 40
0.0
 40
0.0
 40
0.0012147502
 40
0.0048385148
 40
0.0108541713
 40
0.0192432297
 40
0.0299870477
 40
0.0430669417
 40
0.0761364059
 40
0.1181027342
 40
0.1685383371
 40
0.2270060176
 40
0.2929306161
 40
0.4444211401
 40
0.6172746709
 40
0.8050755246
 40
1.0
 40
1.0
 40
1.0
 40
1.0
 10
137.9025438457
 20
126.4709747924
 30
0.0
 10
137.9021389279
 20
126.4709754992
 30
0.0
 10
137.9029278329
 20
126.4735624577
 30
0.0
 10
137.9020473266
 20
126.476242171
 30
0.0
 10
137.9024405935
 20
126.4827834846
 30
0.0
 10
137.9021707258
 20
126.4909320686
 30
0.0
 10
137.9021860423
 20
126.5017597039
 30
0.0
 10
137.9020642905
 20
126.520681304
 30
0.0
 10
137.9020025061
 20
126.5500809126
 30
0.0
 10
137.90191446
 20
126.5918929025
 30
0.0
 10
137.9018620648
 20
126.6421871534
 30
0.0
 10
137.9018272971
 20
126.7004619417
 30
0.0
 10
137.9018133014
 20
126.7924238186
 30
0.0
 10
137.9018595556
 20
126.9225135599
 30
0.0
 10
137.9020020263
 20
127.0932292849
 30
0.0
 10
137.9022294642
 20
127.278422807
 30
0.0
 10
137.9024304431
 20
127.4059982824
 30
0.0
 10
137.9025438457
 20
127.4709732694
 30
0.0
  0
SPLINE
  5
37A
100
AcDbEntity
  8
RUNDUNGEN
100
AcDbSpline
 62
7
  6
CONTINUOUS
 70
0
 71
3
 72
9
 73
5
 74
0
 42
0.0000001
 43
0.0000001
 44
0.0000000001
 40
0.0
 40
0.0
 40
0.0
 40
0.0
 40
0.2492558739
 40
1.0
 40
1.0
 40
1.0
 40
1.0
 10
122.6525438457
 20
151.8249000848
 30
0.0
 10
122.6525438457
 20
151.7604973828
 30
0.0
 10
122.6571798949
 20
151.5021636656
 30
0.0
 10
122.6817267633
 20
151.2439840088
 30
0.0
 10
122.7135730328
 20
151.052638877
 30
0.0
  0
SPLINE
  5
37B
100
AcDbEntity
  8
RUNDUNGEN
100
AcDbSpline
 62
7
  6
CONTINUOUS
 70
0
 71
3
 72
8
 73
4
 74
0
 42
0.0000001
 43
0.0000001
 44
0.0000000001
 40
0.0
 40
0.0
 40
0.0
 40
0.0
 40
1.0
 40
1.0
 40
1.0
 40
1.0
 10
122.7210483624
 20
151.0091638721
 30
0.0
 10
122.7586702675
 20
150.7972096003
 30
0.0
 10
122.8133422617
 20
150.5871400481
 30
0.0
 10
122.888786316
 20
150.3855260214
 30
0.0
  0
SPLINE
  5
37C
100
AcDbEntity
  8
RUNDUNGEN
100
AcDbSpline
 62
7
  6
CONTINUOUS
 70
0
 71
3
 72
12
 73
8
 74
0
 42
0.0000001
 43
0.0000001
 44
0.0000000001
 40
0.0
 40
0.0
 40
0.0
 40
0.0
 40
0.1284193574
 40
0.256072247
 40
0.50868526
 40
0.7570001122
 40
1.0
 40
1.0
 40
1.0
 40
1.0
 10
130.2271106326
 20
212.5484893651
 30
0.0
 10
129.7129692867
 20
212.9150838563
 30
0.0
 10
128.706787179
 20
213.6729087985
 30
0.0
 10
126.7648815778
 20
215.2499020301
 30
0.0
 10
124.4422654303
 20
217.2906516922
 30
0.0
 10
121.7668150482
 20
219.7855259894
 30
0.0
 10
120.0323448652
 20
221.4673816514
 30
0.0
 10
119.1804647316
 20
222.3052287666
 30
0.0
  0
SPLINE
  5
37D
100
AcDbEntity
  8
0
100
AcDbSpline
 62
7
  6
CONTINUOUS
 70
0
 71
3
 72
9
 73
5
 74
0
 42
0.0000001
 43
0.0000001
 44
0.0000000001
 40
0.0
 40
0.0
 40
0.0
 40
0.0
 40
0.2612864031
 40
1.0
 40
1.0
 40
1.0
 40
1.0
 10
121.3967906641
 20
246.7280258778
 30
0.0
 10
121.3828218175
 20
246.8669428601
 30
0.0
 10
121.3202542586
 20
247.397620836
 30
0.0
 10
121.220495311
 20
247.9241627391
 30
0.0
 10
121.1231922755
 20
248.3067111164
 30
0.0
  0
SPLINE
  5
37E
100
AcDbEntity
  8
RUNDUNGEN
100
AcDbSpline
 62
7
  6
CONTINUOUS
 70
0
 71
3
 72
13
 73
9
 74
0
 42
0.0000001
 43
0.0000001
 44
0.0000000001
 40
0.0
 40
0.0
 40
0.0
 40
0.0
 40
0.2635998258
 40
0.5189148075
 40
0.6425961369
 40
0.7634455752
 40
0.8821085455
 40
1.0
 40
1.0
 40
1.0
 40
1.0
 10
119.0174463231
 20
241.9103052935
 30
0.0
 10
119.3506963071
 20
242.2649951034
 30
0.0
 10
119.9862933863
 20
242.9827738207
 30
0.0
 10
120.6742431087
 20
243.9560297652
 30
0.0
 10
121.0889383795
 20
244.7826977872
 30
0.0
 10
121.3093948998
 20
245.4185776538
 30
0.0
 10
121.423004674
 20
246.0718361694
 30
0.0
 10
121.4185679636
 20
246.5114556187
 30
0.0
 10
121.3967906641
 20
246.7280258778
 30
0.0
  0
SPLINE
  5
37F
100
AcDbEntity
  8
RUNDUNGEN
100
AcDbSpline
 62
7
  6
CONTINUOUS
 70
0
 71
3
 72
10
 73
6
 74
0
 42
0.0000001
 43
0.0000001
 44
0.0000000001
 40
0.0
 40
0.0
 40
0.0
 40
0.0
 40
0.4990711377
 40
0.7495235494
 40
1.0
 40
1.0
 40
1.0
 40
1.0
 10
91.216440727
 20
145.5403178881
 30
0.0
 10
91.3359343499
 20
144.7765118
 30
0.0
 10
91.7716718843
 20
143.6725813332
 30
0.0
 10
92.5371983309
 20
142.3291822769
 30
0.0
 10
92.9523147359
 20
141.6727445096
 30
0.0
 10
93.1597125755
 20
141.3448197322
 30
0.0
  0
SPLINE
  5
380
100
AcDbEntity
  8
0
100
AcDbSpline
 62
7
  6
CONTINUOUS
 70
0
 71
3
 72
26
 73
22
 74
0
 42
0.0000001
 43
0.0000001
 44
0.0000000001
 40
0.0
 40
0.0
 40
0.0
 40
0.0
 40
0.2260603412
 40
0.4260404977
 40
0.5982321519
 40
0.6734492204
 40
0.7411883889
 40
0.801308721
 40
0.8536773581
 40
0.8981846495
 40
0.9347316517
 40
0.9499943125
 40
0.9632395098
 40
0.9744597266
 40
0.9836475566
 40
0.9907980404
 40
0.9959085974
 40
0.9976981274
 40
0.9989767448
 40
0.9997441391
 40
1.0
 40
1.0
 40
1.0
 40
1.0
 10
121.1231922755
 20
248.3067111164
 30
0.0
 10
121.0436149931
 20
248.6195704238
 30
0.0
 10
120.8953601083
 20
249.2096337182
 30
0.0
 10
120.6915395575
 20
250.0392604414
 30
0.0
 10
120.5418490209
 20
250.6603637874
 30
0.0
 10
120.4376509118
 20
251.0981762036
 30
0.0
 10
120.3709583031
 20
251.3804029888
 30
0.0
 10
120.3121327215
 20
251.6309614489
 30
0.0
 10
120.2611556653
 20
251.8492849043
 30
0.0
 10
120.2180334714
 20
252.0348720644
 30
0.0
 10
120.1870192151
 20
252.1688757684
 30
0.0
 10
120.1661237342
 20
252.2593917938
 30
0.0
 10
120.1533743532
 20
252.3146826637
 30
0.0
 10
120.1426078098
 20
252.3614924099
 30
0.0
 10
120.1337426325
 20
252.3999089311
 30
0.0
 10
120.1269917617
 20
252.4295967883
 30
0.0
 10
120.1222689404
 20
252.4494906483
 30
0.0
 10
120.1199653469
 20
252.4604186652
 30
0.0
 10
120.1182303641
 20
252.4665057172
 30
0.0
 10
120.1183956402
 20
252.46838722
 30
0.0
 10
120.1171362855
 20
252.4711812786
 30
0.0
 10
120.1174377174
 20
252.4709747856
 30
0.0
  0
SPLINE
  5
381
100
AcDbEntity
  8
BEZUGSACHSEN
100
AcDbSpline
 62
7
  6
CONTINUOUS
 70
0
 71
3
 72
9
 73
5
 74
0
 42
0.0000001
 43
0.0000001
 44
0.0000000001
 40
0.0
 40
0.0
 40
0.0
 40
0.0
 40
0.2612864031
 40
1.0
 40
1.0
 40
1.0
 40
1.0
 10
154.4082970272
 20
246.7280258778
 30
0.0
 10
154.4222658738
 20
246.8669428601
 30
0.0
 10
154.4848334328
 20
247.397620836
 30
0.0
 10
154.5845923804
 20
247.9241627391
 30
0.0
 10
154.6818954158
 20
248.3067111164
 30
0.0
  0
SPLINE
  5
382
100
AcDbEntity
  8
BEZUGSACHSEN
100
AcDbSpline
 62
7
  6
CONTINUOUS
 70
0
 71
3
 72
26
 73
22
 74
0
 42
0.0000001
 43
0.0000001
 44
0.0000000001
 40
0.0
 40
0.0
 40
0.0
 40
0.0
 40
0.2260603412
 40
0.4260404977
 40
0.5982321519
 40
0.6734492204
 40
0.7411883889
 40
0.801308721
 40
0.8536773581
 40
0.8981846495
 40
0.9347316517
 40
0.9499943125
 40
0.9632395098
 40
0.9744597266
 40
0.9836475566
 40
0.9907980404
 40
0.9959085974
 40
0.9976981274
 40
0.9989767448
 40
0.9997441391
 40
1.0
 40
1.0
 40
1.0
 40
1.0
 10
154.6818954158
 20
248.3067111164
 30
0.0
 10
154.7614726983
 20
248.6195704238
 30
0.0
 10
154.909727583
 20
249.2096337182
 30
0.0
 10
155.1135481338
 20
250.0392604414
 30
0.0
 10
155.2632386705
 20
250.6603637874
 30
0.0
 10
155.3674367796
 20
251.0981762036
 30
0.0
 10
155.4341293882
 20
251.3804029888
 30
0.0
 10
155.4929549698
 20
251.6309614489
 30
0.0
 10
155.5439320261
 20
251.8492849043
 30
0.0
 10
155.5870542199
 20
252.0348720644
 30
0.0
 10
155.6180684762
 20
252.1688757684
 30
0.0
 10
155.6389639571
 20
252.2593917938
 30
0.0
 10
155.6517133381
 20
252.3146826637
 30
0.0
 10
155.6624798816
 20
252.3614924099
 30
0.0
 10
155.6713450588
 20
252.3999089311
 30
0.0
 10
155.6780959297
 20
252.4295967883
 30
0.0
 10
155.6828187509
 20
252.4494906483
 30
0.0
 10
155.6851223445
 20
252.4604186652
 30
0.0
 10
155.6868573272
 20
252.4665057172
 30
0.0
 10
155.6866920511
 20
252.46838722
 30
0.0
 10
155.6879514058
 20
252.4711812786
 30
0.0
 10
155.6876499739
 20
252.4709747856
 30
0.0
  0
SPLINE
  5
383
100
AcDbEntity
  8
BEZUGSACHSEN
100
AcDbSpline
 62
7
  6
CONTINUOUS
 70
0
 71
3
 72
10
 73
6
 74
0
 42
0.0000001
 43
0.0000001
 44
0.0000000001
 40
0.0
 40
0.0
 40
0.0
 40
0.0
 40
0.4990711377
 40
0.7495235494
 40
1.0
 40
1.0
 40
1.0
 40
1.0
 10
184.5886469643
 20
145.5403178881
 30
0.0
 10
184.4691533415
 20
144.7765118
 30
0.0
 10
184.033415807
 20
143.6725813332
 30
0.0
 10
183.2678893604
 20
142.3291822769
 30
0.0
 10
182.8527729554
 20
141.6727445096
 30
0.0
 10
182.6453751158
 20
141.3448197322
 30
0.0
  0
SPLINE
  5
384
100
AcDbEntity
  8
RUNDUNGEN
100
AcDbSpline
 62
7
  6
CONTINUOUS
 70
0
 71
3
 72
11
 73
7
 74
0
 42
0.0000001
 43
0.0000001
 44
0.0000000001
 40
0.0
 40
0.0
 40
0.0
 40
0.0
 40
0.2292077908
 40
0.4726172829
 40
0.731366559
 40
1.0
 40
1.0
 40
1.0
 40
1.0
 10
119.0174463231
 20
241.9103052935
 30
0.0
 10
118.8254063152
 20
241.7059102833
 30
0.0
 10
118.4754528674
 20
241.2384753685
 30
0.0
 10
118.1101896562
 20
240.413673094
 30
0.0
 10
117.9203025888
 20
239.4829903716
 30
0.0
 10
117.9213195671
 20
238.8326710643
 30
0.0
 10
117.953680994
 20
238.5055688809
 30
0.0
  0
SPLINE
  5
385
100
AcDbEntity
  8
RUNDUNGEN
100
AcDbSpline
 62
7
  6
CONTINUOUS
 70
0
 71
3
 72
11
 73
7
 74
0
 42
0.0000001
 43
0.0000001
 44
0.0000000001
 40
0.0
 40
0.0
 40
0.0
 40
0.0
 40
0.2586791736
 40
0.5123843919
 40
0.759198676
 40
1.0
 40
1.0
 40
1.0
 40
1.0
 10
118.0027951035
 20
224.9370749801
 30
0.0
 10
118.0027951035
 20
224.6820984041
 30
0.0
 10
118.0618244626
 20
224.1751598461
 30
0.0
 10
118.3134287343
 20
223.4645288002
 30
0.0
 10
118.6931548091
 20
222.835183954
 30
0.0
 10
119.0112416519
 20
222.4716642351
 30
0.0
 10
119.1804647316
 20
222.3052287666
 30
0.0
  0
SPLINE
  5
386
100
AcDbEntity
  8
BEZUGSACHSEN
100
AcDbSpline
 62
7
  6
CONTINUOUS
 70
0
 71
3
 72
13
 73
9
 74
0
 42
0.0000001
 43
0.0000001
 44
0.0000000001
 40
0.0
 40
0.0
 40
0.0
 40
0.0
 40
0.2635998258
 40
0.5189148075
 40
0.6425961369
 40
0.7634455752
 40
0.8821085455
 40
1.0
 40
1.0
 40
1.0
 40
1.0
 10
156.7876413683
 20
241.9103052935
 30
0.0
 10
156.4543913842
 20
242.2649951034
 30
0.0
 10
155.8187943051
 20
242.9827738207
 30
0.0
 10
155.1308445826
 20
243.9560297652
 30
0.0
 10
154.7161493118
 20
244.7826977872
 30
0.0
 10
154.4956927915
 20
245.4185776538
 30
0.0
 10
154.3820830173
 20
246.0718361694
 30
0.0
 10
154.3865197277
 20
246.5114556187
 30
0.0
 10
154.4082970272
 20
246.7280258778
 30
0.0
  0
SPLINE
  5
387
100
AcDbEntity
  8
BEZUGSACHSEN
100
AcDbSpline
 62
7
  6
CONTINUOUS
 70
0
 71
3
 72
12
 73
8
 74
0
 42
0.0000001
 43
0.0000001
 44
0.0000000001
 40
0.0
 40
0.0
 40
0.0
 40
0.0
 40
0.1284193574
 40
0.256072247
 40
0.50868526
 40
0.7570001122
 40
1.0
 40
1.0
 40
1.0
 40
1.0
 10
145.5779770587
 20
212.5484893651
 30
0.0
 10
146.0921184046
 20
212.9150838563
 30
0.0
 10
147.0983005124
 20
213.6729087985
 30
0.0
 10
149.0402061135
 20
215.2499020301
 30
0.0
 10
151.362822261
 20
217.2906516922
 30
0.0
 10
154.0382726432
 20
219.7855259894
 30
0.0
 10
155.7727428261
 20
221.4673816514
 30
0.0
 10
156.6246229597
 20
222.3052287666
 30
0.0
  0
SPLINE
  5
388
100
AcDbEntity
  8
BEZUGSACHSEN
100
AcDbSpline
 62
7
  6
CONTINUOUS
 70
0
 71
3
 72
11
 73
7
 74
0
 42
0.0000001
 43
0.0000001
 44
0.0000000001
 40
0.0
 40
0.0
 40
0.0
 40
0.0
 40
0.2586791736
 40
0.5123843919
 40
0.759198676
 40
1.0
 40
1.0
 40
1.0
 40
1.0
 10
157.8022925878
 20
224.9370749801
 30
0.0
 10
157.8022925878
 20
224.6820984041
 30
0.0
 10
157.7432632288
 20
224.1751598461
 30
0.0
 10
157.491658957
 20
223.4645288002
 30
0.0
 10
157.1119328822
 20
222.835183954
 30
0.0
 10
156.7938460394
 20
222.4716642351
 30
0.0
 10
156.6246229597
 20
222.3052287666
 30
0.0
  0
SPLINE
  5
389
100
AcDbEntity
  8
BEZUGSACHSEN
100
AcDbSpline
 62
7
  6
CONTINUOUS
 70
0
 71
3
 72
11
 73
7
 74
0
 42
0.0000001
 43
0.0000001
 44
0.0000000001
 40
0.0
 40
0.0
 40
0.0
 40
0.0
 40
0.2292077908
 40
0.4726172829
 40
0.731366559
 40
1.0
 40
1.0
 40
1.0
 40
1.0
 10
156.7876413683
 20
241.9103052935
 30
0.0
 10
156.9796813762
 20
241.7059102833
 30
0.0
 10
157.3296348239
 20
241.2384753685
 30
0.0
 10
157.6948980352
 20
240.413673094
 30
0.0
 10
157.8847851025
 20
239.4829903716
 30
0.0
 10
157.8837681242
 20
238.8326710643
 30
0.0
 10
157.8514066973
 20
238.5055688809
 30
0.0
  0
SPLINE
  5
38A
100
AcDbEntity
  8
RUNDUNGEN
100
AcDbSpline
 62
7
  6
CONTINUOUS
 70
0
 71
3
 72
9
 73
5
 74
0
 42
0.0000001
 43
0.0000001
 44
0.0000000001
 40
0.0
 40
0.0
 40
0.0
 40
0.0
 40
0.5000983212
 40
1.0
 40
1.0
 40
1.0
 40
1.0
 10
294.2525998645
 20
191.9293925111
 30
0.0
 10
294.4183121794
 20
192.1921526085
 30
0.0
 10
294.7708919126
 20
192.7043994324
 30
0.0
 10
295.1806217511
 20
193.1751471209
 30
0.0
 10
295.4060251663
 20
193.388737532
 30
0.0
  0
SPLINE
  5
38B
100
AcDbEntity
  8
RUNDUNGEN
100
AcDbSpline
 62
7
  6
CONTINUOUS
 70
0
 71
3
 72
9
 73
5
 74
0
 42
0.0000001
 43
0.0000001
 44
0.0000000001
 40
0.0
 40
0.0
 40
0.0
 40
0.0
 40
0.2480747441
 40
1.0
 40
1.0
 40
1.0
 40
1.0
 10
296.9625715247
 20
194.788737532
 30
0.0
 10
296.8312225476
 20
194.6759547193
 30
0.0
 10
296.3040765426
 20
194.2186324364
 30
0.0
 10
295.7869274889
 20
193.7496774211
 30
0.0
 10
295.4060251663
 20
193.388737532
 30
0.0
  0
ELLIPSE
  5
38C
100
AcDbEntity
  8
RUNDUNGEN
100
AcDbEllipse
 62
7
  6
CONTINUOUS
 10
-2132.415754454
 20
150.9494965296
 30
0.0
 11
4583.6577068291
 21
5.99165378
 31
0.0
 40
0.0011564894
 41
1.0493048247
 42
1.0526064865
  0
ELLIPSE
  5
38D
100
AcDbEntity
  8
RUNDUNGEN
100
AcDbEllipse
 62
7
  6
CONTINUOUS
 10
2408.2208421453
 20
150.9494965296
 30
0.0
 11
4583.6577068291
 21
-5.99165378
 31
0.0
 40
0.0011564894
 41
2.0889861671
 42
2.0922878289
  0
ELLIPSE
  5
38E
100
AcDbEntity
  8
RUNDUNGEN
100
AcDbEllipse
 62
7
  6
CONTINUOUS
 10
93.1597125755
 20
146.2761185573
 30
0.0
 11
0.0
 21
3.1114476537
 31
0.0
 40
0.6427876097
 41
-4.7123889804
 42
-4.4736456618
  0
ELLIPSE
  5
38F
100
AcDbEntity
  8
BEZUGSACHSEN
100
AcDbEllipse
 62
7
  6
CONTINUOUS
 10
182.6453751158
 20
146.2761185573
 30
0.0
 11
0.0
 21
-3.1114476537
 31
0.0
 40
0.6427876097
 41
1.3320530082
 42
1.5707963268
  0
ELLIPSE
  5
390
100
AcDbEntity
  8
RUNDUNGEN
100
AcDbEllipse
 62
7
  6
CONTINUOUS
 10
296.9625715247
 20
181.5986028468
 30
0.0
 11
0.0
 21
12.2929666779
 31
0.0
 40
0.4067366431
 41
0.5728084235
 42
1.5707963268
  0
ELLIPSE
  5
391
100
AcDbEntity
  8
RUNDUNGEN
100
AcDbEllipse
 62
7
  6
CONTINUOUS
 10
301.9625715247
 20
159.7158455321
 30
0.0
 11
0.0
 21
12.2929666779
 31
0.0
 40
0.4067366431
 41
-1.5707963268
 42
-0.4188790205
  0
ENDSEC
  0
SECTION
  2
OBJECTS
  0
DICTIONARY
  5
C
100
AcDbDictionary
280
0
281
1
  3
ACAD_GROUP
350
D
  3
ACAD_MLINESTYLE
350
17
  3
ACAD_LAYOUT
350
1A
  3
ACAD_PLOTSETTINGS
350
19
  3
ACAD_PLOTSTYLENAME
350
E
  0
DICTIONARY
  5
D
102
{ACAD_REACTORS
330
C
102
}
100
AcDbDictionary
280
0
281
1
  0
ACDBDICTIONARYWDFLT
  5
E
102
{ACAD_REACTORS
330
C
102
}
100
AcDbDictionary
281
1
  3
Normal
350
F
100
AcDbDictionaryWithDefault
340
F
  0
DICTIONARY
  5
17
102
{ACAD_REACTORS
330
C
102
}
100
AcDbDictionary
280
0
281
1
  3
Standard
350
18
  0
DICTIONARY
  5
19
102
{ACAD_REACTORS
330
C
102
}
100
AcDbDictionary
281
1
  0
DICTIONARY
  5
1A
102
{ACAD_REACTORS
330
C
102
}
100
AcDbDictionary
281
1
  3
Model
350
392
  3
Layout1
350
393
  0
ACDBPLACEHOLDER
  5
F
102
{ACAD_REACTORS
330
E
102
}
  0
MLINESTYLE
  5
18
102
{ACAD_REACTORS
330
17
102
}
100
AcDbMlineStyle
  2
STANDARD
 70
0
  3

 62
256
 51
90.0
 52
90.0
 71
2
 49
0.5
 62
256
  6
BYLAYER
 49
-0.5
 62
256
  6
BYLAYER
  0
LAYOUT
  5
392
102
{ACAD_REACTORS
330
1A
102
}
100
AcDbPlotSettings
  1

  2
none_device
  4
ISO_A3_(420.00_x_297.00_MM)
  6

 40
0.0
 41
0.0
 42
0.0
 43
0.0
 44
420.0
 45
297.0
 46
0.0
 47
0.0
 48
0.0
 49
0.0
140
0.0
141
0.0
142
1.0
143
1.0
 70
1024
 72
1
 73
0
 74
0
  7

 75
0
147
1.0
148
0.0
149
0.0
100
AcDbLayout
  1
Model
 70
0
 71
0
 10
0.0
 20
0.0
 11
420.0
 21
297.0
 12
0.0
 22
0.0
 32
0.0
 14
0.0
 24
0.0
 34
0.0
 15
0.0
 25
0.0
 35
0.0
146
0.0
 13
0.0
 23
0.0
 33
0.0
 16
1.0
 26
0.0
 36
0.0
 17
0.0
 27
1.0
 37
0.0
 76
0
330
20A
345
0
346
0
  0
LAYOUT
  5
393
102
{ACAD_REACTORS
330
1A
102
}
100
AcDbPlotSettings
  1

  2
none_device
  4
ISO_A3_(420.00_x_297.00_MM)
  6

 40
0.0
 41
0.0
 42
0.0
 43
0.0
 44
420.0
 45
297.0
 46
0.0
 47
0.0
 48
0.0
 49
0.0
140
0.0
141
0.0
142
1.0
143
1.0
 70
0
 72
1
 73
0
 74
0
  7

 75
0
147
1.0
148
0.0
149
0.0
100
AcDbLayout
  1
Layout1
 70
0
 71
1
 10
0.0
 20
0.0
 11
420.0
 21
297.0
 12
0.0
 22
0.0
 32
0.0
 14
0.0
 24
0.0
 34
0.0
 15
0.0
 25
0.0
 35
0.0
146
0.0
 13
0.0
 23
0.0
 33
0.0
 16
1.0
 26
0.0
 36
0.0
 17
0.0
 27
1.0
 37
0.0
 76
0
330
20B
345
0
346
0
  0
ENDSEC
  0
EOF
