999
DXF file: 001-m34098-p-1.dxf
999
Pro/ENGINEER 2011490 by Parametric Technology Corporation
  0
SECTION
  2
HEADER
  9
$ACADVER
  1
AC1015
  9
$DWGCODEPAGE
  3
ANSI_1252
  9
$EXTMAX
 10
841.0
 20
594.0
 30
0.0
  9
$EXTMIN
 10
0.0
 20
0.0
 30
0.0
  9
$LIMMIN
 10
0.0
 20
0.0
  9
$LIMMAX
 10
841.0
 20
594.0
  9
$VIEWCTR
 10
420.5
 20
297.0
  9
$VIEWSIZE
 40
594.0
  9
$CLAYER
  8
0
  9
$LTSCALE
 40
46.255
  9
$CELTYPE
  6
BYLAYER
  9
$DIMSCALE
 40
1.0
  9
$DIMASZ
 40
3.5
  9
$DIMEXO
 40
5.25625
  9
$DIMDLI
 40
31.958
  9
$DIMEXE
 40
15.138
  9
$DIMCEN
 40
7.569
  9
$DIMLFAC
 40
1.0
  9
$DIMBLK
  1
_FILLED
  9
$DIMTXT
 40
3.5
  9
$DIMTOL
 70
1
  9
$DIMLIM
 70
0
  9
$DIMTFAC
 40
1.0
  9
$DIMTP
 40
0.005
  9
$DIMTM
 40
0.005
  9
$PDMODE
 70
3
  9
$PDSIZE
 40
0.3125
  9
$HANDSEED
  5
2F1
  9
$TILEMODE
 70
1
  9
$MEASUREMENT
 70
1
  9
$INSUNITS
 70
4
  0
ENDSEC
  0
SECTION
  2
CLASSES
  0
CLASS
  1
ACDBDICTIONARYWDFLT
  2
AcDbDictionaryWithDefault
  3
AutoCAD 2000
 90
0
280
0
281
0
  0
CLASS
  1
ACDBPLACEHOLDER
  2
AcDbPlaceHolder
  3
AutoCAD 2000
 90
0
280
0
281
0
  0
CLASS
  1
LAYOUT
  2
AcDbLayout
  3
AutoCAD 2000
 90
0
280
0
281
0
  0
ENDSEC
  0
SECTION
  2
TABLES
  0
TABLE
  2
VPORT
  5
8
100
AcDbSymbolTable
 70
2
  0
VPORT
  5
1F4
100
AcDbSymbolTableRecord
100
AcDbViewportTableRecord
  2
*ACTIVE
 70
0
 10
0.0
 20
0.0
 11
1.0
 21
1.0
 12
420.5
 22
297.0
 13
0.0
 23
0.0
 14
1.0
 24
1.0
 15
0.0
 25
0.0
 16
0.0
 26
0.0
 36
1.0
 17
0.0
 27
0.0
 37
0.0
 40
594.0
 41
1.4158249158
 42
50.0
 43
0.0
 44
0.0
 50
0.0
 51
0.0
 71
0
 72
100
 73
1
 74
1
 75
0
 76
0
 77
0
 78
0
  0
ENDTAB
  0
TABLE
  2
LTYPE
  5
5
100
AcDbSymbolTable
 70
6
  0
LTYPE
  5
14
100
AcDbSymbolTableRecord
100
AcDbLinetypeTableRecord
  2
BYBLOCK
 70
0
  3

 72
65
 73
0
 40
0.0
  0
LTYPE
  5
15
100
AcDbSymbolTableRecord
100
AcDbLinetypeTableRecord
  2
BYLAYER
 70
0
  3

 72
65
 73
0
 40
0.0
  0
LTYPE
  5
16
100
AcDbSymbolTableRecord
100
AcDbLinetypeTableRecord
  2
CONTINUOUS
 70
64
  3
Solid line
 72
65
 73
0
 40
0.0
  0
LTYPE
  5
1F5
100
AcDbSymbolTableRecord
100
AcDbLinetypeTableRecord
  2
CENTER
 70
64
  3
____ _ ____ _ ____ _ ____ _ ____ _ ____ _ ____
 72
65
 73
4
 40
0.6
 49
0.375
 74
0
 49
-0.075
 74
0
 49
0.075
 74
0
 49
-0.075
 74
0
  0
LTYPE
  5
1F6
100
AcDbSymbolTableRecord
100
AcDbLinetypeTableRecord
  2
HIDDEN
 70
64
  3
- - - - - - - - - - - - - - - - - - - -
 72
65
 73
2
 40
0.2
 49
0.1
 74
0
 49
-0.1
 74
0
  0
LTYPE
  5
1F7
100
AcDbSymbolTableRecord
100
AcDbLinetypeTableRecord
  2
PHANTOM
 70
64
  3
_____ _ _ _____ _ _ _____ _ _ _____
 72
65
 73
6
 40
0.8
 49
0.45
 74
0
 49
-0.05
 74
0
 49
0.1
 74
0
 49
-0.05
 74
0
 49
0.1
 74
0
 49
-0.05
 74
0
  0
LTYPE
  5
1F8
100
AcDbSymbolTableRecord
100
AcDbLinetypeTableRecord
  2
DOT
 70
64
  3
. . . . . . . . . . . . . . . . . . . .
 72
65
 73
2
 40
0.2
 49
0.1
 74
0
 49
-0.1
 74
0
  0
LTYPE
  5
1F9
100
AcDbSymbolTableRecord
100
AcDbLinetypeTableRecord
  2
DASHED
 70
64
  3
- - - - - - - - - - - - - - - - - - - -
 72
65
 73
2
 40
0.2
 49
0.1
 74
0
 49
-0.1
 74
0
  0
ENDTAB
  0
TABLE
  2
LAYER
  5
2
100
AcDbSymbolTable
 70
36
  0
LAYER
  5
10
100
AcDbSymbolTableRecord
100
AcDbLayerTableRecord
  2
0
 70
0
 62
7
  6
CONTINUOUS
370
-3
390
F
  0
LAYER
  5
1FA
100
AcDbSymbolTableRecord
100
AcDbLayerTableRecord
  2
DEFAULT_1
 70
0
 62
7
  6
CENTER
370
-3
390
F
  0
LAYER
  5
1FB
100
AcDbSymbolTableRecord
100
AcDbLayerTableRecord
  2
DEFAULT_2
 70
0
 62
8
  6
HIDDEN
370
-3
390
F
  0
LAYER
  5
1FC
100
AcDbSymbolTableRecord
100
AcDbLayerTableRecord
  2
DEFAULT_3
 70
0
 62
7
  6
PHANTOM
370
-3
390
F
  0
LAYER
  5
1FD
100
AcDbSymbolTableRecord
100
AcDbLayerTableRecord
  2
BEZUGSACHSEN
 70
0
 62
7
  6
CONTINUOUS
370
-3
390
F
  0
LAYER
  5
1FE
100
AcDbSymbolTableRecord
100
AcDbLayerTableRecord
  2
BEZUGSEBENEN
 70
0
 62
7
  6
CONTINUOUS
370
-3
390
F
  0
LAYER
  5
1FF
100
AcDbSymbolTableRecord
100
AcDbLayerTableRecord
  2
BOHRUNGEN
 70
0
 62
7
  6
CONTINUOUS
370
-3
390
F
  0
LAYER
  5
200
100
AcDbSymbolTableRecord
100
AcDbLayerTableRecord
  2
FASEN
 70
0
 62
7
  6
CONTINUOUS
370
-3
390
F
  0
LAYER
  5
201
100
AcDbSymbolTableRecord
100
AcDbLayerTableRecord
  2
GEWINDE
 70
0
 62
7
  6
CONTINUOUS
370
-3
390
F
  0
LAYER
  5
202
100
AcDbSymbolTableRecord
100
AcDbLayerTableRecord
  2
HILFEN
 70
0
 62
7
  6
CONTINUOUS
370
-3
390
F
  0
LAYER
  5
203
100
AcDbSymbolTableRecord
100
AcDbLayerTableRecord
  2
PLATZIERUNG
 70
0
 62
7
  6
CONTINUOUS
370
-3
390
F
  0
LAYER
  5
204
100
AcDbSymbolTableRecord
100
AcDbLayerTableRecord
  2
RUNDUNGEN
 70
0
 62
7
  6
CONTINUOUS
370
-3
390
F
  0
LAYER
  5
205
100
AcDbSymbolTableRecord
100
AcDbLayerTableRecord
  2
TEIL_STARTBEZUEGE
 70
0
 62
7
  6
CONTINUOUS
370
-3
390
F
  0
LAYER
  5
206
100
AcDbSymbolTableRecord
100
AcDbLayerTableRecord
  2
TEXTE
 70
0
 62
7
  6
CONTINUOUS
370
-3
390
F
  0
LAYER
  5
207
100
AcDbSymbolTableRecord
100
AcDbLayerTableRecord
  2
XSEC_DATUMS
 70
0
 62
7
  6
CONTINUOUS
370
-3
390
F
  0
LAYER
  5
208
100
AcDbSymbolTableRecord
100
AcDbLayerTableRecord
  2
ZEICHNUNGSBEMASSUNGEN
 70
0
 62
7
  6
CONTINUOUS
370
-3
390
F
  0
ENDTAB
  0
TABLE
  2
STYLE
  5
3
100
AcDbSymbolTable
 70
1
  0
STYLE
  5
11
100
AcDbSymbolTableRecord
100
AcDbTextStyleTableRecord
  2
STANDARD
 70
0
 40
0.0
 41
0.7
 50
0.0
 71
0
 42
0.2
  3
txt
  4

  0
STYLE
  5
209
100
AcDbSymbolTableRecord
100
AcDbTextStyleTableRecord
  2
TEXTSTYLE_1
 70
0
 40
0.0
 41
0.8
 50
0.0
 71
0
 42
0.2
  3
gdt
  4

  0
ENDTAB
  0
TABLE
  2
VIEW
  5
6
100
AcDbSymbolTable
 70
0
  0
ENDTAB
  0
TABLE
  2
UCS
  5
7
100
AcDbSymbolTable
 70
0
  0
ENDTAB
  0
TABLE
  2
APPID
  5
9
100
AcDbSymbolTable
 70
1
  0
APPID
  5
20A
100
AcDbSymbolTableRecord
100
AcDbRegAppTableRecord
  2
ACAD
 70
0
  0
ENDTAB
  0
TABLE
  2
BLOCK_RECORD
  5
1
100
AcDbSymbolTable
 70
0
  0
BLOCK_RECORD
  5
20B
100
AcDbSymbolTableRecord
100
AcDbBlockTableRecord
  2
*Model_Space
  0
BLOCK_RECORD
  5
20C
100
AcDbSymbolTableRecord
100
AcDbBlockTableRecord
  2
*Paper_Space
  0
ENDTAB
  0
TABLE
  2
DIMSTYLE
  5
A
100
AcDbSymbolTable
 70
1
100
AcDbDimStyleTable
 71
0
  0
DIMSTYLE
105
20D
100
AcDbSymbolTableRecord
100
AcDbDimStyleTableRecord
  2
STANDARD
 70
0
  3

  4

 40
1.0
 41
3.5
 42
0.0625
 43
0.38
 44
0.18
 45
0.0
 46
0.0
 47
0.005
 48
0.005
140
3.5
141
0.09
142
0.0
143
25.4
144
1.0
145
0.0
146
1.0
147
0.09
 71
1.0
 72
0.0
 73
0
 74
0
 75
0
 76
0
 77
1
 78
8
170
0
171
2
172
0
173
0
174
0
175
0
176
0
177
0
178
5
270
2
271
3
272
3
273
2
274
2
275
0
280
0
281
0
282
0
283
1
284
8
285
0
286
0
287
3
288
0
340
11
  0
ENDTAB
  0
ENDSEC
  0
SECTION
  2
BLOCKS
  0
BLOCK
  5
20
100
AcDbEntity
  8
0
100
AcDbBlockBegin
  2
*Model_Space
 70
0
 10
0.0
 20
0.0
 30
0.0
  3
*Model_Space
  1

  0
ENDBLK
  5
21
100
AcDbEntity
  8
0
100
AcDbBlockEnd
  0
BLOCK
  5
1C
100
AcDbEntity
  8
0
100
AcDbBlockBegin
  2
*Paper_Space
 70
0
 10
0.0
 20
0.0
 30
0.0
  3
*Paper_Space
  1

  0
ENDBLK
  5
1D
100
AcDbEntity
  8
0
100
AcDbBlockEnd
  0
ENDSEC
  0
SECTION
  2
ENTITIES
  0
MTEXT
  5
20E
100
AcDbEntity
  8
0
100
AcDbMText
 62
5
  6
CONTINUOUS
  7
STANDARD
 71
2
 72
1
 10
519.9466617078
 20
377.8766689437
 30
0.0
 11
1.0
 21
0.0
 31
0.0
 44
0.9
  1
RUD\PVCB-16
 40
15.0
 41
67.8571428571
  0
MTEXT
  5
20F
100
AcDbEntity
  8
0
100
AcDbMText
 62
5
  6
CONTINUOUS
  7
STANDARD
 71
2
 72
1
 10
217.0474073014
 20
375.9645406361
 30
0.0
 11
1.0
 21
0.0
 31
0.0
 44
0.9
  1
RUD\PVCB-16
 40
15.0
 41
67.8571428571
  0
LINE
  5
210
100
AcDbEntity
  8
0
100
AcDbLine
 62
7
  6
CONTINUOUS
 10
0.0
 20
0.0
 11
0.0
 21
594.0
  0
LINE
  5
211
100
AcDbEntity
  8
0
100
AcDbLine
 62
7
  6
CONTINUOUS
 10
0.0
 20
0.0
 11
841.0
 21
0.0
  0
LINE
  5
212
100
AcDbEntity
  8
0
100
AcDbLine
 62
7
  6
CONTINUOUS
 10
0.0
 20
594.0
 11
841.0
 21
594.0
  0
LINE
  5
213
100
AcDbEntity
  8
0
100
AcDbLine
 62
7
  6
CONTINUOUS
 10
841.0
 20
0.0
 11
841.0
 21
594.0
  0
LINE
  5
214
100
AcDbEntity
  8
0
100
AcDbLine
 62
7
  6
CONTINUOUS
 10
573.8490777177
 20
113.9316730359
 11
561.5490777177
 21
113.9316730359
  0
LINE
  5
215
100
AcDbEntity
  8
RUNDUNGEN
100
AcDbLine
 62
7
  6
CONTINUOUS
 10
573.8490777177
 20
113.9316730359
 11
561.5490777177
 21
113.9316730359
  0
LINE
  5
216
100
AcDbEntity
  8
0
100
AcDbLine
 62
7
  6
CONTINUOUS
 10
476.1490777177
 20
113.9316730359
 11
463.8490777177
 21
113.9316730359
  0
LINE
  5
217
100
AcDbEntity
  8
RUNDUNGEN
100
AcDbLine
 62
7
  6
CONTINUOUS
 10
476.1490777177
 20
113.9316730359
 11
463.8490777177
 21
113.9316730359
  0
LINE
  5
218
100
AcDbEntity
  8
0
100
AcDbLine
 62
7
  6
CONTINUOUS
 10
561.5490777177
 20
129.4316730359
 11
556.0490777177
 21
129.4316730359
  0
LINE
  5
219
100
AcDbEntity
  8
0
100
AcDbLine
 62
7
  6
CONTINUOUS
 10
552.4490777177
 20
129.4316730359
 11
549.9490777177
 21
129.4316730359
  0
LINE
  5
21A
100
AcDbEntity
  8
0
100
AcDbLine
 62
7
  6
CONTINUOUS
 10
508.0833085723
 20
129.4316730359
 11
488.8490777177
 21
129.4316730359
  0
LINE
  5
21B
100
AcDbEntity
  8
0
100
AcDbLine
 62
7
  6
CONTINUOUS
 10
476.1490777177
 20
129.4316730359
 11
481.6490777177
 21
129.4316730359
  0
LINE
  5
21C
100
AcDbEntity
  8
0
100
AcDbLine
 62
7
  6
CONTINUOUS
 10
485.2490777177
 20
129.4316730359
 11
487.7490777177
 21
129.4316730359
  0
LINE
  5
21D
100
AcDbEntity
  8
0
100
AcDbLine
 62
7
  6
CONTINUOUS
 10
529.6148468631
 20
129.4316730359
 11
548.8490777177
 21
129.4316730359
  0
LINE
  5
21E
100
AcDbEntity
  8
BEZUGSACHSEN
100
AcDbLine
 62
7
  6
CONTINUOUS
 10
481.6490777177
 20
130.9316730359
 11
482.7490777177
 21
130.9316730359
  0
LINE
  5
21F
100
AcDbEntity
  8
BEZUGSACHSEN
100
AcDbLine
 62
7
  6
CONTINUOUS
 10
484.1490777177
 20
130.9316730359
 11
485.2490777177
 21
130.9316730359
  0
LINE
  5
220
100
AcDbEntity
  8
BEZUGSACHSEN
100
AcDbLine
 62
7
  6
CONTINUOUS
 10
552.4490777177
 20
130.9316730359
 11
553.5490777177
 21
130.9316730359
  0
LINE
  5
221
100
AcDbEntity
  8
BEZUGSACHSEN
100
AcDbLine
 62
7
  6
CONTINUOUS
 10
554.9490777177
 20
130.9316730359
 11
556.0490777177
 21
130.9316730359
  0
LINE
  5
222
100
AcDbEntity
  8
0
100
AcDbLine
 62
7
  6
CONTINUOUS
 10
548.8490777177
 20
131.1008736673
 11
535.9100002482
 21
131.1008736673
  0
LINE
  5
223
100
AcDbEntity
  8
0
100
AcDbLine
 62
7
  6
CONTINUOUS
 10
501.7881551872
 20
131.1008736673
 11
488.8490777177
 21
131.1008736673
  0
LINE
  5
224
100
AcDbEntity
  8
0
100
AcDbLine
 62
7
  6
CONTINUOUS
 10
526.4490777177
 20
145.1816730359
 11
511.2490777177
 21
145.1816730359
  0
LINE
  5
225
100
AcDbEntity
  8
BEZUGSACHSEN
100
AcDbLine
 62
7
  6
CONTINUOUS
 10
481.6490777177
 20
150.9316730359
 11
482.7490777177
 21
150.9316730359
  0
LINE
  5
226
100
AcDbEntity
  8
BEZUGSACHSEN
100
AcDbLine
 62
7
  6
CONTINUOUS
 10
484.1490777177
 20
150.9316730359
 11
485.2490777177
 21
150.9316730359
  0
LINE
  5
227
100
AcDbEntity
  8
BEZUGSACHSEN
100
AcDbLine
 62
7
  6
CONTINUOUS
 10
552.4490777177
 20
150.9316730359
 11
553.5490777177
 21
150.9316730359
  0
LINE
  5
228
100
AcDbEntity
  8
BEZUGSACHSEN
100
AcDbLine
 62
7
  6
CONTINUOUS
 10
554.9490777177
 20
150.9316730359
 11
556.0490777177
 21
150.9316730359
  0
LINE
  5
229
100
AcDbEntity
  8
0
100
AcDbLine
 62
7
  6
CONTINUOUS
 10
561.5490777177
 20
152.4316730359
 11
556.0490777177
 21
152.4316730359
  0
LINE
  5
22A
100
AcDbEntity
  8
0
100
AcDbLine
 62
7
  6
CONTINUOUS
 10
552.4490777177
 20
152.4316730359
 11
549.9490777177
 21
152.4316730359
  0
LINE
  5
22B
100
AcDbEntity
  8
0
100
AcDbLine
 62
7
  6
CONTINUOUS
 10
476.1490777177
 20
152.4316730359
 11
481.6490777177
 21
152.4316730359
  0
LINE
  5
22C
100
AcDbEntity
  8
0
100
AcDbLine
 62
7
  6
CONTINUOUS
 10
485.2490777177
 20
152.4316730359
 11
487.7490777177
 21
152.4316730359
  0
LINE
  5
22D
100
AcDbEntity
  8
RUNDUNGEN
100
AcDbLine
 62
7
  6
CONTINUOUS
 10
478.1490777177
 20
154.9316730359
 11
485.8490777177
 21
154.9316730359
  0
LINE
  5
22E
100
AcDbEntity
  8
RUNDUNGEN
100
AcDbLine
 62
7
  6
CONTINUOUS
 10
551.8490777177
 20
154.9316730359
 11
559.5490777177
 21
154.9316730359
  0
LINE
  5
22F
100
AcDbEntity
  8
0
100
AcDbLine
 62
7
  6
CONTINUOUS
 10
462.3490777177
 20
155.9316730359
 11
453.3490777177
 21
155.9316730359
  0
LINE
  5
230
100
AcDbEntity
  8
0
100
AcDbLine
 62
7
  6
CONTINUOUS
 10
453.3490777177
 20
155.9316730359
 11
451.8490777177
 21
157.4316730359
  0
LINE
  5
231
100
AcDbEntity
  8
0
100
AcDbLine
 62
7
  6
CONTINUOUS
 10
590.3490777177
 20
165.9316730359
 11
573.8490777177
 21
165.9316730359
  0
LINE
  5
232
100
AcDbEntity
  8
0
100
AcDbLine
 62
7
  6
CONTINUOUS
 10
551.8490777177
 20
165.9316730359
 11
548.8490777177
 21
165.9316730359
  0
LINE
  5
233
100
AcDbEntity
  8
0
100
AcDbLine
 62
7
  6
CONTINUOUS
 10
488.8490777177
 20
170.0116730359
 11
485.8490777177
 21
170.0116730359
  0
LINE
  5
234
100
AcDbEntity
  8
0
100
AcDbLine
 62
7
  6
CONTINUOUS
 10
573.8490777177
 20
208.9316730359
 11
582.8490777177
 21
208.9316730359
  0
LINE
  5
235
100
AcDbEntity
  8
0
100
AcDbLine
 62
7
  6
CONTINUOUS
 10
463.8490777177
 20
224.4316730359
 11
462.3490777177
 21
225.9316730359
  0
LINE
  5
236
100
AcDbEntity
  8
0
100
AcDbLine
 62
7
  6
CONTINUOUS
 10
488.8490777177
 20
211.8516730359
 11
485.8490777177
 21
211.8516730359
  0
LINE
  5
237
100
AcDbEntity
  8
0
100
AcDbLine
 62
7
  6
CONTINUOUS
 10
548.8490777177
 20
212.7533820964
 11
535.9100002482
 21
212.7533820964
  0
LINE
  5
238
100
AcDbEntity
  8
0
100
AcDbLine
 62
7
  6
CONTINUOUS
 10
501.7881551872
 20
212.7533820964
 11
488.8490777177
 21
212.7533820964
  0
LINE
  5
239
100
AcDbEntity
  8
0
100
AcDbLine
 62
7
  6
CONTINUOUS
 10
548.8490777177
 20
215.454205452
 11
535.9100002482
 21
215.454205452
  0
LINE
  5
23A
100
AcDbEntity
  8
0
100
AcDbLine
 62
7
  6
CONTINUOUS
 10
501.7881551872
 20
215.454205452
 11
488.8490777177
 21
215.454205452
  0
LINE
  5
23B
100
AcDbEntity
  8
0
100
AcDbLine
 62
7
  6
CONTINUOUS
 10
590.3490777177
 20
215.9316730359
 11
582.8490777177
 21
215.9316730359
  0
LINE
  5
23C
100
AcDbEntity
  8
0
100
AcDbLine
 62
7
  6
CONTINUOUS
 10
551.8490777177
 20
215.9316730359
 11
548.8490777177
 21
215.9316730359
  0
LINE
  5
23D
100
AcDbEntity
  8
0
100
AcDbLine
 62
7
  6
CONTINUOUS
 10
451.8490777177
 20
224.4316730359
 11
451.8490777177
 21
157.4316730359
  0
LINE
  5
23E
100
AcDbEntity
  8
0
100
AcDbLine
 62
7
  6
CONTINUOUS
 10
453.3490777177
 20
225.9316730359
 11
453.3490777177
 21
155.9316730359
  0
LINE
  5
23F
100
AcDbEntity
  8
0
100
AcDbLine
 62
7
  6
CONTINUOUS
 10
462.3490777177
 20
225.9316730359
 11
453.3490777177
 21
225.9316730359
  0
LINE
  5
240
100
AcDbEntity
  8
0
100
AcDbLine
 62
7
  6
CONTINUOUS
 10
526.4490777177
 20
236.6816730359
 11
511.2490777177
 21
236.6816730359
  0
LINE
  5
241
100
AcDbEntity
  8
0
100
AcDbLine
 62
7
  6
CONTINUOUS
 10
529.6148468631
 20
129.4316730359
 11
528.4490777177
 21
131.9316730359
  0
LINE
  5
242
100
AcDbEntity
  8
BEZUGSACHSEN
100
AcDbLine
 62
7
  6
CONTINUOUS
 10
483.4490777177
 20
134.9015703096
 11
484.1490777177
 21
130.9316730359
  0
LINE
  5
243
100
AcDbEntity
  8
0
100
AcDbLine
 62
7
  6
CONTINUOUS
 10
462.3490777177
 20
225.9316730359
 11
462.3490777177
 21
155.9316730359
  0
LINE
  5
244
100
AcDbEntity
  8
RUNDUNGEN
100
AcDbLine
 62
7
  6
CONTINUOUS
 10
463.8490777177
 20
113.9316730359
 11
463.8490777177
 21
148.4981463963
  0
LINE
  5
245
100
AcDbEntity
  8
0
100
AcDbLine
 62
7
  6
CONTINUOUS
 10
463.8490777177
 20
148.4981463963
 11
463.8490777177
 21
323.9316730359
  0
LINE
  5
246
100
AcDbEntity
  8
0
100
AcDbLine
 62
7
  6
CONTINUOUS
 10
464.8490777177
 20
381.7316730359
 11
464.8490777177
 21
328.9316730359
  0
LINE
  5
247
100
AcDbEntity
  8
0
100
AcDbLine
 62
7
  6
CONTINUOUS
 10
465.8490777177
 20
295.0647354615
 11
465.8490777177
 21
157.2159442833
  0
LINE
  5
248
100
AcDbEntity
  8
0
100
AcDbLine
 62
7
  6
CONTINUOUS
 10
465.8490777177
 20
325.9316730359
 11
463.8490777177
 21
323.9316730359
  0
LINE
  5
249
100
AcDbEntity
  8
0
100
AcDbLine
 62
7
  6
CONTINUOUS
 10
573.8490777177
 20
238.9316730359
 11
581.8490777177
 21
238.9316730359
  0
LINE
  5
24A
100
AcDbEntity
  8
BEZUGSACHSEN
100
AcDbLine
 62
7
  6
CONTINUOUS
 10
482.7490777177
 20
150.9316730359
 11
483.4490777177
 21
146.9617757621
  0
LINE
  5
24B
100
AcDbEntity
  8
RUNDUNGEN
100
AcDbLine
 62
7
  6
CONTINUOUS
 10
476.1490777177
 20
152.9316730359
 11
476.1490777177
 21
143.0738086596
  0
LINE
  5
24C
100
AcDbEntity
  8
0
100
AcDbLine
 62
7
  6
CONTINUOUS
 10
476.1490777177
 20
113.9316730359
 11
476.1490777177
 21
143.0738086596
  0
LINE
  5
24D
100
AcDbEntity
  8
0
100
AcDbLine
 62
7
  6
CONTINUOUS
 10
481.6490777177
 20
152.4316730359
 11
481.6490777177
 21
129.4316730359
  0
LINE
  5
24E
100
AcDbEntity
  8
BEZUGSACHSEN
100
AcDbLine
 62
7
  6
CONTINUOUS
 10
482.7490777177
 20
130.9316730359
 11
482.7490777177
 21
150.9316730359
  0
LINE
  5
24F
100
AcDbEntity
  8
BEZUGSACHSEN
100
AcDbLine
 62
7
  6
CONTINUOUS
 10
483.4490777177
 20
134.9015703096
 11
483.4490777177
 21
146.9617757621
  0
LINE
  5
250
100
AcDbEntity
  8
BEZUGSACHSEN
100
AcDbLine
 62
7
  6
CONTINUOUS
 10
484.1490777177
 20
130.9316730359
 11
484.1490777177
 21
150.9316730359
  0
LINE
  5
251
100
AcDbEntity
  8
0
100
AcDbLine
 62
7
  6
CONTINUOUS
 10
485.2490777177
 20
152.4316730359
 11
485.2490777177
 21
129.4316730359
  0
LINE
  5
252
100
AcDbEntity
  8
0
100
AcDbLine
 62
7
  6
CONTINUOUS
 10
485.8490777177
 20
157.2159442833
 11
485.8490777177
 21
154.9316730359
  0
LINE
  5
253
100
AcDbEntity
  8
RUNDUNGEN
100
AcDbLine
 62
7
  6
CONTINUOUS
 10
485.8490777177
 20
157.2159442833
 11
485.8490777177
 21
266.9316730359
  0
LINE
  5
254
100
AcDbEntity
  8
0
100
AcDbLine
 62
7
  6
CONTINUOUS
 10
487.7490777177
 20
152.4316730359
 11
487.7490777177
 21
129.4316730359
  0
LINE
  5
255
100
AcDbEntity
  8
0
100
AcDbLine
 62
7
  6
CONTINUOUS
 10
488.8490777177
 20
129.4316730359
 11
488.8490777177
 21
265.9316730359
  0
LINE
  5
256
100
AcDbEntity
  8
0
100
AcDbLine
 62
7
  6
CONTINUOUS
 10
493.8490777177
 20
485.596064811
 11
493.8490777177
 21
393.7316730359
  0
LINE
  5
257
100
AcDbEntity
  8
0
100
AcDbLine
 62
7
  6
CONTINUOUS
 10
548.8490777177
 20
265.9182309279
 11
535.9100002482
 21
265.9182309279
  0
LINE
  5
258
100
AcDbEntity
  8
0
100
AcDbLine
 62
7
  6
CONTINUOUS
 10
501.7881551872
 20
265.9182309279
 11
488.8490777177
 21
265.9182309279
  0
LINE
  5
259
100
AcDbEntity
  8
0
100
AcDbLine
 62
7
  6
CONTINUOUS
 10
548.8490777177
 20
265.9316730359
 11
535.9100002482
 21
265.9316730359
  0
LINE
  5
25A
100
AcDbEntity
  8
0
100
AcDbLine
 62
7
  6
CONTINUOUS
 10
501.7881551872
 20
265.9316730359
 11
488.8490777177
 21
265.9316730359
  0
LINE
  5
25B
100
AcDbEntity
  8
FASEN
100
AcDbLine
 62
7
  6
CONTINUOUS
 10
494.8490777177
 20
275.9316730359
 11
504.8490777177
 21
275.9316730359
  0
LINE
  5
25C
100
AcDbEntity
  8
FASEN
100
AcDbLine
 62
7
  6
CONTINUOUS
 10
532.8490777177
 20
275.9316730359
 11
542.8490777177
 21
275.9316730359
  0
LINE
  5
25D
100
AcDbEntity
  8
0
100
AcDbLine
 62
7
  6
CONTINUOUS
 10
509.2490777177
 20
249.9316730359
 11
501.7933038133
 21
265.9206317716
  0
LINE
  5
25E
100
AcDbEntity
  8
0
100
AcDbLine
 62
7
  6
CONTINUOUS
 10
501.7881551872
 20
129.4316730359
 11
501.7881551872
 21
131.1008736673
  0
LINE
  5
25F
100
AcDbEntity
  8
0
100
AcDbLine
 62
7
  6
CONTINUOUS
 10
501.7881551872
 20
212.7533820964
 11
501.7881551872
 21
215.454205452
  0
LINE
  5
260
100
AcDbEntity
  8
0
100
AcDbLine
 62
7
  6
CONTINUOUS
 10
501.7881551872
 20
265.9182309279
 11
501.7881551872
 21
265.9316730359
  0
LINE
  5
261
100
AcDbEntity
  8
FASEN
100
AcDbLine
 62
7
  6
CONTINUOUS
 10
508.8490777177
 20
279.9316730359
 11
508.8490777177
 21
290.9316730359
  0
LINE
  5
262
100
AcDbEntity
  8
0
100
AcDbLine
 62
7
  6
CONTINUOUS
 10
509.2490777177
 20
249.9316730359
 11
509.2490777177
 21
131.9316730359
  0
LINE
  5
263
100
AcDbEntity
  8
0
100
AcDbLine
 62
7
  6
CONTINUOUS
 10
464.8490777177
 20
328.9316730359
 11
467.8490777177
 21
325.9316730359
  0
LINE
  5
264
100
AcDbEntity
  8
0
100
AcDbLine
 62
7
  6
CONTINUOUS
 10
591.8490777177
 20
214.4316730359
 11
590.3490777177
 21
215.9316730359
  0
LINE
  5
265
100
AcDbEntity
  8
BEZUGSACHSEN
100
AcDbLine
 62
7
  6
CONTINUOUS
 10
483.4490777177
 20
146.9617757621
 11
484.1490777177
 21
150.9316730359
  0
LINE
  5
266
100
AcDbEntity
  8
BEZUGSACHSEN
100
AcDbLine
 62
7
  6
CONTINUOUS
 10
482.7490777177
 20
130.9316730359
 11
483.4490777177
 21
134.9015703096
  0
LINE
  5
267
100
AcDbEntity
  8
FASEN
100
AcDbLine
 62
7
  6
CONTINUOUS
 10
528.8490777177
 20
279.9316730359
 11
532.8490777177
 21
275.9316730359
  0
LINE
  5
268
100
AcDbEntity
  8
FASEN
100
AcDbLine
 62
7
  6
CONTINUOUS
 10
528.8490777177
 20
284.174313723
 11
537.0917184048
 21
275.9316730359
  0
LINE
  5
269
100
AcDbEntity
  8
0
100
AcDbLine
 62
7
  6
CONTINUOUS
 10
528.4490777177
 20
249.9316730359
 11
528.4490777177
 21
131.9316730359
  0
LINE
  5
26A
100
AcDbEntity
  8
FASEN
100
AcDbLine
 62
7
  6
CONTINUOUS
 10
528.8490777177
 20
279.9316730359
 11
528.8490777177
 21
290.9316730359
  0
LINE
  5
26B
100
AcDbEntity
  8
0
100
AcDbLine
 62
7
  6
CONTINUOUS
 10
535.9100002482
 20
129.4316730359
 11
535.9100002482
 21
131.1008736673
  0
LINE
  5
26C
100
AcDbEntity
  8
0
100
AcDbLine
 62
7
  6
CONTINUOUS
 10
535.9100002482
 20
212.7533820964
 11
535.9100002482
 21
215.454205452
  0
LINE
  5
26D
100
AcDbEntity
  8
0
100
AcDbLine
 62
7
  6
CONTINUOUS
 10
535.9100002482
 20
265.9182309279
 11
535.9100002482
 21
265.9316730359
  0
LINE
  5
26E
100
AcDbEntity
  8
FASEN
100
AcDbLine
 62
7
  6
CONTINUOUS
 10
500.6064370306
 20
275.9316730359
 11
508.8490777177
 21
284.174313723
  0
LINE
  5
26F
100
AcDbEntity
  8
0
100
AcDbLine
 62
7
  6
CONTINUOUS
 10
453.3490777177
 20
225.9316730359
 11
451.8490777177
 21
224.4316730359
  0
LINE
  5
270
100
AcDbEntity
  8
FASEN
100
AcDbLine
 62
7
  6
CONTINUOUS
 10
504.8490777177
 20
275.9316730359
 11
508.8490777177
 21
279.9316730359
  0
LINE
  5
271
100
AcDbEntity
  8
BEZUGSACHSEN
100
AcDbLine
 62
7
  6
CONTINUOUS
 10
554.2490777177
 20
134.9015703096
 11
554.9490777177
 21
130.9316730359
  0
LINE
  5
272
100
AcDbEntity
  8
BEZUGSACHSEN
100
AcDbLine
 62
7
  6
CONTINUOUS
 10
553.5490777177
 20
150.9316730359
 11
554.2490777177
 21
146.9617757621
  0
LINE
  5
273
100
AcDbEntity
  8
0
100
AcDbLine
 62
7
  6
CONTINUOUS
 10
543.8490777177
 20
393.7316730359
 11
543.8490777177
 21
485.596064811
  0
LINE
  5
274
100
AcDbEntity
  8
0
100
AcDbLine
 62
7
  6
CONTINUOUS
 10
548.8490777177
 20
129.4316730359
 11
548.8490777177
 21
265.9316730359
  0
LINE
  5
275
100
AcDbEntity
  8
0
100
AcDbLine
 62
7
  6
CONTINUOUS
 10
549.9490777177
 20
152.4316730359
 11
549.9490777177
 21
129.4316730359
  0
LINE
  5
276
100
AcDbEntity
  8
0
100
AcDbLine
 62
7
  6
CONTINUOUS
 10
535.9048516221
 20
265.9206317716
 11
528.4490777177
 21
249.9316730359
  0
LINE
  5
277
100
AcDbEntity
  8
0
100
AcDbLine
 62
7
  6
CONTINUOUS
 10
572.8490777177
 20
328.9316730359
 11
569.8490777177
 21
325.9316730359
  0
LINE
  5
278
100
AcDbEntity
  8
0
100
AcDbLine
 62
7
  6
CONTINUOUS
 10
503.8117040589
 20
323.9316730359
 11
533.8864513764
 21
323.9316730359
  0
LINE
  5
279
100
AcDbEntity
  8
0
100
AcDbLine
 62
7
  6
CONTINUOUS
 10
465.8490777177
 20
325.9316730359
 11
571.8490777177
 21
325.9316730359
  0
LINE
  5
27A
100
AcDbEntity
  8
0
100
AcDbLine
 62
7
  6
CONTINUOUS
 10
464.8490777177
 20
328.9316730359
 11
572.8490777177
 21
328.9316730359
  0
LINE
  5
27B
100
AcDbEntity
  8
RUNDUNGEN
100
AcDbLine
 62
7
  6
CONTINUOUS
 10
551.8490777177
 20
266.9316730359
 11
551.8490777177
 21
157.2159442833
  0
LINE
  5
27C
100
AcDbEntity
  8
0
100
AcDbLine
 62
7
  6
CONTINUOUS
 10
551.8490777177
 20
154.9316730359
 11
551.8490777177
 21
157.2159442833
  0
LINE
  5
27D
100
AcDbEntity
  8
0
100
AcDbLine
 62
7
  6
CONTINUOUS
 10
552.4490777177
 20
152.4316730359
 11
552.4490777177
 21
129.4316730359
  0
LINE
  5
27E
100
AcDbEntity
  8
BEZUGSACHSEN
100
AcDbLine
 62
7
  6
CONTINUOUS
 10
553.5490777177
 20
130.9316730359
 11
553.5490777177
 21
150.9316730359
  0
LINE
  5
27F
100
AcDbEntity
  8
BEZUGSACHSEN
100
AcDbLine
 62
7
  6
CONTINUOUS
 10
554.2490777177
 20
134.9015703096
 11
554.2490777177
 21
146.9617757621
  0
LINE
  5
280
100
AcDbEntity
  8
BEZUGSACHSEN
100
AcDbLine
 62
7
  6
CONTINUOUS
 10
554.9490777177
 20
130.9316730359
 11
554.9490777177
 21
150.9316730359
  0
LINE
  5
281
100
AcDbEntity
  8
0
100
AcDbLine
 62
7
  6
CONTINUOUS
 10
556.0490777177
 20
152.4316730359
 11
556.0490777177
 21
129.4316730359
  0
LINE
  5
282
100
AcDbEntity
  8
RUNDUNGEN
100
AcDbLine
 62
7
  6
CONTINUOUS
 10
561.5490777177
 20
152.9316730359
 11
561.5490777177
 21
143.0738086596
  0
LINE
  5
283
100
AcDbEntity
  8
0
100
AcDbLine
 62
7
  6
CONTINUOUS
 10
561.5490777177
 20
113.9316730359
 11
561.5490777177
 21
143.0738086596
  0
LINE
  5
284
100
AcDbEntity
  8
0
100
AcDbLine
 62
7
  6
CONTINUOUS
 10
571.8490777177
 20
295.0647354615
 11
571.8490777177
 21
157.2159442833
  0
LINE
  5
285
100
AcDbEntity
  8
0
100
AcDbLine
 62
7
  6
CONTINUOUS
 10
572.8490777177
 20
381.7316730359
 11
572.8490777177
 21
328.9316730359
  0
LINE
  5
286
100
AcDbEntity
  8
0
100
AcDbLine
 62
7
  6
CONTINUOUS
 10
573.8490777177
 20
323.9316730359
 11
573.8490777177
 21
148.4981463963
  0
LINE
  5
287
100
AcDbEntity
  8
RUNDUNGEN
100
AcDbLine
 62
7
  6
CONTINUOUS
 10
573.8490777177
 20
148.4981463963
 11
573.8490777177
 21
113.9316730359
  0
LINE
  5
288
100
AcDbEntity
  8
0
100
AcDbLine
 62
7
  6
CONTINUOUS
 10
573.8490777177
 20
323.9316730359
 11
571.8490777177
 21
325.9316730359
  0
LINE
  5
289
100
AcDbEntity
  8
0
100
AcDbLine
 62
7
  6
CONTINUOUS
 10
581.8490777177
 20
238.9316730359
 11
581.8490777177
 21
208.9316730359
  0
LINE
  5
28A
100
AcDbEntity
  8
0
100
AcDbLine
 62
7
  6
CONTINUOUS
 10
582.8490777177
 20
208.9316730359
 11
582.8490777177
 21
215.9316730359
  0
LINE
  5
28B
100
AcDbEntity
  8
0
100
AcDbLine
 62
7
  6
CONTINUOUS
 10
590.3490777177
 20
215.9316730359
 11
590.3490777177
 21
165.9316730359
  0
LINE
  5
28C
100
AcDbEntity
  8
BEZUGSACHSEN
100
AcDbLine
 62
7
  6
CONTINUOUS
 10
554.2490777177
 20
146.9617757621
 11
554.9490777177
 21
150.9316730359
  0
LINE
  5
28D
100
AcDbEntity
  8
BEZUGSACHSEN
100
AcDbLine
 62
7
  6
CONTINUOUS
 10
553.5490777177
 20
130.9316730359
 11
554.2490777177
 21
134.9015703096
  0
LINE
  5
28E
100
AcDbEntity
  8
0
100
AcDbLine
 62
7
  6
CONTINUOUS
 10
509.2490777177
 20
131.9316730359
 11
508.0833085723
 21
129.4316730359
  0
LINE
  5
28F
100
AcDbEntity
  8
0
100
AcDbLine
 62
7
  6
CONTINUOUS
 10
463.8490777177
 20
157.4316730359
 11
462.3490777177
 21
155.9316730359
  0
LINE
  5
290
100
AcDbEntity
  8
0
100
AcDbLine
 62
7
  6
CONTINUOUS
 10
591.8490777177
 20
214.4316730359
 11
591.8490777177
 21
167.4316730359
  0
LINE
  5
291
100
AcDbEntity
  8
0
100
AcDbLine
 62
7
  6
CONTINUOUS
 10
572.8490777177
 20
381.7316730359
 11
555.8490777177
 21
381.7316730359
  0
LINE
  5
292
100
AcDbEntity
  8
0
100
AcDbLine
 62
7
  6
CONTINUOUS
 10
481.8490777177
 20
381.7316730359
 11
464.8490777177
 21
381.7316730359
  0
LINE
  5
293
100
AcDbEntity
  8
0
100
AcDbLine
 62
7
  6
CONTINUOUS
 10
591.8490777177
 20
167.4316730359
 11
590.3490777177
 21
165.9316730359
  0
LINE
  5
294
100
AcDbEntity
  8
RUNDUNGEN
100
AcDbLine
 62
7
  6
CONTINUOUS
 10
192.3537608688
 20
113.9316730359
 11
240.7852183739
 21
113.9316730359
  0
LINE
  5
295
100
AcDbEntity
  8
DEFAULT_2
100
AcDbLine
 62
8
  6
HIDDEN
 10
173.6422255576
 20
129.4316730359
 11
259.4967536851
 21
129.4316730359
  0
LINE
  5
296
100
AcDbEntity
  8
RUNDUNGEN
100
AcDbLine
 62
7
  6
CONTINUOUS
 10
154.9273539976
 20
143.0738086596
 11
178.2116252451
 21
119.7895374121
  0
LINE
  5
297
100
AcDbEntity
  8
0
100
AcDbLine
 62
7
  6
CONTINUOUS
 10
171.5694896213
 20
208.9316730359
 11
199.2201380485
 21
208.9316730359
  0
LINE
  5
298
100
AcDbEntity
  8
0
100
AcDbLine
 62
7
  6
CONTINUOUS
 10
233.9188411942
 20
208.9316730359
 11
261.5694896213
 21
208.9316730359
  0
LINE
  5
299
100
AcDbEntity
  8
0
100
AcDbLine
 62
7
  6
CONTINUOUS
 10
144.8142597515
 20
212.7533820964
 11
149.0694896213
 21
199.657131179
  0
LINE
  5
29A
100
AcDbEntity
  8
DEFAULT_2
100
AcDbLine
 62
8
  6
HIDDEN
 10
149.0694896213
 20
199.657131179
 11
171.3447679869
 21
131.1008736673
  0
LINE
  5
29B
100
AcDbEntity
  8
0
100
AcDbLine
 62
7
  6
CONTINUOUS
 10
149.0694896213
 20
157.2159442833
 11
149.0694896213
 21
323.9316730359
  0
LINE
  5
29C
100
AcDbEntity
  8
0
100
AcDbLine
 62
7
  6
CONTINUOUS
 10
151.0694896213
 20
295.5701477999
 11
151.0694896213
 21
148.4981463963
  0
LINE
  5
29D
100
AcDbEntity
  8
0
100
AcDbLine
 62
7
  6
CONTINUOUS
 10
162.5694896213
 20
437.7316730359
 11
162.5694896213
 21
328.9316730359
  0
LINE
  5
29E
100
AcDbEntity
  8
0
100
AcDbLine
 62
7
  6
CONTINUOUS
 10
151.0694896213
 20
325.9316730359
 11
149.0694896213
 21
323.9316730359
  0
LINE
  5
29F
100
AcDbEntity
  8
0
100
AcDbLine
 62
7
  6
CONTINUOUS
 10
261.5694896213
 20
238.9316730359
 11
171.5694896213
 21
238.9316730359
  0
LINE
  5
2A0
100
AcDbEntity
  8
0
100
AcDbLine
 62
7
  6
CONTINUOUS
 10
166.5694896213
 20
233.9316730359
 11
166.5694896213
 21
213.9316730359
  0
LINE
  5
2A1
100
AcDbEntity
  8
0
100
AcDbLine
 62
7
  6
CONTINUOUS
 10
168.7050978463
 20
437.7316730359
 11
168.7050978463
 21
393.7316730359
  0
LINE
  5
2A2
100
AcDbEntity
  8
DEFAULT_2
100
AcDbLine
 62
8
  6
HIDDEN
 10
149.0694896213
 20
275.9316730359
 11
284.0694896213
 21
275.9316730359
  0
LINE
  5
2A3
100
AcDbEntity
  8
FASEN
100
AcDbLine
 62
8
  6
HIDDEN
 10
152.0694896213
 20
275.9316730359
 11
281.0694896213
 21
275.9316730359
  0
LINE
  5
2A4
100
AcDbEntity
  8
0
100
AcDbLine
 62
7
  6
CONTINUOUS
 10
287.4471687869
 20
215.454205452
 11
284.0694896213
 21
217.9082330118
  0
LINE
  5
2A5
100
AcDbEntity
  8
DEFAULT_2
100
AcDbLine
 62
8
  6
HIDDEN
 10
217.9893964877
 20
265.9182309279
 11
284.0694896213
 21
217.9082330118
  0
LINE
  5
2A6
100
AcDbEntity
  8
0
100
AcDbLine
 62
7
  6
CONTINUOUS
 10
162.5694896213
 20
328.9316730359
 11
165.5694896213
 21
325.9316730359
  0
LINE
  5
2A7
100
AcDbEntity
  8
DEFAULT_2
100
AcDbLine
 62
8
  6
HIDDEN
 10
149.0694896213
 20
300.9316730359
 11
284.0694896213
 21
300.9316730359
  0
LINE
  5
2A8
100
AcDbEntity
  8
0
100
AcDbLine
 62
7
  6
CONTINUOUS
 10
270.5694896213
 20
328.9316730359
 11
267.5694896213
 21
325.9316730359
  0
LINE
  5
2A9
100
AcDbEntity
  8
0
100
AcDbLine
 62
7
  6
CONTINUOUS
 10
174.6484614069
 20
323.9316730359
 11
258.4905178358
 21
323.9316730359
  0
LINE
  5
2AA
100
AcDbEntity
  8
0
100
AcDbLine
 62
7
  6
CONTINUOUS
 10
151.0694896213
 20
325.9316730359
 11
282.0694896213
 21
325.9316730359
  0
LINE
  5
2AB
100
AcDbEntity
  8
0
100
AcDbLine
 62
7
  6
CONTINUOUS
 10
162.5694896213
 20
328.9316730359
 11
270.5694896213
 21
328.9316730359
  0
LINE
  5
2AC
100
AcDbEntity
  8
0
100
AcDbLine
 62
7
  6
CONTINUOUS
 10
149.0694896213
 20
217.9082330118
 11
145.6918104558
 21
215.454205452
  0
LINE
  5
2AD
100
AcDbEntity
  8
DEFAULT_2
100
AcDbLine
 62
8
  6
HIDDEN
 10
149.0694896213
 20
217.9082330118
 11
215.149582755
 21
265.9182309279
  0
LINE
  5
2AE
100
AcDbEntity
  8
0
100
AcDbLine
 62
7
  6
CONTINUOUS
 10
264.4338813964
 20
437.7316730359
 11
264.4338813964
 21
393.7316730359
  0
LINE
  5
2AF
100
AcDbEntity
  8
0
100
AcDbLine
 62
7
  6
CONTINUOUS
 10
266.5694896213
 20
213.9316730359
 11
266.5694896213
 21
233.9316730359
  0
LINE
  5
2B0
100
AcDbEntity
  8
0
100
AcDbLine
 62
7
  6
CONTINUOUS
 10
270.5694896213
 20
437.7316730359
 11
270.5694896213
 21
328.9316730359
  0
LINE
  5
2B1
100
AcDbEntity
  8
0
100
AcDbLine
 62
7
  6
CONTINUOUS
 10
282.0694896213
 20
295.5701477999
 11
282.0694896213
 21
148.4981463963
  0
LINE
  5
2B2
100
AcDbEntity
  8
0
100
AcDbLine
 62
7
  6
CONTINUOUS
 10
284.0694896213
 20
323.9316730359
 11
284.0694896213
 21
157.2159442833
  0
LINE
  5
2B3
100
AcDbEntity
  8
0
100
AcDbLine
 62
7
  6
CONTINUOUS
 10
284.0694896213
 20
323.9316730359
 11
282.0694896213
 21
325.9316730359
  0
LINE
  5
2B4
100
AcDbEntity
  8
0
100
AcDbLine
 62
7
  6
CONTINUOUS
 10
255.9014104999
 20
381.7316730359
 11
177.2375687428
 21
381.7316730359
  0
LINE
  5
2B5
100
AcDbEntity
  8
DEFAULT_2
100
AcDbLine
 62
8
  6
HIDDEN
 10
284.0694896213
 20
199.657131179
 11
261.7942112558
 21
131.1008736673
  0
LINE
  5
2B6
100
AcDbEntity
  8
0
100
AcDbLine
 62
7
  6
CONTINUOUS
 10
284.0694896213
 20
199.657131179
 11
288.3247194912
 21
212.7533820964
  0
LINE
  5
2B7
100
AcDbEntity
  8
RUNDUNGEN
100
AcDbLine
 62
7
  6
CONTINUOUS
 10
254.9273539976
 20
119.7895374121
 11
278.2116252451
 21
143.0738086596
  0
ARC
  5
2B8
100
AcDbEntity
  8
0
100
AcDbCircle
 62
7
  6
CONTINUOUS
 10
518.8490777177
 20
437.7316730359
 40
54.0
100
AcDbArc
 50
62.4215320219
 51
117.5784679781
  0
ARC
  5
2B9
100
AcDbEntity
  8
0
100
AcDbCircle
 62
7
  6
CONTINUOUS
 10
458.0927004764
 20
268.5813422975
 40
27.595860222
100
AcDbArc
 50
73.6759049168
 51
77.9599317766
  0
ARC
  5
2BA
100
AcDbEntity
  8
0
100
AcDbCircle
 62
7
  6
CONTINUOUS
 10
579.5301537943
 20
268.8793214281
 40
27.2887309671
100
AcDbArc
 50
102.0159488587
 51
106.3482144479
  0
ARC
  5
2BB
100
AcDbEntity
  8
0
100
AcDbCircle
 62
7
  6
CONTINUOUS
 10
555.8490777177
 20
393.7316730359
 40
12.0
100
AcDbArc
 50
180.0
 51
270.0
  0
ARC
  5
2BC
100
AcDbEntity
  8
0
100
AcDbCircle
 62
7
  6
CONTINUOUS
 10
481.8490777177
 20
393.7316730359
 40
12.0
100
AcDbArc
 50
270.0
 51
360.0
  0
ARC
  5
2BD
100
AcDbEntity
  8
0
100
AcDbCircle
 62
7
  6
CONTINUOUS
 10
518.8490777177
 20
290.9316730359
 40
10.0
100
AcDbArc
 50
0.0
 51
180.0
  0
ARC
  5
2BE
100
AcDbEntity
  8
0
100
AcDbCircle
 62
7
  6
CONTINUOUS
 10
542.8490777177
 20
266.9316730359
 40
9.0
100
AcDbArc
 50
0.0
 51
90.0
  0
ARC
  5
2BF
100
AcDbEntity
  8
0
100
AcDbCircle
 62
7
  6
CONTINUOUS
 10
494.8490777177
 20
266.9316730359
 40
9.0
100
AcDbArc
 50
90.0
 51
180.0
  0
ARC
  5
2C0
100
AcDbEntity
  8
RUNDUNGEN
100
AcDbCircle
 62
7
  6
CONTINUOUS
 10
511.2490777177
 20
143.1816730359
 40
2.0
100
AcDbArc
 50
90.0
 51
180.0
  0
ARC
  5
2C1
100
AcDbEntity
  8
RUNDUNGEN
100
AcDbCircle
 62
7
  6
CONTINUOUS
 10
511.2490777177
 20
238.6816730359
 40
2.0
100
AcDbArc
 50
180.0
 51
270.0
  0
ARC
  5
2C2
100
AcDbEntity
  8
RUNDUNGEN
100
AcDbCircle
 62
7
  6
CONTINUOUS
 10
526.4490777177
 20
143.1816730359
 40
2.0
100
AcDbArc
 50
0.0
 51
90.0
  0
ARC
  5
2C3
100
AcDbEntity
  8
RUNDUNGEN
100
AcDbCircle
 62
7
  6
CONTINUOUS
 10
526.4490777177
 20
238.6816730359
 40
2.0
100
AcDbArc
 50
270.0
 51
360.0
  0
ARC
  5
2C4
100
AcDbEntity
  8
RUNDUNGEN
100
AcDbCircle
 62
7
  6
CONTINUOUS
 10
478.1490777177
 20
152.9316730359
 40
2.0
100
AcDbArc
 50
90.0
 51
180.0
  0
ARC
  5
2C5
100
AcDbEntity
  8
RUNDUNGEN
100
AcDbCircle
 62
7
  6
CONTINUOUS
 10
559.5490777177
 20
152.9316730359
 40
2.0
100
AcDbArc
 50
0.0
 51
90.0
  0
ARC
  5
2C6
100
AcDbEntity
  8
0
100
AcDbCircle
 62
7
  6
CONTINUOUS
 10
156.750565698
 20
268.8793214281
 40
27.2887309671
100
AcDbArc
 50
102.0159488587
 51
106.3482144479
  0
ARC
  5
2C7
100
AcDbEntity
  8
RUNDUNGEN
100
AcDbCircle
 62
7
  6
CONTINUOUS
 10
169.0694896213
 20
157.2159442833
 40
20.0
100
AcDbArc
 50
180.0
 51
225.0
  0
ARC
  5
2C8
100
AcDbEntity
  8
RUNDUNGEN
100
AcDbCircle
 62
7
  6
CONTINUOUS
 10
192.3537608688
 20
133.9316730359
 40
20.0
100
AcDbArc
 50
225.0
 51
270.0
  0
ARC
  5
2C9
100
AcDbEntity
  8
0
100
AcDbCircle
 62
7
  6
CONTINUOUS
 10
171.5694896213
 20
233.9316730359
 40
5.0
100
AcDbArc
 50
90.0
 51
180.0
  0
ARC
  5
2CA
100
AcDbEntity
  8
0
100
AcDbCircle
 62
7
  6
CONTINUOUS
 10
171.5694896213
 20
213.9316730359
 40
5.0
100
AcDbArc
 50
180.0
 51
270.0
  0
ARC
  5
2CB
100
AcDbEntity
  8
DEFAULT_2
100
AcDbCircle
 62
8
  6
HIDDEN
 10
216.5694896213
 20
190.9316730359
 40
75.0
100
AcDbArc
 50
88.9152062474
 51
91.0847937526
  0
ARC
  5
2CC
100
AcDbEntity
  8
DEFAULT_2
100
AcDbCircle
 62
8
  6
HIDDEN
 10
216.5694896213
 20
190.9316730359
 40
75.0
100
AcDbArc
 50
232.9152062474
 51
235.0847937526
  0
ARC
  5
2CD
100
AcDbEntity
  8
DEFAULT_2
100
AcDbCircle
 62
8
  6
HIDDEN
 10
216.5694896213
 20
190.9316730359
 40
75.0
100
AcDbArc
 50
304.9152062474
 51
307.0847937526
  0
ARC
  5
2CE
100
AcDbEntity
  8
0
100
AcDbCircle
 62
7
  6
CONTINUOUS
 10
216.5694896213
 20
190.9316730359
 40
75.0
100
AcDbArc
 50
16.9152062474
 51
19.0847937526
  0
ARC
  5
2CF
100
AcDbEntity
  8
0
100
AcDbCircle
 62
7
  6
CONTINUOUS
 10
216.5694896213
 20
190.9316730359
 40
75.0
100
AcDbArc
 50
160.9152062474
 51
163.0847937526
  0
CIRCLE
  5
2D0
100
AcDbEntity
  8
RUNDUNGEN
100
AcDbCircle
 62
8
  6
HIDDEN
 10
216.5694896213
 20
190.9316730359
 40
45.75
  0
ARC
  5
2D1
100
AcDbEntity
  8
0
100
AcDbCircle
 62
7
  6
CONTINUOUS
 10
276.3131123801
 20
268.5813422975
 40
27.5958602219
100
AcDbArc
 50
73.6759049168
 51
77.9599317766
  0
ARC
  5
2D2
100
AcDbEntity
  8
0
100
AcDbCircle
 62
7
  6
CONTINUOUS
 10
216.5694896213
 20
190.9316730359
 40
25.5
100
AcDbArc
 50
0.0
 51
44.900872156
  0
ARC
  5
2D3
100
AcDbEntity
  8
BEZUGSACHSEN
100
AcDbCircle
 62
7
  6
CONTINUOUS
 10
216.5694896213
 20
190.9316730359
 40
25.5
100
AcDbArc
 50
180.0
 51
360.0
  0
ARC
  5
2D4
100
AcDbEntity
  8
0
100
AcDbCircle
 62
7
  6
CONTINUOUS
 10
216.5694896213
 20
190.9316730359
 40
25.5
100
AcDbArc
 50
135.099127844
 51
180.0
  0
CIRCLE
  5
2D5
100
AcDbEntity
  8
0
100
AcDbCircle
 62
7
  6
CONTINUOUS
 10
216.5694896213
 20
190.9316730359
 40
25.0
  0
CIRCLE
  5
2D6
100
AcDbEntity
  8
0
100
AcDbCircle
 62
7
  6
CONTINUOUS
 10
216.5694896213
 20
190.9316730359
 40
23.5
  0
ARC
  5
2D7
100
AcDbEntity
  8
RUNDUNGEN
100
AcDbCircle
 62
7
  6
CONTINUOUS
 10
240.7852183739
 20
133.9316730359
 40
20.0
100
AcDbArc
 50
270.0
 51
315.0
  0
ARC
  5
2D8
100
AcDbEntity
  8
RUNDUNGEN
100
AcDbCircle
 62
7
  6
CONTINUOUS
 10
264.0694896213
 20
157.2159442833
 40
20.0
100
AcDbArc
 50
315.0
 51
360.0
  0
ARC
  5
2D9
100
AcDbEntity
  8
0
100
AcDbCircle
 62
7
  6
CONTINUOUS
 10
261.5694896213
 20
213.9316730359
 40
5.0
100
AcDbArc
 50
270.0
 51
360.0
  0
ARC
  5
2DA
100
AcDbEntity
  8
0
100
AcDbCircle
 62
7
  6
CONTINUOUS
 10
261.5694896213
 20
233.9316730359
 40
5.0
100
AcDbArc
 50
0.0
 51
90.0
  0
ARC
  5
2DB
100
AcDbEntity
  8
0
100
AcDbCircle
 62
7
  6
CONTINUOUS
 10
216.5694896213
 20
437.7316730359
 40
54.0
100
AcDbArc
 50
0.0
 51
180.0
  0
ARC
  5
2DC
100
AcDbEntity
  8
0
100
AcDbCircle
 62
7
  6
CONTINUOUS
 10
216.5694896213
 20
437.7316730359
 40
47.8643917751
100
AcDbArc
 50
0.0
 51
180.0
  0
CIRCLE
  5
2DD
100
AcDbEntity
  8
FASEN
100
AcDbCircle
 62
7
  6
CONTINUOUS
 10
216.5694896213
 20
431.9316730359
 40
24.5
  0
CIRCLE
  5
2DE
100
AcDbEntity
  8
FASEN
100
AcDbCircle
 62
7
  6
CONTINUOUS
 10
216.5694896213
 20
431.9316730359
 40
22.5
  0
SPLINE
  5
2DF
100
AcDbEntity
  8
0
100
AcDbSpline
 62
7
  6
CONTINUOUS
 70
0
 71
3
 72
15
 73
11
 74
0
 42
0.0000001
 43
0.0000001
 44
0.0000000001
 40
0.0
 40
0.0
 40
0.0
 40
0.0
 40
0.1283112659
 40
0.2541808386
 40
0.3777962937
 40
0.5000000014
 40
0.6222037095
 40
0.7458191644
 40
0.8716887359
 40
1.0
 40
1.0
 40
1.0
 40
1.0
 10
535.9100002482
 20
215.454205452
 30
0.0
 10
534.9835328487
 20
217.4945538568
 30
0.0
 10
533.2703485268
 20
221.5943196859
 30
0.0
 10
531.2378961698
 20
227.8815809527
 30
0.0
 10
529.921399033
 20
234.2542919226
 30
0.0
 10
529.462462722
 20
240.6862182695
 30
0.0
 10
529.9213990753
 20
247.1181446086
 30
0.0
 10
531.2378961905
 20
253.4908555646
 30
0.0
 10
533.2703485601
 20
259.7781167711
 30
0.0
 10
534.9835328615
 20
263.8778825514
 30
0.0
 10
535.9100002482
 20
265.9182309279
 30
0.0
  0
SPLINE
  5
2E0
100
AcDbEntity
  8
0
100
AcDbSpline
 62
7
  6
CONTINUOUS
 70
0
 71
3
 72
15
 73
11
 74
0
 42
0.0000001
 43
0.0000001
 44
0.0000000001
 40
0.0
 40
0.0
 40
0.0
 40
0.0
 40
0.1283112659
 40
0.2541808386
 40
0.3777962937
 40
0.5000000014
 40
0.6222037095
 40
0.7458191644
 40
0.8716887359
 40
1.0
 40
1.0
 40
1.0
 40
1.0
 10
501.7881551872
 20
215.454205452
 30
0.0
 10
502.7146225866
 20
217.4945538568
 30
0.0
 10
504.4278069086
 20
221.5943196859
 30
0.0
 10
506.4602592656
 20
227.8815809527
 30
0.0
 10
507.7767564024
 20
234.2542919226
 30
0.0
 10
508.2356927134
 20
240.6862182695
 30
0.0
 10
507.77675636
 20
247.1181446086
 30
0.0
 10
506.4602592448
 20
253.4908555646
 30
0.0
 10
504.4278068752
 20
259.7781167711
 30
0.0
 10
502.7146225738
 20
263.8778825514
 30
0.0
 10
501.7881551872
 20
265.9182309279
 30
0.0
  0
SPLINE
  5
2E1
100
AcDbEntity
  8
0
100
AcDbSpline
 62
7
  6
CONTINUOUS
 70
0
 71
3
 72
15
 73
11
 74
0
 42
0.0000001
 43
0.0000001
 44
0.0000000001
 40
0.0
 40
0.0
 40
0.0
 40
0.0
 40
0.1252037094
 40
0.2502568293
 40
0.3751715662
 40
0.5000000014
 40
0.6248284367
 40
0.7497431729
 40
0.8747962913
 40
1.0
 40
1.0
 40
1.0
 40
1.0
 10
535.9100002482
 20
131.1008736673
 30
0.0
 10
534.9755598404
 20
134.4306375732
 30
0.0
 10
533.2491093945
 20
141.1274248437
 30
0.0
 10
531.2234770979
 20
151.29732618
 30
0.0
 10
529.9172644327
 20
161.5776468223
 30
0.0
 10
529.4637020326
 20
171.927128001
 30
0.0
 10
529.9172644686
 20
182.2766091589
 30
0.0
 10
531.2234771129
 20
192.5569297425
 30
0.0
 10
533.2491094163
 20
202.7268309974
 30
0.0
 10
534.9755598456
 20
209.4236182089
 30
0.0
 10
535.9100002482
 20
212.7533820964
 30
0.0
  0
SPLINE
  5
2E2
100
AcDbEntity
  8
0
100
AcDbSpline
 62
7
  6
CONTINUOUS
 70
0
 71
3
 72
15
 73
11
 74
0
 42
0.0000001
 43
0.0000001
 44
0.0000000001
 40
0.0
 40
0.0
 40
0.0
 40
0.0
 40
0.1252037094
 40
0.2502568293
 40
0.3751715662
 40
0.5000000014
 40
0.6248284367
 40
0.7497431729
 40
0.8747962913
 40
1.0
 40
1.0
 40
1.0
 40
1.0
 10
501.7881551872
 20
131.1008736673
 30
0.0
 10
502.7225955949
 20
134.4306375732
 30
0.0
 10
504.4490460409
 20
141.1274248437
 30
0.0
 10
506.4746783375
 20
151.29732618
 30
0.0
 10
507.7808910027
 20
161.5776468223
 30
0.0
 10
508.2344534028
 20
171.927128001
 30
0.0
 10
507.7808909668
 20
182.2766091589
 30
0.0
 10
506.4746783225
 20
192.5569297425
 30
0.0
 10
504.449046019
 20
202.7268309974
 30
0.0
 10
502.7225955897
 20
209.4236182089
 30
0.0
 10
501.7881551872
 20
212.7533820964
 30
0.0
  0
SPLINE
  5
2E3
100
AcDbEntity
  8
0
100
AcDbSpline
 62
7
  6
CONTINUOUS
 70
0
 71
3
 72
12
 73
8
 74
0
 42
0.0000001
 43
0.0000001
 44
0.0000000001
 40
0.0
 40
0.0
 40
0.0
 40
0.0
 40
0.2500858673
 40
0.500139193
 40
0.6251892481
 40
0.7502345611
 40
1.0
 40
1.0
 40
1.0
 40
1.0
 10
571.8490777177
 20
295.0647354615
 30
0.0
 10
569.1128128037
 20
297.9915883372
 30
0.0
 10
563.5012086238
 20
303.717149041
 30
0.0
 10
556.0194310838
 20
310.3949784975
 30
0.0
 10
549.6557933359
 20
315.2733728646
 30
0.0
 10
543.0101166729
 20
319.7428926612
 30
0.0
 10
537.6312246822
 20
322.5212920442
 30
0.0
 10
533.8864513764
 20
323.9316730359
 30
0.0
  0
SPLINE
  5
2E4
100
AcDbEntity
  8
0
100
AcDbSpline
 62
7
  6
CONTINUOUS
 70
0
 71
3
 72
12
 73
8
 74
0
 42
0.0000001
 43
0.0000001
 44
0.0000000001
 40
0.0
 40
0.0
 40
0.0
 40
0.0
 40
0.2497660059
 40
0.3748113564
 40
0.4998613322
 40
0.749914407
 40
1.0
 40
1.0
 40
1.0
 40
1.0
 10
503.8117040589
 20
323.9316730359
 30
0.0
 10
500.0669222311
 20
322.5212888346
 30
0.0
 10
494.6880216785
 20
319.7428844082
 30
0.0
 10
488.0423388915
 20
315.2733585915
 30
0.0
 10
481.6787056771
 20
310.3949658599
 30
0.0
 10
474.1969396757
 20
303.7171380469
 30
0.0
 10
468.5853396455
 20
297.9915851431
 30
0.0
 10
465.8490777177
 20
295.0647354615
 30
0.0
  0
SPLINE
  5
2E5
100
AcDbEntity
  8
0
100
AcDbSpline
 62
7
  6
CONTINUOUS
 70
0
 71
3
 72
15
 73
11
 74
0
 42
0.0000001
 43
0.0000001
 44
0.0000000001
 40
0.0
 40
0.0
 40
0.0
 40
0.0
 40
0.1587131235
 40
0.3100799234
 40
0.4487252552
 40
0.5728149594
 40
0.684613189
 40
0.7893999958
 40
0.893060495
 40
1.0
 40
1.0
 40
1.0
 40
1.0
 10
264.4338813964
 20
393.7316730359
 30
0.0
 10
264.4338813964
 20
392.8547696226
 30
0.0
 10
264.3371757207
 20
391.1397528836
 30
0.0
 10
263.8985244665
 20
388.6926974762
 30
0.0
 10
263.1681781093
 20
386.5135715889
 30
0.0
 10
262.1500636515
 20
384.6944284945
 30
0.0
 10
260.8594417148
 20
383.2963401344
 30
0.0
 10
259.3403985248
 20
382.3481463033
 30
0.0
 10
257.6600739169
 20
381.8286926203
 30
0.0
 10
256.4922602979
 20
381.7316730359
 30
0.0
 10
255.9014104999
 20
381.7316730359
 30
0.0
  0
SPLINE
  5
2E6
100
AcDbEntity
  8
0
100
AcDbSpline
 62
7
  6
CONTINUOUS
 70
0
 71
3
 72
15
 73
11
 74
0
 42
0.0000001
 43
0.0000001
 44
0.0000000001
 40
0.0
 40
0.0
 40
0.0
 40
0.0
 40
0.10693951
 40
0.2106000155
 40
0.3153868223
 40
0.4271850482
 40
0.5512747583
 40
0.6899200819
 40
0.841286888
 40
1.0
 40
1.0
 40
1.0
 40
1.0
 10
177.2375687428
 20
381.7316730359
 30
0.0
 10
176.6467189171
 20
381.7316730359
 30
0.0
 10
175.4789052346
 20
381.8286926278
 30
0.0
 10
173.7985805744
 20
382.3481463637
 30
0.0
 10
172.2795373967
 20
383.2963402416
 30
0.0
 10
170.9889154867
 20
384.6944286408
 30
0.0
 10
169.9708010832
 20
386.5135717277
 30
0.0
 10
169.2404547359
 20
388.6926976385
 30
0.0
 10
168.8018035155
 20
391.1397529774
 30
0.0
 10
168.7050978463
 20
392.854769686
 30
0.0
 10
168.7050978463
 20
393.7316730359
 30
0.0
  0
SPLINE
  5
2E7
100
AcDbEntity
  8
0
100
AcDbSpline
 62
7
  6
CONTINUOUS
 70
0
 71
3
 72
10
 73
6
 74
0
 42
0.0000001
 43
0.0000001
 44
0.0000000001
 40
0.0
 40
0.0
 40
0.0
 40
0.0
 40
0.2500011446
 40
0.5000078134
 40
1.0
 40
1.0
 40
1.0
 40
1.0
 10
174.6484614069
 20
323.9316730359
 30
0.0
 10
172.5277069637
 20
321.7049754713
 30
0.0
 10
168.3914690875
 20
317.1506344062
 30
0.0
 10
160.4466850022
 20
307.7587708904
 30
0.0
 10
154.7716854354
 20
300.4808853738
 30
0.0
 10
151.0694896213
 20
295.5701477999
 30
0.0
  0
SPLINE
  5
2E8
100
AcDbEntity
  8
0
100
AcDbSpline
 62
7
  6
CONTINUOUS
 70
0
 71
3
 72
10
 73
6
 74
0
 42
0.0000001
 43
0.0000001
 44
0.0000000001
 40
0.0
 40
0.0
 40
0.0
 40
0.0
 40
0.4999921862
 40
0.7499988546
 40
1.0
 40
1.0
 40
1.0
 40
1.0
 10
282.0694896213
 20
295.5701477999
 30
0.0
 10
278.3672938102
 20
300.48088537
 30
0.0
 10
272.6922942554
 20
307.7587708851
 30
0.0
 10
264.7475101617
 20
317.1506343937
 30
0.0
 10
260.6112722851
 20
321.7049754648
 30
0.0
 10
258.4905178358
 20
323.9316730359
 30
0.0
  0
ELLIPSE
  5
2E9
100
AcDbEntity
  8
RUNDUNGEN
100
AcDbEllipse
 62
7
  6
CONTINUOUS
 10
591.8490777177
 20
157.2159442833
 30
0.0
 11
20.0
 21
0.0
 31
0.0
 40
1.0
 41
-3.1415926536
 42
-2.6905658418
  0
ELLIPSE
  5
2EA
100
AcDbEntity
  8
0
100
AcDbEllipse
 62
7
  6
CONTINUOUS
 10
518.8490777177
 20
365.2919455785
 30
0.0
 11
0.0
 21
45.2753360521
 31
0.0
 40
0.8164965809
 41
-2.7226699185
 42
-2.6246889694
  0
ELLIPSE
  5
2EB
100
AcDbEntity
  8
0
100
AcDbEllipse
 62
7
  6
CONTINUOUS
 10
518.8490777177
 20
365.2919455785
 30
0.0
 11
0.0
 21
45.2753360521
 31
0.0
 40
0.8164965809
 41
-3.6584963378
 42
-3.5605153887
  0
ELLIPSE
  5
2EC
100
AcDbEntity
  8
RUNDUNGEN
100
AcDbEllipse
 62
7
  6
CONTINUOUS
 10
445.8490777177
 20
157.2159442833
 30
0.0
 11
20.0
 21
0.0
 31
0.0
 40
1.0
 41
-0.4510268118
 42
-0.0
  0
ELLIPSE
  5
2ED
100
AcDbEntity
  8
0
100
AcDbEllipse
 62
7
  6
CONTINUOUS
 10
216.5694896213
 20
346.5419455785
 30
0.0
 11
0.0
 21
56.1006535994
 31
0.0
 40
0.8164965809
 41
-4.3361982455
 42
-4.29756323
  0
ELLIPSE
  5
2EE
100
AcDbEntity
  8
0
100
AcDbEllipse
 62
7
  6
CONTINUOUS
 10
216.5694896213
 20
346.5419455785
 30
0.0
 11
0.0
 21
56.1006535994
 31
0.0
 40
0.8164965809
 41
-1.9856220772
 42
-1.9469870617
  0
ENDSEC
  0
SECTION
  2
OBJECTS
  0
DICTIONARY
  5
C
100
AcDbDictionary
280
0
281
1
  3
ACAD_GROUP
350
D
  3
ACAD_MLINESTYLE
350
17
  3
ACAD_LAYOUT
350
1A
  3
ACAD_PLOTSETTINGS
350
19
  3
ACAD_PLOTSTYLENAME
350
E
  0
DICTIONARY
  5
D
102
{ACAD_REACTORS
330
C
102
}
100
AcDbDictionary
280
0
281
1
  0
ACDBDICTIONARYWDFLT
  5
E
102
{ACAD_REACTORS
330
C
102
}
100
AcDbDictionary
281
1
  3
Normal
350
F
100
AcDbDictionaryWithDefault
340
F
  0
DICTIONARY
  5
17
102
{ACAD_REACTORS
330
C
102
}
100
AcDbDictionary
280
0
281
1
  3
Standard
350
18
  0
DICTIONARY
  5
19
102
{ACAD_REACTORS
330
C
102
}
100
AcDbDictionary
281
1
  0
DICTIONARY
  5
1A
102
{ACAD_REACTORS
330
C
102
}
100
AcDbDictionary
281
1
  3
Model
350
2EF
  3
Layout1
350
2F0
  0
ACDBPLACEHOLDER
  5
F
102
{ACAD_REACTORS
330
E
102
}
  0
MLINESTYLE
  5
18
102
{ACAD_REACTORS
330
17
102
}
100
AcDbMlineStyle
  2
STANDARD
 70
0
  3

 62
256
 51
90.0
 52
90.0
 71
2
 49
0.5
 62
256
  6
BYLAYER
 49
-0.5
 62
256
  6
BYLAYER
  0
LAYOUT
  5
2EF
102
{ACAD_REACTORS
330
1A
102
}
100
AcDbPlotSettings
  1

  2
none_device
  4
ISO_A1_(594.00_x_841.00_MM)
  6

 40
0.0
 41
0.0
 42
0.0
 43
0.0
 44
841.0
 45
594.0
 46
0.0
 47
0.0
 48
0.0
 49
0.0
140
0.0
141
0.0
142
1.0
143
1.0
 70
1024
 72
1
 73
0
 74
0
  7

 75
0
147
1.0
148
0.0
149
0.0
100
AcDbLayout
  1
Model
 70
0
 71
0
 10
0.0
 20
0.0
 11
841.0
 21
594.0
 12
0.0
 22
0.0
 32
0.0
 14
0.0
 24
0.0
 34
0.0
 15
0.0
 25
0.0
 35
0.0
146
0.0
 13
0.0
 23
0.0
 33
0.0
 16
1.0
 26
0.0
 36
0.0
 17
0.0
 27
1.0
 37
0.0
 76
0
330
20B
345
0
346
0
  0
LAYOUT
  5
2F0
102
{ACAD_REACTORS
330
1A
102
}
100
AcDbPlotSettings
  1

  2
none_device
  4
ISO_A1_(594.00_x_841.00_MM)
  6

 40
0.0
 41
0.0
 42
0.0
 43
0.0
 44
841.0
 45
594.0
 46
0.0
 47
0.0
 48
0.0
 49
0.0
140
0.0
141
0.0
142
1.0
143
1.0
 70
0
 72
1
 73
0
 74
0
  7

 75
0
147
1.0
148
0.0
149
0.0
100
AcDbLayout
  1
Layout1
 70
0
 71
1
 10
0.0
 20
0.0
 11
841.0
 21
594.0
 12
0.0
 22
0.0
 32
0.0
 14
0.0
 24
0.0
 34
0.0
 15
0.0
 25
0.0
 35
0.0
146
0.0
 13
0.0
 23
0.0
 33
0.0
 16
1.0
 26
0.0
 36
0.0
 17
0.0
 27
1.0
 37
0.0
 76
0
330
20C
345
0
346
0
  0
ENDSEC
  0
EOF
