999
DXF file: 001-m33839-p-1.dxf
999
Pro/ENGINEER 2011490 by Parametric Technology Corporation
  0
SECTION
  2
HEADER
  9
$ACADVER
  1
AC1015
  9
$DWGCODEPAGE
  3
ANSI_1252
  9
$EXTMAX
 10
841.0
 20
594.0
 30
0.0
  9
$EXTMIN
 10
0.0
 20
0.0
 30
0.0
  9
$LIMMIN
 10
0.0
 20
0.0
  9
$LIMMAX
 10
841.0
 20
594.0
  9
$VIEWCTR
 10
420.5
 20
297.0
  9
$VIEWSIZE
 40
594.0
  9
$CLAYER
  8
0
  9
$LTSCALE
 40
46.255
  9
$CELTYPE
  6
BYLAYER
  9
$DIMSCALE
 40
1.0
  9
$DIMASZ
 40
3.5
  9
$DIMEXO
 40
5.25625
  9
$DIMDLI
 40
31.958
  9
$DIMEXE
 40
15.138
  9
$DIMCEN
 40
7.569
  9
$DIMLFAC
 40
1.0
  9
$DIMBLK
  1
_FILLED
  9
$DIMTXT
 40
3.5
  9
$DIMTOL
 70
1
  9
$DIMLIM
 70
0
  9
$DIMTFAC
 40
1.0
  9
$DIMTP
 40
0.005
  9
$DIMTM
 40
0.005
  9
$PDMODE
 70
3
  9
$PDSIZE
 40
0.3125
  9
$HANDSEED
  5
2ED
  9
$TILEMODE
 70
1
  9
$MEASUREMENT
 70
1
  9
$INSUNITS
 70
4
  0
ENDSEC
  0
SECTION
  2
CLASSES
  0
CLASS
  1
ACDBDICTIONARYWDFLT
  2
AcDbDictionaryWithDefault
  3
AutoCAD 2000
 90
0
280
0
281
0
  0
CLASS
  1
ACDBPLACEHOLDER
  2
AcDbPlaceHolder
  3
AutoCAD 2000
 90
0
280
0
281
0
  0
CLASS
  1
LAYOUT
  2
AcDbLayout
  3
AutoCAD 2000
 90
0
280
0
281
0
  0
ENDSEC
  0
SECTION
  2
TABLES
  0
TABLE
  2
VPORT
  5
8
100
AcDbSymbolTable
 70
2
  0
VPORT
  5
1F4
100
AcDbSymbolTableRecord
100
AcDbViewportTableRecord
  2
*ACTIVE
 70
0
 10
0.0
 20
0.0
 11
1.0
 21
1.0
 12
420.5
 22
297.0
 13
0.0
 23
0.0
 14
1.0
 24
1.0
 15
0.0
 25
0.0
 16
0.0
 26
0.0
 36
1.0
 17
0.0
 27
0.0
 37
0.0
 40
594.0
 41
1.4158249158
 42
50.0
 43
0.0
 44
0.0
 50
0.0
 51
0.0
 71
0
 72
100
 73
1
 74
1
 75
0
 76
0
 77
0
 78
0
  0
ENDTAB
  0
TABLE
  2
LTYPE
  5
5
100
AcDbSymbolTable
 70
6
  0
LTYPE
  5
14
100
AcDbSymbolTableRecord
100
AcDbLinetypeTableRecord
  2
BYBLOCK
 70
0
  3

 72
65
 73
0
 40
0.0
  0
LTYPE
  5
15
100
AcDbSymbolTableRecord
100
AcDbLinetypeTableRecord
  2
BYLAYER
 70
0
  3

 72
65
 73
0
 40
0.0
  0
LTYPE
  5
16
100
AcDbSymbolTableRecord
100
AcDbLinetypeTableRecord
  2
CONTINUOUS
 70
64
  3
Solid line
 72
65
 73
0
 40
0.0
  0
LTYPE
  5
1F5
100
AcDbSymbolTableRecord
100
AcDbLinetypeTableRecord
  2
CENTER
 70
64
  3
____ _ ____ _ ____ _ ____ _ ____ _ ____ _ ____
 72
65
 73
4
 40
0.6
 49
0.375
 74
0
 49
-0.075
 74
0
 49
0.075
 74
0
 49
-0.075
 74
0
  0
LTYPE
  5
1F6
100
AcDbSymbolTableRecord
100
AcDbLinetypeTableRecord
  2
HIDDEN
 70
64
  3
- - - - - - - - - - - - - - - - - - - -
 72
65
 73
2
 40
0.2
 49
0.1
 74
0
 49
-0.1
 74
0
  0
LTYPE
  5
1F7
100
AcDbSymbolTableRecord
100
AcDbLinetypeTableRecord
  2
PHANTOM
 70
64
  3
_____ _ _ _____ _ _ _____ _ _ _____
 72
65
 73
6
 40
0.8
 49
0.45
 74
0
 49
-0.05
 74
0
 49
0.1
 74
0
 49
-0.05
 74
0
 49
0.1
 74
0
 49
-0.05
 74
0
  0
LTYPE
  5
1F8
100
AcDbSymbolTableRecord
100
AcDbLinetypeTableRecord
  2
DOT
 70
64
  3
. . . . . . . . . . . . . . . . . . . .
 72
65
 73
2
 40
0.2
 49
0.1
 74
0
 49
-0.1
 74
0
  0
LTYPE
  5
1F9
100
AcDbSymbolTableRecord
100
AcDbLinetypeTableRecord
  2
DASHED
 70
64
  3
- - - - - - - - - - - - - - - - - - - -
 72
65
 73
2
 40
0.2
 49
0.1
 74
0
 49
-0.1
 74
0
  0
ENDTAB
  0
TABLE
  2
LAYER
  5
2
100
AcDbSymbolTable
 70
36
  0
LAYER
  5
10
100
AcDbSymbolTableRecord
100
AcDbLayerTableRecord
  2
0
 70
0
 62
7
  6
CONTINUOUS
370
-3
390
F
  0
LAYER
  5
1FA
100
AcDbSymbolTableRecord
100
AcDbLayerTableRecord
  2
DEFAULT_1
 70
0
 62
7
  6
CENTER
370
-3
390
F
  0
LAYER
  5
1FB
100
AcDbSymbolTableRecord
100
AcDbLayerTableRecord
  2
DEFAULT_2
 70
0
 62
8
  6
HIDDEN
370
-3
390
F
  0
LAYER
  5
1FC
100
AcDbSymbolTableRecord
100
AcDbLayerTableRecord
  2
DEFAULT_3
 70
0
 62
7
  6
PHANTOM
370
-3
390
F
  0
LAYER
  5
1FD
100
AcDbSymbolTableRecord
100
AcDbLayerTableRecord
  2
BEZUGSACHSEN
 70
0
 62
7
  6
CONTINUOUS
370
-3
390
F
  0
LAYER
  5
1FE
100
AcDbSymbolTableRecord
100
AcDbLayerTableRecord
  2
BEZUGSEBENEN
 70
0
 62
7
  6
CONTINUOUS
370
-3
390
F
  0
LAYER
  5
1FF
100
AcDbSymbolTableRecord
100
AcDbLayerTableRecord
  2
BOHRUNGEN
 70
0
 62
7
  6
CONTINUOUS
370
-3
390
F
  0
LAYER
  5
200
100
AcDbSymbolTableRecord
100
AcDbLayerTableRecord
  2
FASEN
 70
0
 62
7
  6
CONTINUOUS
370
-3
390
F
  0
LAYER
  5
201
100
AcDbSymbolTableRecord
100
AcDbLayerTableRecord
  2
GEWINDE
 70
0
 62
7
  6
CONTINUOUS
370
-3
390
F
  0
LAYER
  5
202
100
AcDbSymbolTableRecord
100
AcDbLayerTableRecord
  2
HILFEN
 70
0
 62
7
  6
CONTINUOUS
370
-3
390
F
  0
LAYER
  5
203
100
AcDbSymbolTableRecord
100
AcDbLayerTableRecord
  2
PLATZIERUNG
 70
0
 62
7
  6
CONTINUOUS
370
-3
390
F
  0
LAYER
  5
204
100
AcDbSymbolTableRecord
100
AcDbLayerTableRecord
  2
RUNDUNGEN
 70
0
 62
7
  6
CONTINUOUS
370
-3
390
F
  0
LAYER
  5
205
100
AcDbSymbolTableRecord
100
AcDbLayerTableRecord
  2
TEIL_STARTBEZUEGE
 70
0
 62
7
  6
CONTINUOUS
370
-3
390
F
  0
LAYER
  5
206
100
AcDbSymbolTableRecord
100
AcDbLayerTableRecord
  2
TEXTE
 70
0
 62
7
  6
CONTINUOUS
370
-3
390
F
  0
LAYER
  5
207
100
AcDbSymbolTableRecord
100
AcDbLayerTableRecord
  2
XSEC_DATUMS
 70
0
 62
7
  6
CONTINUOUS
370
-3
390
F
  0
LAYER
  5
208
100
AcDbSymbolTableRecord
100
AcDbLayerTableRecord
  2
ZEICHNUNGSBEMASSUNGEN
 70
0
 62
7
  6
CONTINUOUS
370
-3
390
F
  0
ENDTAB
  0
TABLE
  2
STYLE
  5
3
100
AcDbSymbolTable
 70
1
  0
STYLE
  5
11
100
AcDbSymbolTableRecord
100
AcDbTextStyleTableRecord
  2
STANDARD
 70
0
 40
0.0
 41
0.7
 50
0.0
 71
0
 42
0.2
  3
txt
  4

  0
STYLE
  5
209
100
AcDbSymbolTableRecord
100
AcDbTextStyleTableRecord
  2
TEXTSTYLE_1
 70
0
 40
0.0
 41
0.8
 50
0.0
 71
0
 42
0.2
  3
gdt
  4

  0
ENDTAB
  0
TABLE
  2
VIEW
  5
6
100
AcDbSymbolTable
 70
0
  0
ENDTAB
  0
TABLE
  2
UCS
  5
7
100
AcDbSymbolTable
 70
0
  0
ENDTAB
  0
TABLE
  2
APPID
  5
9
100
AcDbSymbolTable
 70
1
  0
APPID
  5
20A
100
AcDbSymbolTableRecord
100
AcDbRegAppTableRecord
  2
ACAD
 70
0
  0
ENDTAB
  0
TABLE
  2
BLOCK_RECORD
  5
1
100
AcDbSymbolTable
 70
0
  0
BLOCK_RECORD
  5
20B
100
AcDbSymbolTableRecord
100
AcDbBlockTableRecord
  2
*Model_Space
  0
BLOCK_RECORD
  5
20C
100
AcDbSymbolTableRecord
100
AcDbBlockTableRecord
  2
*Paper_Space
  0
ENDTAB
  0
TABLE
  2
DIMSTYLE
  5
A
100
AcDbSymbolTable
 70
1
100
AcDbDimStyleTable
 71
0
  0
DIMSTYLE
105
20D
100
AcDbSymbolTableRecord
100
AcDbDimStyleTableRecord
  2
STANDARD
 70
0
  3

  4

 40
1.0
 41
3.5
 42
0.0625
 43
0.38
 44
0.18
 45
0.0
 46
0.0
 47
0.005
 48
0.005
140
3.5
141
0.09
142
0.0
143
25.4
144
1.0
145
0.0
146
1.0
147
0.09
 71
1.0
 72
0.0
 73
0
 74
0
 75
0
 76
0
 77
1
 78
8
170
0
171
2
172
0
173
0
174
0
175
0
176
0
177
0
178
5
270
2
271
3
272
3
273
2
274
2
275
0
280
0
281
0
282
0
283
1
284
8
285
0
286
0
287
3
288
0
340
11
  0
ENDTAB
  0
ENDSEC
  0
SECTION
  2
BLOCKS
  0
BLOCK
  5
20
100
AcDbEntity
  8
0
100
AcDbBlockBegin
  2
*Model_Space
 70
0
 10
0.0
 20
0.0
 30
0.0
  3
*Model_Space
  1

  0
ENDBLK
  5
21
100
AcDbEntity
  8
0
100
AcDbBlockEnd
  0
BLOCK
  5
1C
100
AcDbEntity
  8
0
100
AcDbBlockBegin
  2
*Paper_Space
 70
0
 10
0.0
 20
0.0
 30
0.0
  3
*Paper_Space
  1

  0
ENDBLK
  5
1D
100
AcDbEntity
  8
0
100
AcDbBlockEnd
  0
ENDSEC
  0
SECTION
  2
ENTITIES
  0
MTEXT
  5
20E
100
AcDbEntity
  8
0
100
AcDbMText
 62
5
  6
CONTINUOUS
  7
STANDARD
 71
2
 72
1
 10
519.4031142765
 20
400.6181286564
 30
0.0
 11
1.0
 21
0.0
 31
0.0
 44
0.9
  1
RUD\PVCB-22
 40
15.0
 41
71.0714285714
  0
MTEXT
  5
20F
100
AcDbEntity
  8
0
100
AcDbMText
 62
5
  6
CONTINUOUS
  7
STANDARD
 71
2
 72
1
 10
217.2224743628
 20
398.0622133697
 30
0.0
 11
1.0
 21
0.0
 31
0.0
 44
0.9
  1
RUD\PVCB-22
 40
15.0
 41
71.0714285714
  0
LINE
  5
210
100
AcDbEntity
  8
0
100
AcDbLine
 62
7
  6
CONTINUOUS
 10
0.0
 20
0.0
 11
0.0
 21
594.0
  0
LINE
  5
211
100
AcDbEntity
  8
0
100
AcDbLine
 62
7
  6
CONTINUOUS
 10
0.0
 20
0.0
 11
841.0
 21
0.0
  0
LINE
  5
212
100
AcDbEntity
  8
0
100
AcDbLine
 62
7
  6
CONTINUOUS
 10
0.0
 20
594.0
 11
841.0
 21
594.0
  0
LINE
  5
213
100
AcDbEntity
  8
0
100
AcDbLine
 62
7
  6
CONTINUOUS
 10
841.0
 20
0.0
 11
841.0
 21
594.0
  0
LINE
  5
214
100
AcDbEntity
  8
0
100
AcDbLine
 62
7
  6
CONTINUOUS
 10
586.8490777177
 20
50.3316730359
 11
572.0490777177
 21
50.3316730359
  0
LINE
  5
215
100
AcDbEntity
  8
RUNDUNGEN
100
AcDbLine
 62
7
  6
CONTINUOUS
 10
586.8490777177
 20
50.3316730359
 11
572.0490777177
 21
50.3316730359
  0
LINE
  5
216
100
AcDbEntity
  8
0
100
AcDbLine
 62
7
  6
CONTINUOUS
 10
461.6490777177
 20
50.3316730359
 11
446.8490777177
 21
50.3316730359
  0
LINE
  5
217
100
AcDbEntity
  8
RUNDUNGEN
100
AcDbLine
 62
7
  6
CONTINUOUS
 10
461.6490777177
 20
50.3316730359
 11
446.8490777177
 21
50.3316730359
  0
LINE
  5
218
100
AcDbEntity
  8
0
100
AcDbLine
 62
7
  6
CONTINUOUS
 10
505.8501547432
 20
76.3316730359
 11
474.3490777177
 21
76.3316730359
  0
LINE
  5
219
100
AcDbEntity
  8
0
100
AcDbLine
 62
7
  6
CONTINUOUS
 10
527.8480006921
 20
76.3316730359
 11
559.3490777177
 21
76.3316730359
  0
LINE
  5
21A
100
AcDbEntity
  8
0
100
AcDbLine
 62
7
  6
CONTINUOUS
 10
559.3490777177
 20
78.5102996898
 11
536.474692368
 21
78.5102996898
  0
LINE
  5
21B
100
AcDbEntity
  8
0
100
AcDbLine
 62
7
  6
CONTINUOUS
 10
497.2234630673
 20
78.5102996898
 11
474.3490777177
 21
78.5102996898
  0
LINE
  5
21C
100
AcDbEntity
  8
0
100
AcDbLine
 62
7
  6
CONTINUOUS
 10
572.0490777177
 20
81.3316730359
 11
569.5490777177
 21
81.3316730359
  0
LINE
  5
21D
100
AcDbEntity
  8
0
100
AcDbLine
 62
7
  6
CONTINUOUS
 10
565.4490777177
 20
81.3316730359
 11
559.6490777177
 21
81.3316730359
  0
LINE
  5
21E
100
AcDbEntity
  8
0
100
AcDbLine
 62
7
  6
CONTINUOUS
 10
461.6490777177
 20
81.3316730359
 11
464.1490777177
 21
81.3316730359
  0
LINE
  5
21F
100
AcDbEntity
  8
0
100
AcDbLine
 62
7
  6
CONTINUOUS
 10
468.2490777177
 20
81.3316730359
 11
474.0490777177
 21
81.3316730359
  0
LINE
  5
220
100
AcDbEntity
  8
BEZUGSACHSEN
100
AcDbLine
 62
7
  6
CONTINUOUS
 10
464.1490777177
 20
82.8316730359
 11
465.1490777177
 21
82.8316730359
  0
LINE
  5
221
100
AcDbEntity
  8
BEZUGSACHSEN
100
AcDbLine
 62
7
  6
CONTINUOUS
 10
467.2490777177
 20
82.8316730359
 11
468.2490777177
 21
82.8316730359
  0
LINE
  5
222
100
AcDbEntity
  8
BEZUGSACHSEN
100
AcDbLine
 62
7
  6
CONTINUOUS
 10
565.4490777177
 20
82.8316730359
 11
566.4490777177
 21
82.8316730359
  0
LINE
  5
223
100
AcDbEntity
  8
BEZUGSACHSEN
100
AcDbLine
 62
7
  6
CONTINUOUS
 10
568.5490777177
 20
82.8316730359
 11
569.5490777177
 21
82.8316730359
  0
LINE
  5
224
100
AcDbEntity
  8
0
100
AcDbLine
 62
7
  6
CONTINUOUS
 10
521.4490777177
 20
97.8316730359
 11
512.2490777177
 21
97.8316730359
  0
LINE
  5
225
100
AcDbEntity
  8
BEZUGSACHSEN
100
AcDbLine
 62
7
  6
CONTINUOUS
 10
464.1490777177
 20
102.8316730359
 11
465.1490777177
 21
102.8316730359
  0
LINE
  5
226
100
AcDbEntity
  8
BEZUGSACHSEN
100
AcDbLine
 62
7
  6
CONTINUOUS
 10
467.2490777177
 20
102.8316730359
 11
468.2490777177
 21
102.8316730359
  0
LINE
  5
227
100
AcDbEntity
  8
BEZUGSACHSEN
100
AcDbLine
 62
7
  6
CONTINUOUS
 10
565.4490777177
 20
102.8316730359
 11
566.4490777177
 21
102.8316730359
  0
LINE
  5
228
100
AcDbEntity
  8
BEZUGSACHSEN
100
AcDbLine
 62
7
  6
CONTINUOUS
 10
568.5490777177
 20
102.8316730359
 11
569.5490777177
 21
102.8316730359
  0
LINE
  5
229
100
AcDbEntity
  8
0
100
AcDbLine
 62
7
  6
CONTINUOUS
 10
433.3490777177
 20
115.3316730359
 11
431.8490777177
 21
116.8316730359
  0
LINE
  5
22A
100
AcDbEntity
  8
0
100
AcDbLine
 62
7
  6
CONTINUOUS
 10
572.0490777177
 20
109.3316730359
 11
569.5490777177
 21
109.3316730359
  0
LINE
  5
22B
100
AcDbEntity
  8
0
100
AcDbLine
 62
7
  6
CONTINUOUS
 10
565.4490777177
 20
109.3316730359
 11
559.6490777177
 21
109.3316730359
  0
LINE
  5
22C
100
AcDbEntity
  8
0
100
AcDbLine
 62
7
  6
CONTINUOUS
 10
461.6490777177
 20
109.3316730359
 11
464.1490777177
 21
109.3316730359
  0
LINE
  5
22D
100
AcDbEntity
  8
0
100
AcDbLine
 62
7
  6
CONTINUOUS
 10
468.2490777177
 20
109.3316730359
 11
474.0490777177
 21
109.3316730359
  0
LINE
  5
22E
100
AcDbEntity
  8
RUNDUNGEN
100
AcDbLine
 62
7
  6
CONTINUOUS
 10
463.6490777177
 20
111.3316730359
 11
471.3490777177
 21
111.3316730359
  0
LINE
  5
22F
100
AcDbEntity
  8
RUNDUNGEN
100
AcDbLine
 62
7
  6
CONTINUOUS
 10
562.3490777177
 20
111.3316730359
 11
570.0490777177
 21
111.3316730359
  0
LINE
  5
230
100
AcDbEntity
  8
0
100
AcDbLine
 62
7
  6
CONTINUOUS
 10
445.3490777177
 20
115.3316730359
 11
433.3490777177
 21
115.3316730359
  0
LINE
  5
231
100
AcDbEntity
  8
0
100
AcDbLine
 62
7
  6
CONTINUOUS
 10
610.3490777177
 20
125.3316730359
 11
586.8490777177
 21
125.3316730359
  0
LINE
  5
232
100
AcDbEntity
  8
0
100
AcDbLine
 62
7
  6
CONTINUOUS
 10
562.3490777177
 20
125.3316730359
 11
559.3490777177
 21
125.3316730359
  0
LINE
  5
233
100
AcDbEntity
  8
0
100
AcDbLine
 62
7
  6
CONTINUOUS
 10
474.3490777177
 20
125.3316730359
 11
471.3490777177
 21
125.3316730359
  0
LINE
  5
234
100
AcDbEntity
  8
0
100
AcDbLine
 62
7
  6
CONTINUOUS
 10
446.8490777177
 20
203.8316730359
 11
445.3490777177
 21
205.3316730359
  0
LINE
  5
235
100
AcDbEntity
  8
0
100
AcDbLine
 62
7
  6
CONTINUOUS
 10
586.8490777177
 20
183.3316730359
 11
598.8490777177
 21
183.3316730359
  0
LINE
  5
236
100
AcDbEntity
  8
0
100
AcDbLine
 62
7
  6
CONTINUOUS
 10
559.3490777177
 20
190.238191327
 11
536.474692368
 21
190.238191327
  0
LINE
  5
237
100
AcDbEntity
  8
0
100
AcDbLine
 62
7
  6
CONTINUOUS
 10
497.2234630673
 20
190.238191327
 11
474.3490777177
 21
190.238191327
  0
LINE
  5
238
100
AcDbEntity
  8
0
100
AcDbLine
 62
7
  6
CONTINUOUS
 10
559.3490777177
 20
193.7632833018
 11
536.474692368
 21
193.7632833018
  0
LINE
  5
239
100
AcDbEntity
  8
0
100
AcDbLine
 62
7
  6
CONTINUOUS
 10
497.2234630673
 20
193.7632833018
 11
474.3490777177
 21
193.7632833018
  0
LINE
  5
23A
100
AcDbEntity
  8
0
100
AcDbLine
 62
7
  6
CONTINUOUS
 10
610.3490777177
 20
195.3316730359
 11
598.8490777177
 21
195.3316730359
  0
LINE
  5
23B
100
AcDbEntity
  8
0
100
AcDbLine
 62
7
  6
CONTINUOUS
 10
562.3490777177
 20
195.3316730359
 11
559.3490777177
 21
195.3316730359
  0
LINE
  5
23C
100
AcDbEntity
  8
0
100
AcDbLine
 62
7
  6
CONTINUOUS
 10
474.3490777177
 20
195.3316730359
 11
471.3490777177
 21
195.3316730359
  0
LINE
  5
23D
100
AcDbEntity
  8
0
100
AcDbLine
 62
7
  6
CONTINUOUS
 10
431.8490777177
 20
203.8316730359
 11
431.8490777177
 21
116.8316730359
  0
LINE
  5
23E
100
AcDbEntity
  8
0
100
AcDbLine
 62
7
  6
CONTINUOUS
 10
433.3490777177
 20
205.3316730359
 11
433.3490777177
 21
115.3316730359
  0
LINE
  5
23F
100
AcDbEntity
  8
0
100
AcDbLine
 62
7
  6
CONTINUOUS
 10
445.3490777177
 20
205.3316730359
 11
433.3490777177
 21
205.3316730359
  0
LINE
  5
240
100
AcDbEntity
  8
0
100
AcDbLine
 62
7
  6
CONTINUOUS
 10
527.8480006921
 20
76.3316730359
 11
526.4490777177
 21
79.3316730359
  0
LINE
  5
241
100
AcDbEntity
  8
BEZUGSACHSEN
100
AcDbLine
 62
7
  6
CONTINUOUS
 10
466.1990777177
 20
88.7865189465
 11
467.2490777177
 21
82.8316730359
  0
LINE
  5
242
100
AcDbEntity
  8
BEZUGSACHSEN
100
AcDbLine
 62
7
  6
CONTINUOUS
 10
465.1490777177
 20
102.8316730359
 11
466.1990777177
 21
96.8768271253
  0
LINE
  5
243
100
AcDbEntity
  8
0
100
AcDbLine
 62
7
  6
CONTINUOUS
 10
445.3490777177
 20
205.3316730359
 11
445.3490777177
 21
115.3316730359
  0
LINE
  5
244
100
AcDbEntity
  8
RUNDUNGEN
100
AcDbLine
 62
7
  6
CONTINUOUS
 10
446.8490777177
 20
50.3316730359
 11
446.8490777177
 21
84.6813830764
  0
LINE
  5
245
100
AcDbEntity
  8
0
100
AcDbLine
 62
7
  6
CONTINUOUS
 10
446.8490777177
 20
84.6813830764
 11
446.8490777177
 21
337.3316730359
  0
LINE
  5
246
100
AcDbEntity
  8
0
100
AcDbLine
 62
7
  6
CONTINUOUS
 10
447.8490777177
 20
410.3316730359
 11
447.8490777177
 21
343.3316730359
  0
LINE
  5
247
100
AcDbEntity
  8
0
100
AcDbLine
 62
7
  6
CONTINUOUS
 10
449.8490777177
 20
296.6744839316
 11
449.8490777177
 21
97.7580799071
  0
LINE
  5
248
100
AcDbEntity
  8
0
100
AcDbLine
 62
7
  6
CONTINUOUS
 10
449.8490777177
 20
340.3316730359
 11
446.8490777177
 21
337.3316730359
  0
LINE
  5
249
100
AcDbEntity
  8
0
100
AcDbLine
 62
7
  6
CONTINUOUS
 10
521.4490777177
 20
222.8316730359
 11
512.2490777177
 21
222.8316730359
  0
LINE
  5
24A
100
AcDbEntity
  8
0
100
AcDbLine
 62
7
  6
CONTINUOUS
 10
586.8490777177
 20
223.3316730359
 11
596.8490777177
 21
223.3316730359
  0
LINE
  5
24B
100
AcDbEntity
  8
0
100
AcDbLine
 62
7
  6
CONTINUOUS
 10
461.6490777177
 20
50.3316730359
 11
461.6490777177
 21
97.7580799071
  0
LINE
  5
24C
100
AcDbEntity
  8
RUNDUNGEN
100
AcDbLine
 62
7
  6
CONTINUOUS
 10
461.6490777177
 20
97.7580799071
 11
461.6490777177
 21
109.3316730359
  0
LINE
  5
24D
100
AcDbEntity
  8
0
100
AcDbLine
 62
7
  6
CONTINUOUS
 10
464.1490777177
 20
109.3316730359
 11
464.1490777177
 21
81.3316730359
  0
LINE
  5
24E
100
AcDbEntity
  8
BEZUGSACHSEN
100
AcDbLine
 62
7
  6
CONTINUOUS
 10
465.1490777177
 20
82.8316730359
 11
465.1490777177
 21
102.8316730359
  0
LINE
  5
24F
100
AcDbEntity
  8
BEZUGSACHSEN
100
AcDbLine
 62
7
  6
CONTINUOUS
 10
466.1990777177
 20
88.7865189465
 11
466.1990777177
 21
96.8768271253
  0
LINE
  5
250
100
AcDbEntity
  8
BEZUGSACHSEN
100
AcDbLine
 62
7
  6
CONTINUOUS
 10
467.2490777177
 20
82.8316730359
 11
467.2490777177
 21
102.8316730359
  0
LINE
  5
251
100
AcDbEntity
  8
0
100
AcDbLine
 62
7
  6
CONTINUOUS
 10
468.2490777177
 20
109.3316730359
 11
468.2490777177
 21
81.3316730359
  0
LINE
  5
252
100
AcDbEntity
  8
0
100
AcDbLine
 62
7
  6
CONTINUOUS
 10
471.3490777177
 20
111.3316730359
 11
471.3490777177
 21
269.3316730359
  0
LINE
  5
253
100
AcDbEntity
  8
0
100
AcDbLine
 62
7
  6
CONTINUOUS
 10
474.0490777177
 20
109.3316730359
 11
474.0490777177
 21
81.3316730359
  0
LINE
  5
254
100
AcDbEntity
  8
0
100
AcDbLine
 62
7
  6
CONTINUOUS
 10
474.3490777177
 20
76.3316730359
 11
474.3490777177
 21
262.8316730359
  0
LINE
  5
255
100
AcDbEntity
  8
0
100
AcDbLine
 62
7
  6
CONTINUOUS
 10
476.8490777177
 20
542.5544442234
 11
476.8490777177
 21
422.3316730359
  0
LINE
  5
256
100
AcDbEntity
  8
0
100
AcDbLine
 62
7
  6
CONTINUOUS
 10
559.3490777177
 20
262.8149178249
 11
536.474692368
 21
262.8149178249
  0
LINE
  5
257
100
AcDbEntity
  8
0
100
AcDbLine
 62
7
  6
CONTINUOUS
 10
497.2234630673
 20
262.8149178249
 11
474.3490777177
 21
262.8149178249
  0
LINE
  5
258
100
AcDbEntity
  8
0
100
AcDbLine
 62
7
  6
CONTINUOUS
 10
559.3490777177
 20
262.8316730359
 11
536.474692368
 21
262.8316730359
  0
LINE
  5
259
100
AcDbEntity
  8
0
100
AcDbLine
 62
7
  6
CONTINUOUS
 10
497.2234630673
 20
262.8316730359
 11
474.3490777177
 21
262.8316730359
  0
LINE
  5
25A
100
AcDbEntity
  8
0
100
AcDbLine
 62
7
  6
CONTINUOUS
 10
507.2490777177
 20
241.3316730359
 11
497.2298806855
 21
262.8179104094
  0
LINE
  5
25B
100
AcDbEntity
  8
0
100
AcDbLine
 62
7
  6
CONTINUOUS
 10
497.2234630673
 20
76.3316730359
 11
497.2234630673
 21
78.5102996898
  0
LINE
  5
25C
100
AcDbEntity
  8
0
100
AcDbLine
 62
7
  6
CONTINUOUS
 10
497.2234630673
 20
190.238191327
 11
497.2234630673
 21
193.7632833018
  0
LINE
  5
25D
100
AcDbEntity
  8
0
100
AcDbLine
 62
7
  6
CONTINUOUS
 10
497.2234630673
 20
262.8149178249
 11
497.2234630673
 21
262.8316730359
  0
LINE
  5
25E
100
AcDbEntity
  8
FASEN
100
AcDbLine
 62
7
  6
CONTINUOUS
 10
503.3490777177
 20
296.8316730359
 11
503.3490777177
 21
288.3316730359
  0
LINE
  5
25F
100
AcDbEntity
  8
BEZUGSACHSEN
100
AcDbLine
 62
7
  6
CONTINUOUS
 10
466.1990777177
 20
96.8768271253
 11
467.2490777177
 21
102.8316730359
  0
LINE
  5
260
100
AcDbEntity
  8
BEZUGSACHSEN
100
AcDbLine
 62
7
  6
CONTINUOUS
 10
465.1490777177
 20
82.8316730359
 11
466.1990777177
 21
88.7865189465
  0
LINE
  5
261
100
AcDbEntity
  8
FASEN
100
AcDbLine
 62
7
  6
CONTINUOUS
 10
482.3490777177
 20
280.3316730359
 11
495.3490777177
 21
280.3316730359
  0
LINE
  5
262
100
AcDbEntity
  8
FASEN
100
AcDbLine
 62
7
  6
CONTINUOUS
 10
538.3490777177
 20
280.3316730359
 11
551.3490777177
 21
280.3316730359
  0
LINE
  5
263
100
AcDbEntity
  8
0
100
AcDbLine
 62
7
  6
CONTINUOUS
 10
447.8490777177
 20
343.3316730359
 11
450.8490777177
 21
340.3316730359
  0
LINE
  5
264
100
AcDbEntity
  8
0
100
AcDbLine
 62
7
  6
CONTINUOUS
 10
507.2490777177
 20
241.3316730359
 11
507.2490777177
 21
79.3316730359
  0
LINE
  5
265
100
AcDbEntity
  8
FASEN
100
AcDbLine
 62
7
  6
CONTINUOUS
 10
482.6211556563
 20
280.3316730359
 11
504.4417856487
 21
302.1523030283
  0
LINE
  5
266
100
AcDbEntity
  8
FASEN
100
AcDbLine
 62
7
  6
CONTINUOUS
 10
495.3490777177
 20
280.3316730359
 11
503.3490777177
 21
288.3316730359
  0
LINE
  5
267
100
AcDbEntity
  8
0
100
AcDbLine
 62
7
  6
CONTINUOUS
 10
611.8490777177
 20
193.8316730359
 11
610.3490777177
 21
195.3316730359
  0
LINE
  5
268
100
AcDbEntity
  8
FASEN
100
AcDbLine
 62
7
  6
CONTINUOUS
 10
530.3490777177
 20
288.3316730359
 11
538.3490777177
 21
280.3316730359
  0
LINE
  5
269
100
AcDbEntity
  8
0
100
AcDbLine
 62
7
  6
CONTINUOUS
 10
526.4490777177
 20
241.3316730359
 11
526.4490777177
 21
79.3316730359
  0
LINE
  5
26A
100
AcDbEntity
  8
FASEN
100
AcDbLine
 62
7
  6
CONTINUOUS
 10
530.3490777177
 20
288.3316730359
 11
530.3490777177
 21
296.8316730359
  0
LINE
  5
26B
100
AcDbEntity
  8
0
100
AcDbLine
 62
7
  6
CONTINUOUS
 10
536.474692368
 20
76.3316730359
 11
536.474692368
 21
78.5102996898
  0
LINE
  5
26C
100
AcDbEntity
  8
0
100
AcDbLine
 62
7
  6
CONTINUOUS
 10
536.474692368
 20
190.238191327
 11
536.474692368
 21
193.7632833018
  0
LINE
  5
26D
100
AcDbEntity
  8
0
100
AcDbLine
 62
7
  6
CONTINUOUS
 10
536.474692368
 20
262.8149178249
 11
536.474692368
 21
262.8316730359
  0
LINE
  5
26E
100
AcDbEntity
  8
0
100
AcDbLine
 62
7
  6
CONTINUOUS
 10
433.3490777177
 20
205.3316730359
 11
431.8490777177
 21
203.8316730359
  0
LINE
  5
26F
100
AcDbEntity
  8
0
100
AcDbLine
 62
7
  6
CONTINUOUS
 10
585.8490777177
 20
343.3316730359
 11
582.8490777177
 21
340.3316730359
  0
LINE
  5
270
100
AcDbEntity
  8
FASEN
100
AcDbLine
 62
7
  6
CONTINUOUS
 10
529.2563697866
 20
302.1523030283
 11
551.076999779
 21
280.3316730359
  0
LINE
  5
271
100
AcDbEntity
  8
BEZUGSACHSEN
100
AcDbLine
 62
7
  6
CONTINUOUS
 10
567.4990777177
 20
88.7865189465
 11
568.5490777177
 21
82.8316730359
  0
LINE
  5
272
100
AcDbEntity
  8
BEZUGSACHSEN
100
AcDbLine
 62
7
  6
CONTINUOUS
 10
566.4490777177
 20
102.8316730359
 11
567.4990777177
 21
96.8768271253
  0
LINE
  5
273
100
AcDbEntity
  8
0
100
AcDbLine
 62
7
  6
CONTINUOUS
 10
556.8490777177
 20
422.3316730359
 11
556.8490777177
 21
542.5544442234
  0
LINE
  5
274
100
AcDbEntity
  8
0
100
AcDbLine
 62
7
  6
CONTINUOUS
 10
559.3490777177
 20
76.3316730359
 11
559.3490777177
 21
262.8316730359
  0
LINE
  5
275
100
AcDbEntity
  8
0
100
AcDbLine
 62
7
  6
CONTINUOUS
 10
559.6490777177
 20
109.3316730359
 11
559.6490777177
 21
81.3316730359
  0
LINE
  5
276
100
AcDbEntity
  8
0
100
AcDbLine
 62
7
  6
CONTINUOUS
 10
536.4682747499
 20
262.8179104094
 11
526.4490777177
 21
241.3316730359
  0
LINE
  5
277
100
AcDbEntity
  8
0
100
AcDbLine
 62
7
  6
CONTINUOUS
 10
449.8490777177
 20
340.3316730359
 11
583.8490777177
 21
340.3316730359
  0
LINE
  5
278
100
AcDbEntity
  8
0
100
AcDbLine
 62
7
  6
CONTINUOUS
 10
562.3490777177
 20
269.3316730359
 11
562.3490777177
 21
111.3316730359
  0
LINE
  5
279
100
AcDbEntity
  8
0
100
AcDbLine
 62
7
  6
CONTINUOUS
 10
565.4490777177
 20
109.3316730359
 11
565.4490777177
 21
81.3316730359
  0
LINE
  5
27A
100
AcDbEntity
  8
BEZUGSACHSEN
100
AcDbLine
 62
7
  6
CONTINUOUS
 10
566.4490777177
 20
82.8316730359
 11
566.4490777177
 21
102.8316730359
  0
LINE
  5
27B
100
AcDbEntity
  8
BEZUGSACHSEN
100
AcDbLine
 62
7
  6
CONTINUOUS
 10
567.4990777177
 20
88.7865189465
 11
567.4990777177
 21
96.8768271253
  0
LINE
  5
27C
100
AcDbEntity
  8
BEZUGSACHSEN
100
AcDbLine
 62
7
  6
CONTINUOUS
 10
568.5490777177
 20
82.8316730359
 11
568.5490777177
 21
102.8316730359
  0
LINE
  5
27D
100
AcDbEntity
  8
0
100
AcDbLine
 62
7
  6
CONTINUOUS
 10
569.5490777177
 20
109.3316730359
 11
569.5490777177
 21
81.3316730359
  0
LINE
  5
27E
100
AcDbEntity
  8
0
100
AcDbLine
 62
7
  6
CONTINUOUS
 10
572.0490777177
 20
50.3316730359
 11
572.0490777177
 21
97.7580799071
  0
LINE
  5
27F
100
AcDbEntity
  8
RUNDUNGEN
100
AcDbLine
 62
7
  6
CONTINUOUS
 10
572.0490777177
 20
97.7580799071
 11
572.0490777177
 21
109.3316730359
  0
LINE
  5
280
100
AcDbEntity
  8
0
100
AcDbLine
 62
7
  6
CONTINUOUS
 10
447.8490777177
 20
343.3316730359
 11
585.8490777177
 21
343.3316730359
  0
LINE
  5
281
100
AcDbEntity
  8
0
100
AcDbLine
 62
7
  6
CONTINUOUS
 10
583.8490777177
 20
296.6744839316
 11
583.8490777177
 21
97.7580799071
  0
LINE
  5
282
100
AcDbEntity
  8
0
100
AcDbLine
 62
7
  6
CONTINUOUS
 10
585.8490777177
 20
410.3316730359
 11
585.8490777177
 21
343.3316730359
  0
LINE
  5
283
100
AcDbEntity
  8
0
100
AcDbLine
 62
7
  6
CONTINUOUS
 10
586.8490777177
 20
337.3316730359
 11
586.8490777177
 21
84.6813830764
  0
LINE
  5
284
100
AcDbEntity
  8
RUNDUNGEN
100
AcDbLine
 62
7
  6
CONTINUOUS
 10
586.8490777177
 20
84.6813830764
 11
586.8490777177
 21
50.3316730359
  0
LINE
  5
285
100
AcDbEntity
  8
0
100
AcDbLine
 62
7
  6
CONTINUOUS
 10
586.8490777177
 20
337.3316730359
 11
583.8490777177
 21
340.3316730359
  0
LINE
  5
286
100
AcDbEntity
  8
0
100
AcDbLine
 62
7
  6
CONTINUOUS
 10
596.8490777177
 20
223.3316730359
 11
596.8490777177
 21
183.3316730359
  0
LINE
  5
287
100
AcDbEntity
  8
0
100
AcDbLine
 62
7
  6
CONTINUOUS
 10
598.8490777177
 20
183.3316730359
 11
598.8490777177
 21
195.3316730359
  0
LINE
  5
288
100
AcDbEntity
  8
0
100
AcDbLine
 62
7
  6
CONTINUOUS
 10
610.3490777177
 20
195.3316730359
 11
610.3490777177
 21
125.3316730359
  0
LINE
  5
289
100
AcDbEntity
  8
0
100
AcDbLine
 62
7
  6
CONTINUOUS
 10
611.8490777177
 20
193.8316730359
 11
611.8490777177
 21
126.8316730359
  0
LINE
  5
28A
100
AcDbEntity
  8
BEZUGSACHSEN
100
AcDbLine
 62
7
  6
CONTINUOUS
 10
567.4990777177
 20
96.8768271253
 11
568.5490777177
 21
102.8316730359
  0
LINE
  5
28B
100
AcDbEntity
  8
BEZUGSACHSEN
100
AcDbLine
 62
7
  6
CONTINUOUS
 10
566.4490777177
 20
82.8316730359
 11
567.4990777177
 21
88.7865189465
  0
LINE
  5
28C
100
AcDbEntity
  8
0
100
AcDbLine
 62
7
  6
CONTINUOUS
 10
507.2490777177
 20
79.3316730359
 11
505.8501547432
 21
76.3316730359
  0
LINE
  5
28D
100
AcDbEntity
  8
0
100
AcDbLine
 62
7
  6
CONTINUOUS
 10
446.8490777177
 20
116.8316730359
 11
445.3490777177
 21
115.3316730359
  0
LINE
  5
28E
100
AcDbEntity
  8
0
100
AcDbLine
 62
7
  6
CONTINUOUS
 10
585.8490777177
 20
410.3316730359
 11
568.8490777177
 21
410.3316730359
  0
LINE
  5
28F
100
AcDbEntity
  8
0
100
AcDbLine
 62
7
  6
CONTINUOUS
 10
464.8490777177
 20
410.3316730359
 11
447.8490777177
 21
410.3316730359
  0
LINE
  5
290
100
AcDbEntity
  8
0
100
AcDbLine
 62
7
  6
CONTINUOUS
 10
611.8490777177
 20
126.8316730359
 11
610.3490777177
 21
125.3316730359
  0
LINE
  5
291
100
AcDbEntity
  8
RUNDUNGEN
100
AcDbLine
 62
7
  6
CONTINUOUS
 10
176.4958964925
 20
50.3316730359
 11
256.6430827502
 21
50.3316730359
  0
LINE
  5
292
100
AcDbEntity
  8
DEFAULT_2
100
AcDbLine
 62
8
  6
HIDDEN
 10
157.8306608962
 20
76.3316730359
 11
275.3083183465
 21
76.3316730359
  0
LINE
  5
293
100
AcDbEntity
  8
RUNDUNGEN
100
AcDbLine
 62
7
  6
CONTINUOUS
 10
137.8562861858
 20
76.5448764715
 11
155.2826930569
 21
59.1184696003
  0
LINE
  5
294
100
AcDbEntity
  8
0
100
AcDbLine
 62
7
  6
CONTINUOUS
 10
118.5294459468
 20
190.238191327
 11
129.0694896213
 21
157.7992724287
  0
LINE
  5
295
100
AcDbEntity
  8
DEFAULT_2
100
AcDbLine
 62
8
  6
HIDDEN
 10
129.0694896213
 20
157.7992724287
 11
154.8320385583
 21
78.5102996898
  0
LINE
  5
296
100
AcDbEntity
  8
0
100
AcDbLine
 62
7
  6
CONTINUOUS
 10
151.5694896213
 20
183.3316730359
 11
190.1876777048
 21
183.3316730359
  0
LINE
  5
297
100
AcDbEntity
  8
0
100
AcDbLine
 62
7
  6
CONTINUOUS
 10
242.9513015379
 20
183.3316730359
 11
281.5694896213
 21
183.3316730359
  0
LINE
  5
298
100
AcDbEntity
  8
0
100
AcDbLine
 62
7
  6
CONTINUOUS
 10
130.8999996896
 20
339.1720824589
 11
129.0694835438
 21
336.0015354903
  0
LINE
  5
299
100
AcDbEntity
  8
0
100
AcDbLine
 62
7
  6
CONTINUOUS
 10
129.0694896213
 20
97.7580799071
 11
129.0694896213
 21
336.0015460168
  0
LINE
  5
29A
100
AcDbEntity
  8
0
100
AcDbLine
 62
7
  6
CONTINUOUS
 10
132.0694896213
 20
297.5013942605
 11
132.0694896213
 21
84.6813830764
  0
LINE
  5
29B
100
AcDbEntity
  8
0
100
AcDbLine
 62
7
  6
CONTINUOUS
 10
146.5694896213
 20
218.3316730359
 11
146.5694896213
 21
188.3316730359
  0
LINE
  5
29C
100
AcDbEntity
  8
0
100
AcDbLine
 62
7
  6
CONTINUOUS
 10
130.8863421862
 20
339.1485256007
 11
132.0694896213
 21
340.3316730359
  0
LINE
  5
29D
100
AcDbEntity
  8
0
100
AcDbLine
 62
7
  6
CONTINUOUS
 10
281.5694896213
 20
223.3316730359
 11
151.5694896213
 21
223.3316730359
  0
LINE
  5
29E
100
AcDbEntity
  8
0
100
AcDbLine
 62
7
  6
CONTINUOUS
 10
147.5694896213
 20
486.3316730359
 11
147.5694896213
 21
343.3316730359
  0
LINE
  5
29F
100
AcDbEntity
  8
0
100
AcDbLine
 62
7
  6
CONTINUOUS
 10
160.3467184339
 20
486.3316730359
 11
160.3467184339
 21
422.3316730359
  0
LINE
  5
2A0
100
AcDbEntity
  8
DEFAULT_2
100
AcDbLine
 62
8
  6
HIDDEN
 10
129.0694896213
 20
280.3316730359
 11
304.0694896213
 21
280.3316730359
  0
LINE
  5
2A1
100
AcDbEntity
  8
0
100
AcDbLine
 62
7
  6
CONTINUOUS
 10
313.4641614822
 20
193.7632833018
 11
304.0694896213
 21
200.5889119454
  0
LINE
  5
2A2
100
AcDbEntity
  8
DEFAULT_2
100
AcDbLine
 62
8
  6
HIDDEN
 10
218.4227401456
 20
262.8149178249
 11
304.0694896213
 21
200.5889119454
  0
LINE
  5
2A3
100
AcDbEntity
  8
0
100
AcDbLine
 62
7
  6
CONTINUOUS
 10
147.5694896213
 20
343.3316730359
 11
150.5694896213
 21
340.3316730359
  0
LINE
  5
2A4
100
AcDbEntity
  8
0
100
AcDbLine
 62
7
  6
CONTINUOUS
 10
285.5694896213
 20
343.3316730359
 11
282.5694896213
 21
340.3316730359
  0
LINE
  5
2A5
100
AcDbEntity
  8
DEFAULT_2
100
AcDbLine
 62
8
  6
HIDDEN
 10
129.0694896213
 20
310.3316730359
 11
304.0694896213
 21
310.3316730359
  0
LINE
  5
2A6
100
AcDbEntity
  8
0
100
AcDbLine
 62
7
  6
CONTINUOUS
 10
129.0694896213
 20
200.5889119454
 11
119.6748177605
 21
193.7632833018
  0
LINE
  5
2A7
100
AcDbEntity
  8
DEFAULT_2
100
AcDbLine
 62
8
  6
HIDDEN
 10
129.0694896213
 20
200.5889119454
 11
214.7162390971
 21
262.8149178249
  0
LINE
  5
2A8
100
AcDbEntity
  8
0
100
AcDbLine
 62
7
  6
CONTINUOUS
 10
165.3596405951
 20
337.3316730359
 11
267.7793386476
 21
337.3316730359
  0
LINE
  5
2A9
100
AcDbEntity
  8
0
100
AcDbLine
 62
7
  6
CONTINUOUS
 10
132.0694896213
 20
340.3316730359
 11
301.0694896213
 21
340.3316730359
  0
LINE
  5
2AA
100
AcDbEntity
  8
0
100
AcDbLine
 62
7
  6
CONTINUOUS
 10
272.7922608088
 20
486.3316730359
 11
272.7922608088
 21
422.3316730359
  0
LINE
  5
2AB
100
AcDbEntity
  8
0
100
AcDbLine
 62
7
  6
CONTINUOUS
 10
147.5694896213
 20
343.3316730359
 11
285.5694896213
 21
343.3316730359
  0
LINE
  5
2AC
100
AcDbEntity
  8
0
100
AcDbLine
 62
7
  6
CONTINUOUS
 10
285.5694896213
 20
486.3316730359
 11
285.5694896213
 21
343.3316730359
  0
LINE
  5
2AD
100
AcDbEntity
  8
0
100
AcDbLine
 62
7
  6
CONTINUOUS
 10
286.5694896213
 20
188.3316730359
 11
286.5694896213
 21
218.3316730359
  0
LINE
  5
2AE
100
AcDbEntity
  8
0
100
AcDbLine
 62
7
  6
CONTINUOUS
 10
301.0694896213
 20
297.5013942605
 11
301.0694896213
 21
84.6813830764
  0
LINE
  5
2AF
100
AcDbEntity
  8
0
100
AcDbLine
 62
7
  6
CONTINUOUS
 10
304.0694896213
 20
336.0015460168
 11
304.0694896213
 21
97.7580799071
  0
LINE
  5
2B0
100
AcDbEntity
  8
0
100
AcDbLine
 62
7
  6
CONTINUOUS
 10
301.0694896213
 20
340.3316730359
 11
302.2526370565
 21
339.1485256007
  0
LINE
  5
2B1
100
AcDbEntity
  8
0
100
AcDbLine
 62
7
  6
CONTINUOUS
 10
302.2389795531
 20
339.1720824589
 11
304.0694956989
 21
336.0015354903
  0
LINE
  5
2B2
100
AcDbEntity
  8
0
100
AcDbLine
 62
7
  6
CONTINUOUS
 10
261.9236515031
 20
410.3316730359
 11
171.2153277396
 21
410.3316730359
  0
LINE
  5
2B3
100
AcDbEntity
  8
DEFAULT_2
100
AcDbLine
 62
8
  6
HIDDEN
 10
304.0694896213
 20
157.7992724287
 11
278.3069406844
 21
78.5102996898
  0
LINE
  5
2B4
100
AcDbEntity
  8
0
100
AcDbLine
 62
7
  6
CONTINUOUS
 10
304.0694896213
 20
157.7992724287
 11
314.6095332959
 21
190.238191327
  0
LINE
  5
2B5
100
AcDbEntity
  8
RUNDUNGEN
100
AcDbLine
 62
7
  6
CONTINUOUS
 10
277.8562861858
 20
59.1184696003
 11
295.2826930569
 21
76.5448764715
  0
ARC
  5
2B6
100
AcDbEntity
  8
0
100
AcDbCircle
 62
7
  6
CONTINUOUS
 10
516.8490777177
 20
486.3316730359
 40
69.0
100
AcDbArc
 50
54.5698416399
 51
125.4301583601
  0
ARC
  5
2B7
100
AcDbEntity
  8
0
100
AcDbCircle
 62
7
  6
CONTINUOUS
 10
438.7498762435
 20
262.2623922174
 40
36.1577699743
100
AcDbArc
 50
72.12352522
 51
77.0561444599
  0
ARC
  5
2B8
100
AcDbEntity
  8
0
100
AcDbCircle
 62
7
  6
CONTINUOUS
 10
594.8136271509
 20
262.750904827
 40
35.6515155855
100
AcDbArc
 50
102.9088116348
 51
107.9115186854
  0
ARC
  5
2B9
100
AcDbEntity
  8
FASEN
100
AcDbCircle
 62
7
  6
CONTINUOUS
 10
516.8490777177
 20
296.8316730359
 40
13.5
100
AcDbArc
 50
0.0
 51
180.0
  0
ARC
  5
2BA
100
AcDbEntity
  8
0
100
AcDbCircle
 62
7
  6
CONTINUOUS
 10
568.8490777177
 20
422.3316730359
 40
12.0
100
AcDbArc
 50
180.0
 51
270.0
  0
ARC
  5
2BB
100
AcDbEntity
  8
0
100
AcDbCircle
 62
7
  6
CONTINUOUS
 10
464.8490777177
 20
422.3316730359
 40
12.0
100
AcDbArc
 50
270.0
 51
360.0
  0
ARC
  5
2BC
100
AcDbEntity
  8
0
100
AcDbCircle
 62
7
  6
CONTINUOUS
 10
551.3490777177
 20
269.3316730359
 40
11.0
100
AcDbArc
 50
0.0
 51
90.0
  0
ARC
  5
2BD
100
AcDbEntity
  8
0
100
AcDbCircle
 62
7
  6
CONTINUOUS
 10
482.3490777177
 20
269.3316730359
 40
11.0
100
AcDbArc
 50
90.0
 51
180.0
  0
ARC
  5
2BE
100
AcDbEntity
  8
RUNDUNGEN
100
AcDbCircle
 62
7
  6
CONTINUOUS
 10
512.2490777177
 20
92.8316730359
 40
5.0
100
AcDbArc
 50
90.0
 51
180.0
  0
ARC
  5
2BF
100
AcDbEntity
  8
RUNDUNGEN
100
AcDbCircle
 62
7
  6
CONTINUOUS
 10
512.2490777177
 20
227.8316730359
 40
5.0
100
AcDbArc
 50
180.0
 51
270.0
  0
ARC
  5
2C0
100
AcDbEntity
  8
RUNDUNGEN
100
AcDbCircle
 62
7
  6
CONTINUOUS
 10
521.4490777177
 20
92.8316730359
 40
5.0
100
AcDbArc
 50
0.0
 51
90.0
  0
ARC
  5
2C1
100
AcDbEntity
  8
RUNDUNGEN
100
AcDbCircle
 62
7
  6
CONTINUOUS
 10
521.4490777177
 20
227.8316730359
 40
5.0
100
AcDbArc
 50
270.0
 51
360.0
  0
ARC
  5
2C2
100
AcDbEntity
  8
RUNDUNGEN
100
AcDbCircle
 62
7
  6
CONTINUOUS
 10
463.6490777177
 20
109.3316730359
 40
2.0
100
AcDbArc
 50
90.0
 51
180.0
  0
ARC
  5
2C3
100
AcDbEntity
  8
RUNDUNGEN
100
AcDbCircle
 62
7
  6
CONTINUOUS
 10
570.0490777177
 20
109.3316730359
 40
2.0
100
AcDbArc
 50
0.0
 51
90.0
  0
ARC
  5
2C4
100
AcDbEntity
  8
0
100
AcDbCircle
 62
7
  6
CONTINUOUS
 10
140.0340390546
 20
262.750904827
 40
35.6515155855
100
AcDbArc
 50
102.9088116348
 51
107.9115186854
  0
ARC
  5
2C5
100
AcDbEntity
  8
RUNDUNGEN
100
AcDbCircle
 62
7
  6
CONTINUOUS
 10
159.0694896213
 20
97.7580799071
 40
30.0
100
AcDbArc
 50
180.0
 51
225.0
  0
ARC
  5
2C6
100
AcDbEntity
  8
RUNDUNGEN
100
AcDbCircle
 62
7
  6
CONTINUOUS
 10
176.4958964925
 20
80.3316730359
 40
30.0
100
AcDbArc
 50
225.0
 51
270.0
  0
ARC
  5
2C7
100
AcDbEntity
  8
0
100
AcDbCircle
 62
7
  6
CONTINUOUS
 10
151.5694896213
 20
218.3316730359
 40
5.0
100
AcDbArc
 50
90.0
 51
180.0
  0
ARC
  5
2C8
100
AcDbEntity
  8
0
100
AcDbCircle
 62
7
  6
CONTINUOUS
 10
151.5694896213
 20
188.3316730359
 40
5.0
100
AcDbArc
 50
180.0
 51
270.0
  0
ARC
  5
2C9
100
AcDbEntity
  8
DEFAULT_2
100
AcDbCircle
 62
8
  6
HIDDEN
 10
216.5694896213
 20
160.3316730359
 40
102.5
100
AcDbArc
 50
304.9640076139
 51
307.0359923861
  0
ARC
  5
2CA
100
AcDbEntity
  8
DEFAULT_2
100
AcDbCircle
 62
8
  6
HIDDEN
 10
216.5694896213
 20
160.3316730359
 40
102.5
100
AcDbArc
 50
232.9640076139
 51
235.0359923861
  0
ARC
  5
2CB
100
AcDbEntity
  8
DEFAULT_2
100
AcDbCircle
 62
8
  6
HIDDEN
 10
216.5694896213
 20
160.3316730359
 40
102.5
100
AcDbArc
 50
88.9640076139
 51
91.0359923861
  0
ARC
  5
2CC
100
AcDbEntity
  8
0
100
AcDbCircle
 62
7
  6
CONTINUOUS
 10
216.5694896213
 20
160.3316730359
 40
102.5
100
AcDbArc
 50
160.9640076139
 51
163.0359923861
  0
ARC
  5
2CD
100
AcDbEntity
  8
0
100
AcDbCircle
 62
7
  6
CONTINUOUS
 10
216.5694896213
 20
160.3316730359
 40
102.5
100
AcDbArc
 50
16.9640076139
 51
19.0359923861
  0
CIRCLE
  5
2CE
100
AcDbEntity
  8
RUNDUNGEN
100
AcDbCircle
 62
8
  6
HIDDEN
 10
216.5694896213
 20
160.3316730359
 40
62.5
  0
ARC
  5
2CF
100
AcDbEntity
  8
0
100
AcDbCircle
 62
7
  6
CONTINUOUS
 10
292.9702881472
 20
262.2623922173
 40
36.1577699744
100
AcDbArc
 50
72.12352522
 51
77.0561444599
  0
ARC
  5
2D0
100
AcDbEntity
  8
0
100
AcDbCircle
 62
7
  6
CONTINUOUS
 10
216.5694896213
 20
160.3316730359
 40
35.5
100
AcDbArc
 50
0.0
 51
40.3825038923
  0
ARC
  5
2D1
100
AcDbEntity
  8
BEZUGSACHSEN
100
AcDbCircle
 62
7
  6
CONTINUOUS
 10
216.5694896213
 20
160.3316730359
 40
35.5
100
AcDbArc
 50
180.0
 51
360.0
  0
ARC
  5
2D2
100
AcDbEntity
  8
0
100
AcDbCircle
 62
7
  6
CONTINUOUS
 10
216.5694896213
 20
160.3316730359
 40
35.5
100
AcDbArc
 50
139.6174961077
 51
180.0
  0
CIRCLE
  5
2D3
100
AcDbEntity
  8
0
100
AcDbCircle
 62
7
  6
CONTINUOUS
 10
216.5694896213
 20
160.3316730359
 40
35.0
  0
CIRCLE
  5
2D4
100
AcDbEntity
  8
0
100
AcDbCircle
 62
7
  6
CONTINUOUS
 10
216.5694896213
 20
160.3316730359
 40
33.5
  0
ARC
  5
2D5
100
AcDbEntity
  8
RUNDUNGEN
100
AcDbCircle
 62
7
  6
CONTINUOUS
 10
256.6430827502
 20
80.3316730359
 40
30.0
100
AcDbArc
 50
270.0
 51
315.0
  0
ARC
  5
2D6
100
AcDbEntity
  8
RUNDUNGEN
100
AcDbCircle
 62
7
  6
CONTINUOUS
 10
274.0694896213
 20
97.7580799071
 40
30.0
100
AcDbArc
 50
315.0
 51
360.0
  0
ARC
  5
2D7
100
AcDbEntity
  8
0
100
AcDbCircle
 62
7
  6
CONTINUOUS
 10
281.5694896213
 20
188.3316730359
 40
5.0
100
AcDbArc
 50
270.0
 51
360.0
  0
ARC
  5
2D8
100
AcDbEntity
  8
0
100
AcDbCircle
 62
7
  6
CONTINUOUS
 10
281.5694896213
 20
218.3316730359
 40
5.0
100
AcDbArc
 50
0.0
 51
90.0
  0
ARC
  5
2D9
100
AcDbEntity
  8
0
100
AcDbCircle
 62
7
  6
CONTINUOUS
 10
216.5694896213
 20
486.3316730359
 40
69.0
100
AcDbArc
 50
0.0
 51
180.0
  0
ARC
  5
2DA
100
AcDbEntity
  8
0
100
AcDbCircle
 62
7
  6
CONTINUOUS
 10
216.5694896213
 20
486.3316730359
 40
56.2227711875
100
AcDbArc
 50
0.0
 51
180.0
  0
CIRCLE
  5
2DB
100
AcDbEntity
  8
FASEN
100
AcDbCircle
 62
7
  6
CONTINUOUS
 10
216.5694896213
 20
485.3316730359
 40
37.5
  0
CIRCLE
  5
2DC
100
AcDbEntity
  8
FASEN
100
AcDbCircle
 62
7
  6
CONTINUOUS
 10
216.5694896213
 20
485.3316730359
 40
34.5
  0
SPLINE
  5
2DD
100
AcDbEntity
  8
0
100
AcDbSpline
 62
7
  6
CONTINUOUS
 70
0
 71
3
 72
15
 73
11
 74
0
 42
0.0000001
 43
0.0000001
 44
0.0000000001
 40
0.0
 40
0.0
 40
0.0
 40
0.0
 40
0.1283186703
 40
0.2541914023
 40
0.3778040053
 40
0.5000000008
 40
0.6221959963
 40
0.7458085991
 40
0.8716813305
 40
1.0
 40
1.0
 40
1.0
 40
1.0
 10
497.2234630673
 20
193.7632833018
 30
0.0
 10
498.492665351
 20
196.5550271342
 30
0.0
 10
500.8398711611
 20
202.1645712692
 30
0.0
 10
503.6252257698
 20
210.7674468473
 30
0.0
 10
505.4298529435
 20
219.4875896125
 30
0.0
 10
506.0590945418
 20
228.2891006194
 30
0.0
 10
505.4298529071
 20
237.0906116173
 30
0.0
 10
503.6252257472
 20
245.8107543677
 30
0.0
 10
500.8398711393
 20
254.4136299066
 30
0.0
 10
498.4926653429
 20
260.0231740105
 30
0.0
 10
497.2234630673
 20
262.8149178249
 30
0.0
  0
SPLINE
  5
2DE
100
AcDbEntity
  8
0
100
AcDbSpline
 62
7
  6
CONTINUOUS
 70
0
 71
3
 72
15
 73
11
 74
0
 42
0.0000001
 43
0.0000001
 44
0.0000000001
 40
0.0
 40
0.0
 40
0.0
 40
0.0
 40
0.125204606
 40
0.2502580713
 40
0.3751724769
 40
0.5000000008
 40
0.6248275246
 40
0.7497419298
 40
0.8747953944
 40
1.0
 40
1.0
 40
1.0
 40
1.0
 10
536.474692368
 20
78.5102996898
 30
0.0
 10
535.1945577299
 20
83.0663447395
 30
0.0
 10
532.8291339785
 20
92.2294508747
 30
0.0
 10
530.0531140695
 20
106.1450702777
 30
0.0
 10
528.262613986
 20
120.2121786691
 30
0.0
 10
527.6407661562
 20
134.3742455957
 30
0.0
 10
528.2626140181
 20
148.5363125042
 30
0.0
 10
530.0531140868
 20
162.6034208509
 30
0.0
 10
532.8291339938
 20
176.5190401961
 30
0.0
 10
535.1945577338
 20
185.6821462908
 30
0.0
 10
536.474692368
 20
190.238191327
 30
0.0
  0
SPLINE
  5
2DF
100
AcDbEntity
  8
0
100
AcDbSpline
 62
7
  6
CONTINUOUS
 70
0
 71
3
 72
15
 73
11
 74
0
 42
0.0000001
 43
0.0000001
 44
0.0000000001
 40
0.0
 40
0.0
 40
0.0
 40
0.0
 40
0.125204606
 40
0.2502580713
 40
0.3751724769
 40
0.5000000008
 40
0.6248275246
 40
0.7497419298
 40
0.8747953944
 40
1.0
 40
1.0
 40
1.0
 40
1.0
 10
497.2234630673
 20
78.5102996898
 30
0.0
 10
498.5035977054
 20
83.0663447395
 30
0.0
 10
500.8690214568
 20
92.2294508747
 30
0.0
 10
503.6450413659
 20
106.1450702777
 30
0.0
 10
505.4355414494
 20
120.2121786691
 30
0.0
 10
506.0573892792
 20
134.3742455957
 30
0.0
 10
505.4355414172
 20
148.5363125042
 30
0.0
 10
503.6450413485
 20
162.6034208509
 30
0.0
 10
500.8690214416
 20
176.5190401961
 30
0.0
 10
498.5035977016
 20
185.6821462908
 30
0.0
 10
497.2234630673
 20
190.238191327
 30
0.0
  0
SPLINE
  5
2E0
100
AcDbEntity
  8
0
100
AcDbSpline
 62
7
  6
CONTINUOUS
 70
0
 71
3
 72
27
 73
23
 74
0
 42
0.0000001
 43
0.0000001
 44
0.0000000001
 40
0.0
 40
0.0
 40
0.0
 40
0.0
 40
0.0625097505
 40
0.125018459
 40
0.1875247334
 40
0.2500260325
 40
0.3125179143
 40
0.3749929038
 40
0.406246212
 40
0.4374983643
 40
0.4687494784
 40
0.4999999993
 40
0.5312505205
 40
0.5625016348
 40
0.5937537873
 40
0.6250070955
 40
0.687482085
 40
0.7499739669
 40
0.812475266
 40
0.8749815405
 40
0.9374902492
 40
1.0
 40
1.0
 40
1.0
 40
1.0
 10
583.8490777177
 20
296.6744839316
 30
0.0
 10
581.5595383313
 20
299.0853901639
 30
0.0
 10
576.9026076662
 20
303.8342447508
 30
0.0
 10
569.6364681529
 20
310.6719187798
 30
0.0
 10
562.0296002981
 20
317.1310475693
 30
0.0
 10
554.0096619084
 20
323.0750879059
 30
0.0
 10
545.5003549035
 20
328.3019968386
 30
0.0
 10
537.9410941563
 20
331.8178010728
 30
0.0
 10
531.6301893567
 20
333.9271263288
 30
0.0
 10
526.7781364195
 20
335.1067158774
 30
0.0
 10
521.8376379151
 20
335.8366502035
 30
0.0
 10
516.8490778141
 20
336.0839931395
 30
0.0
 10
511.8605177014
 20
335.8366502104
 30
0.0
 10
506.9200191591
 20
335.106715902
 30
0.0
 10
502.0679661945
 20
333.927126363
 30
0.0
 10
495.7570613782
 20
331.8178011144
 30
0.0
 10
488.1978006284
 20
328.3019968818
 30
0.0
 10
479.688493601
 20
323.0750879731
 30
0.0
 10
471.6685552171
 20
317.1310476125
 30
0.0
 10
464.061687332
 20
310.6719188292
 30
0.0
 10
456.7955477895
 20
303.8342447887
 30
0.0
 10
452.1386171154
 20
299.0853901759
 30
0.0
 10
449.8490777177
 20
296.6744839316
 30
0.0
  0
SPLINE
  5
2E1
100
AcDbEntity
  8
0
100
AcDbSpline
 62
7
  6
CONTINUOUS
 70
0
 71
3
 72
15
 73
11
 74
0
 42
0.0000001
 43
0.0000001
 44
0.0000000001
 40
0.0
 40
0.0
 40
0.0
 40
0.0
 40
0.1283186703
 40
0.2541914023
 40
0.3778040053
 40
0.5000000008
 40
0.6221959963
 40
0.7458085991
 40
0.8716813305
 40
1.0
 40
1.0
 40
1.0
 40
1.0
 10
536.474692368
 20
193.7632833018
 30
0.0
 10
535.2054900843
 20
196.5550271342
 30
0.0
 10
532.8582842742
 20
202.1645712692
 30
0.0
 10
530.0729296656
 20
210.7674468473
 30
0.0
 10
528.2683024919
 20
219.4875896125
 30
0.0
 10
527.6390608935
 20
228.2891006194
 30
0.0
 10
528.2683025283
 20
237.0906116173
 30
0.0
 10
530.0729296882
 20
245.8107543677
 30
0.0
 10
532.858284296
 20
254.4136299066
 30
0.0
 10
535.2054900925
 20
260.0231740105
 30
0.0
 10
536.474692368
 20
262.8149178249
 30
0.0
  0
SPLINE
  5
2E2
100
AcDbEntity
  8
0
100
AcDbSpline
 62
7
  6
CONTINUOUS
 70
0
 71
3
 72
15
 73
11
 74
0
 42
0.0000001
 43
0.0000001
 44
0.0000000001
 40
0.0
 40
0.0
 40
0.0
 40
0.0
 40
0.1521029504
 40
0.296738358
 40
0.4297106787
 40
0.5512752682
 40
0.6649756865
 40
0.7753700581
 40
0.8862464321
 40
1.0
 40
1.0
 40
1.0
 40
1.0
 10
272.7922608088
 20
422.3316730359
 30
0.0
 10
272.7922608088
 20
421.4052542347
 30
0.0
 10
272.6446153837
 20
419.5940070971
 30
0.0
 10
271.9868508137
 20
417.0465310515
 30
0.0
 10
270.9291882353
 20
414.8376591956
 30
0.0
 10
269.5262364141
 20
413.0617956384
 30
0.0
 10
267.8516760596
 20
411.7531917065
 30
0.0
 10
265.9845808968
 20
410.891328208
 30
0.0
 10
263.9874859611
 20
410.4215605009
 30
0.0
 10
262.6164943682
 20
410.3316730359
 30
0.0
 10
261.9236515031
 20
410.3316730359
 30
0.0
  0
SPLINE
  5
2E3
100
AcDbEntity
  8
0
100
AcDbSpline
 62
7
  6
CONTINUOUS
 70
0
 71
3
 72
15
 73
11
 74
0
 42
0.0000001
 43
0.0000001
 44
0.0000000001
 40
0.0
 40
0.0
 40
0.0
 40
0.0
 40
0.113753568
 40
0.2246299429
 40
0.3350243111
 40
0.4487247196
 40
0.5702893001
 40
0.7032616094
 40
0.84789699
 40
1.0
 40
1.0
 40
1.0
 40
1.0
 10
171.2153277396
 20
410.3316730359
 30
0.0
 10
170.5224848735
 20
410.3316730359
 30
0.0
 10
169.1514932744
 20
410.4215605005
 30
0.0
 10
167.154398353
 20
410.8913282076
 30
0.0
 10
165.2873032594
 20
411.753191672
 30
0.0
 10
163.6127429934
 20
413.0617954894
 30
0.0
 10
162.2097912263
 20
414.8376588513
 30
0.0
 10
161.1521286915
 20
417.0465304054
 30
0.0
 10
160.4943639353
 20
419.5940065299
 30
0.0
 10
160.3467184339
 20
421.4052538718
 30
0.0
 10
160.3467184339
 20
422.3316730359
 30
0.0
  0
SPLINE
  5
2E4
100
AcDbEntity
  8
0
100
AcDbSpline
 62
7
  6
CONTINUOUS
 70
0
 71
3
 72
11
 73
7
 74
0
 42
0.0000001
 43
0.0000001
 44
0.0000000001
 40
0.0
 40
0.0
 40
0.0
 40
0.0
 40
0.2499909036
 40
0.4999906987
 40
0.7499946445
 40
1.0
 40
1.0
 40
1.0
 40
1.0
 10
165.3596405951
 20
337.3316730359
 30
0.0
 10
162.3334459185
 20
334.2368817148
 30
0.0
 10
156.4568980056
 20
327.8742230905
 30
0.0
 10
148.0388022854
 20
317.9837292847
 30
0.0
 10
139.9214240395
 20
307.8454740906
 30
0.0
 10
134.6661016131
 20
300.9648260788
 30
0.0
 10
132.0694896213
 20
297.5013942605
 30
0.0
  0
SPLINE
  5
2E5
100
AcDbEntity
  8
0
100
AcDbSpline
 62
7
  6
CONTINUOUS
 70
0
 71
3
 72
11
 73
7
 74
0
 42
0.0000001
 43
0.0000001
 44
0.0000000001
 40
0.0
 40
0.0
 40
0.0
 40
0.0
 40
0.2500053622
 40
0.5000093026
 40
0.7500091051
 40
1.0
 40
1.0
 40
1.0
 40
1.0
 10
301.0694896213
 20
297.5013942605
 30
0.0
 10
298.4728775594
 20
300.9648261724
 30
0.0
 10
293.2175550792
 20
307.8454741721
 30
0.0
 10
285.1001767878
 20
317.9837295223
 30
0.0
 10
276.6820812138
 20
327.8742233047
 30
0.0
 10
270.8055332185
 20
334.2368818229
 30
0.0
 10
267.7793386476
 20
337.3316730359
 30
0.0
  0
ELLIPSE
  5
2E6
100
AcDbEntity
  8
RUNDUNGEN
100
AcDbEllipse
 62
7
  6
CONTINUOUS
 10
613.8490777177
 20
97.7580799071
 30
0.0
 11
30.0
 21
-0.0
 31
0.0
 40
1.0
 41
-3.1415926536
 42
-2.6905658418
  0
ELLIPSE
  5
2E7
100
AcDbEntity
  8
RUNDUNGEN
100
AcDbEllipse
 62
7
  6
CONTINUOUS
 10
419.8490777177
 20
97.7580799071
 30
0.0
 11
30.0
 21
-0.0
 31
0.0
 40
1.0
 41
-0.4510268118
 42
0.0
  0
ELLIPSE
  5
2E8
100
AcDbEntity
  8
0
100
AcDbEllipse
 62
7
  6
CONTINUOUS
 10
516.8490777177
 20
393.4695137142
 30
0.0
 11
0.0
 21
54.3208533802
 31
0.0
 40
0.8164965809
 41
-3.3506751883
 42
-2.9325101189
  0
ELLIPSE
  5
2E9
100
AcDbEntity
  8
0
100
AcDbEllipse
 62
7
  6
CONTINUOUS
 10
216.5694896213
 20
367.2195137142
 30
0.0
 11
0.0
 21
69.4762979464
 31
0.0
 40
0.8164965809
 41
-4.315005119
 42
-4.2676884209
  0
ELLIPSE
  5
2EA
100
AcDbEntity
  8
0
100
AcDbEllipse
 62
7
  6
CONTINUOUS
 10
216.5694896213
 20
367.2195137142
 30
0.0
 11
-0.0
 21
69.4762979464
 31
0.0
 40
0.8164965809
 41
-2.0154968863
 42
-1.9681801882
  0
ENDSEC
  0
SECTION
  2
OBJECTS
  0
DICTIONARY
  5
C
100
AcDbDictionary
280
0
281
1
  3
ACAD_GROUP
350
D
  3
ACAD_MLINESTYLE
350
17
  3
ACAD_LAYOUT
350
1A
  3
ACAD_PLOTSETTINGS
350
19
  3
ACAD_PLOTSTYLENAME
350
E
  0
DICTIONARY
  5
D
102
{ACAD_REACTORS
330
C
102
}
100
AcDbDictionary
280
0
281
1
  0
ACDBDICTIONARYWDFLT
  5
E
102
{ACAD_REACTORS
330
C
102
}
100
AcDbDictionary
281
1
  3
Normal
350
F
100
AcDbDictionaryWithDefault
340
F
  0
DICTIONARY
  5
17
102
{ACAD_REACTORS
330
C
102
}
100
AcDbDictionary
280
0
281
1
  3
Standard
350
18
  0
DICTIONARY
  5
19
102
{ACAD_REACTORS
330
C
102
}
100
AcDbDictionary
281
1
  0
DICTIONARY
  5
1A
102
{ACAD_REACTORS
330
C
102
}
100
AcDbDictionary
281
1
  3
Model
350
2EB
  3
Layout1
350
2EC
  0
ACDBPLACEHOLDER
  5
F
102
{ACAD_REACTORS
330
E
102
}
  0
MLINESTYLE
  5
18
102
{ACAD_REACTORS
330
17
102
}
100
AcDbMlineStyle
  2
STANDARD
 70
0
  3

 62
256
 51
90.0
 52
90.0
 71
2
 49
0.5
 62
256
  6
BYLAYER
 49
-0.5
 62
256
  6
BYLAYER
  0
LAYOUT
  5
2EB
102
{ACAD_REACTORS
330
1A
102
}
100
AcDbPlotSettings
  1

  2
none_device
  4
ISO_A1_(594.00_x_841.00_MM)
  6

 40
0.0
 41
0.0
 42
0.0
 43
0.0
 44
841.0
 45
594.0
 46
0.0
 47
0.0
 48
0.0
 49
0.0
140
0.0
141
0.0
142
1.0
143
1.0
 70
1024
 72
1
 73
0
 74
0
  7

 75
0
147
1.0
148
0.0
149
0.0
100
AcDbLayout
  1
Model
 70
0
 71
0
 10
0.0
 20
0.0
 11
841.0
 21
594.0
 12
0.0
 22
0.0
 32
0.0
 14
0.0
 24
0.0
 34
0.0
 15
0.0
 25
0.0
 35
0.0
146
0.0
 13
0.0
 23
0.0
 33
0.0
 16
1.0
 26
0.0
 36
0.0
 17
0.0
 27
1.0
 37
0.0
 76
0
330
20B
345
0
346
0
  0
LAYOUT
  5
2EC
102
{ACAD_REACTORS
330
1A
102
}
100
AcDbPlotSettings
  1

  2
none_device
  4
ISO_A1_(594.00_x_841.00_MM)
  6

 40
0.0
 41
0.0
 42
0.0
 43
0.0
 44
841.0
 45
594.0
 46
0.0
 47
0.0
 48
0.0
 49
0.0
140
0.0
141
0.0
142
1.0
143
1.0
 70
0
 72
1
 73
0
 74
0
  7

 75
0
147
1.0
148
0.0
149
0.0
100
AcDbLayout
  1
Layout1
 70
0
 71
1
 10
0.0
 20
0.0
 11
841.0
 21
594.0
 12
0.0
 22
0.0
 32
0.0
 14
0.0
 24
0.0
 34
0.0
 15
0.0
 25
0.0
 35
0.0
146
0.0
 13
0.0
 23
0.0
 33
0.0
 16
1.0
 26
0.0
 36
0.0
 17
0.0
 27
1.0
 37
0.0
 76
0
330
20C
345
0
346
0
  0
ENDSEC
  0
EOF
