999
DXF file: C:\Aktuell-Internet\CAD-Daten\2vcoeh6.dxf
999
Pro/ENGINEER 2001400 by Parametric Technology Corporation
0
SECTION
2
HEADER
9
$ACADVER
1
AC1014
9
$EXTMAX
10
420.0000000000
20
297.0000000000
9
$EXTMIN
10
0.0000000000
20
0.0000000000
9
$LIMMIN
10
0.0000000000
20
0.0000000000
9
$LIMMAX
10
420.0000000000
20
297.0000000000
9
$VIEWCTR
10
210.0000000000
20
148.5000000000
9
$VIEWSIZE
40
297.0000000000
9
$CLAYER
8
0
9
$LTSCALE
40
23.1000000000
9
$CELTYPE
6
BYLAYER
9
$DIMSCALE
40
1
9
$DIMASZ
40
3.5000000000
9
$DIMEXO
40
2.6250000000
9
$DIMDLI
40
15.9600000000
9
$DIMEXE
40
7.5600000000
9
$DIMCEN
40
3.7800000000
9
$DIMLFAC
40
1.0000000000
9
$DIMTXT
40
3.5000000000
9
$DIMTOL
70
1
9
$DIMTFAC
40
0.6000000000
9
$DIMTP
40
0.0050000000
9
$DIMTM
40
0.0050000000
9
$HANDSEED
5
482
0
ENDSEC
0
SECTION
2
CLASSES
0
ENDSEC
0
SECTION
2
TABLES
0
TABLE
2
VPORT
5
8
100
AcDbSymbolTable
70
2
0
VPORT
5
1F4
100
AcDbSymbolTableRecord
100
AcDbViewportTableRecord
2
*ACTIVE
70
0
10
0.0
20
0.0
11
1.0
21
1.0
12
210.0000000000
22
148.5000000000
13
0.0
23
0.0
14
1.0
24
1.0
15
0.0
25
0.0
16
0.0
26
0.0
36
1.0
17
0.0
27
0.0
37
0.0
40
297.0000000000
41
1.4141414141
42
50.0
43
0.0
44
0.0
50
0.0
51
0.0
71
0
72
100
73
1
74
1
75
0
76
0
77
0
78
0
0
ENDTAB
0
TABLE
2
LTYPE
5
5
100
AcDbSymbolTable
70
6
0
LTYPE
5
14
100
AcDbSymbolTableRecord
100
AcDbLinetypeTableRecord
2
BYBLOCK
70
0
3

72
65
73
0
40
0.0
0
LTYPE
5
15
100
AcDbSymbolTableRecord
100
AcDbLinetypeTableRecord
2
BYLAYER
70
0
3

72
65
73
0
40
0.0
0
LTYPE
5
16
100
AcDbSymbolTableRecord
100
AcDbLinetypeTableRecord
2
CONTINUOUS
70
64
3
Solid line
72
65
73
0
40
0
0
LTYPE
5
1F5
100
AcDbSymbolTableRecord
100
AcDbLinetypeTableRecord
2
CENTER
70
64
3
____ _ ____ _ ____ _ ____ _ ____ _ ____ _ ____
72
65
73
4
40
0.6
49
0.375
74
0
49
-0.075
74
0
49
0.075
74
0
49
-0.075
74
0
0
LTYPE
5
1F6
100
AcDbSymbolTableRecord
100
AcDbLinetypeTableRecord
2
HIDDEN
70
64
3
- - - - - - - - - - - - - - - - - - - -
72
65
73
2
40
0.2
49
0.1
74
0
49
-0.1
74
0
0
LTYPE
5
1F7
100
AcDbSymbolTableRecord
100
AcDbLinetypeTableRecord
2
PHANTOM
70
64
3
_____ _ _ _____ _ _ _____ _ _ _____
72
65
73
6
40
0.8
49
0.45
74
0
49
-0.05
74
0
49
0.1
74
0
49
-0.05
74
0
49
0.1
74
0
49
-0.05
74
0
0
LTYPE
5
1F8
100
AcDbSymbolTableRecord
100
AcDbLinetypeTableRecord
2
DOT
70
64
3
. . . . . . . . . . . . . . . . . . . .
72
65
73
2
40
0.2
49
0.1
74
0
49
-0.1
74
0
0
LTYPE
5
1F9
100
AcDbSymbolTableRecord
100
AcDbLinetypeTableRecord
2
DASHED
70
64
3
- - - - - - - - - - - - - - - - - - - -
72
65
73
2
40
0.2
49
0.1
74
0
49
-0.1
74
0
0
ENDTAB
0
TABLE
2
LAYER
5
2
100
AcDbSymbolTable
70
36
0
LAYER
5
10
100
AcDbSymbolTableRecord
100
AcDbLayerTableRecord
2
0
70
0
62
7
6
CONTINUOUS
0
LAYER
5
1FA
100
AcDbSymbolTableRecord
100
AcDbLayerTableRecord
2
DEFAULT_1
70
0
62
7
6
CENTER
0
LAYER
5
1FB
100
AcDbSymbolTableRecord
100
AcDbLayerTableRecord
2
DEFAULT_2
70
0
62
8
6
HIDDEN
0
LAYER
5
1FC
100
AcDbSymbolTableRecord
100
AcDbLayerTableRecord
2
DEFAULT_3
70
0
62
7
6
PHANTOM
0
LAYER
5
1FD
100
AcDbSymbolTableRecord
100
AcDbLayerTableRecord
2
ZEICHNUNGSBEMASSUNGEN
70
0
62
7
6
CONTINUOUS
0
ENDTAB
0
TABLE
2
STYLE
5
3
100
AcDbSymbolTable
70
1
0
STYLE
5
11
100
AcDbSymbolTableRecord
100
AcDbTextStyleTableRecord
2
STANDARD
70
0
40
0.0
41
1.0
50
0.0
71
0
42
0.0
3
txt
4

0
STYLE
5
1FE
100
AcDbSymbolTableRecord
100
AcDbTextStyleTableRecord
2
TEXTSTYLE_0
70
0
40
0.0
41
0.80
50
0.0
71
0
42
0.2
3
txt
4

0
ENDTAB
0
TABLE
2
VIEW
5
6
100
AcDbSymbolTable
70
0
0
ENDTAB
0
TABLE
2
UCS
5
7
100
AcDbSymbolTable
70
0
0
ENDTAB
0
TABLE
2
APPID
5
9
100
AcDbSymbolTable
70
1
0
APPID
5
1FF
100
AcDbSymbolTableRecord
100
AcDbRegAppTableRecord
2
ACAD
70
0
0
ENDTAB
0
TABLE
2
DIMSTYLE
5
A
100
AcDbSymbolTable
70
1
0
DIMSTYLE
105
200
100
AcDbSymbolTableRecord
100
AcDbDimStyleTableRecord
2
STANDARD
70
0
3

4

5

6

7

40
1.0
41
0.18
42
0.0625
43
0.38
44
0.18
45
0.0
46
0.0
47
0.0050000000
48
0.0050000000
140
3.5000000000
141
0.09
142
0.0
143
25.4
144
1.0000000000
145
0.0
146
0.6000000000
147
0.09
71
1
72
0
73
1
74
1
75
0
76
0
77
0
78
0
170
0
171
2
172
0
173
0
174
0
175
0
176
0
177
0
178
0
270
2
271
3
272
4
273
2
274
2
340
11
275
0
280
0
281
0
282
0
283
1
284
0
285
0
286
0
287
3
288
0
0
ENDTAB
0
TABLE
2
BLOCK_RECORD
5
1
100
AcDbSymbolTable
70
0
0
BLOCK_RECORD
5
1B
100
AcDbSymbolTableRecord
100
AcDbBlockTableRecord
2
*MODEL_SPACE
0
BLOCK_RECORD
5
1C
100
AcDbSymbolTableRecord
100
AcDbBlockTableRecord
2
*PAPER_SPACE
0
ENDTAB
0
ENDSEC
0
SECTION
2
BLOCKS
0
BLOCK
5
1E
100
AcDbEntity
8
0
100
AcDbBlockBegin
2
*MODEL_SPACE
70
0
10
0.0
20
0.0
30
0.0
3
*MODEL_SPACE
1

0
ENDBLK
5
1F
100
AcDbEntity
8
0
100
AcDbBlockEnd
0
BLOCK
5
20
100
AcDbEntity
8
0
100
AcDbBlockBegin
2
*PAPER_SPACE
70
0
10
0.0
20
0.0
30
0.0
3
*PAPER_SPACE
1

0
ENDBLK
5
21
100
AcDbEntity
8
0
100
AcDbBlockEnd
0
ENDSEC
0
SECTION
2
ENTITIES
0
TEXT
5
201
100
AcDbEntity
8
0
100
AcDbText
62
2
6
CONTINUOUS
10
106.7797818608
20
81.6355639224
7
TEXTSTYLE_0
40
5.0000000000
1
RUD
72
5
11
119.1607342417
21
81.6355639224
100
AcDbText
0
TEXT
5
202
100
AcDbEntity
8
0
100
AcDbText
62
2
6
CONTINUOUS
10
144.5070896633
20
99.8907128591
7
TEXTSTYLE_0
40
5.0000000000
1
VCÖH 6
50
90.0000000000
72
5
11
144.5070896633
21
123.5097604782
100
AcDbText
0
LINE
5
203
100
AcDbEntity
8
0
100
AcDbLine
62
7
6
CONTINUOUS
10
0.0000000000
20
0.0000000000
11
0.0000000000
21
297.0000000000
0
LINE
5
204
100
AcDbEntity
8
0
100
AcDbLine
62
7
6
CONTINUOUS
10
0.0000000000
20
0.0000000000
11
420.0000000000
21
0.0000000000
0
LINE
5
205
100
AcDbEntity
8
0
100
AcDbLine
62
7
6
CONTINUOUS
10
0.0000000000
20
297.0000000000
11
420.0000000000
21
297.0000000000
0
LINE
5
206
100
AcDbEntity
8
0
100
AcDbLine
62
7
6
CONTINUOUS
10
420.0000000000
20
0.0000000000
11
420.0000000000
21
297.0000000000
0
LINE
5
207
100
AcDbEntity
8
0
100
AcDbLine
62
7
6
CONTINUOUS
10
84.7996798210
20
98.8122963764
11
79.7847489199
21
114.4537976608
0
LINE
5
208
100
AcDbEntity
8
0
100
AcDbLine
62
7
6
CONTINUOUS
10
85.8008248806
20
119.4349717156
11
93.5300021209
21
117.3639449159
0
LINE
5
209
100
AcDbEntity
8
0
100
AcDbLine
62
7
6
CONTINUOUS
10
88.9883638771
20
143.5642928067
11
89.8881680945
21
147.4617730658
0
LINE
5
20A
100
AcDbEntity
8
0
100
AcDbLine
62
7
6
CONTINUOUS
10
84.7748175532
20
123.0907128181
11
90.5110694390
21
147.9371494702
0
LINE
5
20B
100
AcDbEntity
8
0
100
AcDbLine
62
7
6
CONTINUOUS
10
88.9718147141
20
119.0428473521
11
86.0487045197
21
119.7177005151
0
LINE
5
20C
100
AcDbEntity
8
0
100
AcDbLine
62
7
6
CONTINUOUS
10
84.7748175532
20
123.0907128181
11
86.7235576828
21
122.6408107095
0
LINE
5
20D
100
AcDbEntity
8
0
100
AcDbLine
62
7
6
CONTINUOUS
10
86.0487045197
20
119.7177005151
11
86.7235576828
21
122.6408107095
0
LINE
5
20E
100
AcDbEntity
8
0
100
AcDbLine
62
7
6
CONTINUOUS
10
88.9718147141
20
119.0428473521
11
89.4217168228
21
120.9915874816
0
LINE
5
20F
100
AcDbEntity
8
0
100
AcDbLine
62
7
6
CONTINUOUS
10
85.8008248806
20
119.4349717156
11
86.6640960064
21
122.6567434176
0
LINE
5
210
100
AcDbEntity
8
0
100
AcDbLine
62
7
6
CONTINUOUS
10
89.4217168228
20
120.9915874816
11
104.7408652799
21
156.7207589043
0
LINE
5
211
100
AcDbEntity
8
0
100
AcDbLine
62
7
6
CONTINUOUS
10
89.4755489095
20
143.4518172795
11
88.9883638771
21
143.5642928067
0
LINE
5
212
100
AcDbEntity
8
0
100
AcDbLine
62
7
6
CONTINUOUS
10
89.4946936795
20
143.5347423888
11
89.0075086471
21
143.6472179160
0
LINE
5
213
100
AcDbEntity
8
DEFAULT_1
100
AcDbLine
62
2
6
CENTER
10
111.3072834694
20
182.9627903512
11
111.3072834694
21
98.5996736663
0
LINE
5
214
100
AcDbEntity
8
DEFAULT_1
100
AcDbLine
62
2
6
CENTER
10
111.3072834694
20
182.9627903512
11
111.3072834694
21
199.5393538802
0
LINE
5
215
100
AcDbEntity
8
0
100
AcDbLine
62
7
6
CONTINUOUS
10
84.3072834694
20
126.1671379658
11
85.1052668071
21
126.6278538606
0
LINE
5
216
100
AcDbEntity
8
0
100
AcDbLine
62
7
6
CONTINUOUS
10
89.5329832211
20
143.7005926146
11
89.0457981887
21
143.8130681418
0
LINE
5
217
100
AcDbEntity
8
0
100
AcDbLine
62
7
6
CONTINUOUS
10
89.6095623010
20
144.0322930517
11
89.1223772686
21
144.1447685789
0
LINE
5
218
100
AcDbEntity
8
0
100
AcDbLine
62
7
6
CONTINUOUS
10
89.6861413876
20
144.3639935178
11
89.1989563552
21
144.4764690450
0
LINE
5
219
100
AcDbEntity
8
0
100
AcDbLine
62
7
6
CONTINUOUS
10
89.7818652291
20
144.7786190279
11
89.2946801967
21
144.8910945550
0
LINE
5
21A
100
AcDbEntity
8
0
100
AcDbLine
62
7
6
CONTINUOUS
10
90.0690367805
20
146.0224956742
11
89.5818517481
21
146.1349712014
0
LINE
5
21B
100
AcDbEntity
8
0
100
AcDbLine
62
7
6
CONTINUOUS
10
90.1647606756
20
146.4371214165
11
89.6775756432
21
146.5495969437
0
LINE
5
21C
100
AcDbEntity
8
0
100
AcDbLine
62
7
6
CONTINUOUS
10
90.2413397488
20
146.7688218246
11
89.7541547164
21
146.8812973518
0
LINE
5
21D
100
AcDbEntity
8
0
100
AcDbLine
62
7
6
CONTINUOUS
10
90.3179188220
20
147.1005222326
11
89.8307337896
21
147.2129977598
0
LINE
5
21E
100
AcDbEntity
8
0
100
AcDbLine
62
7
6
CONTINUOUS
10
90.3562083586
20
147.2663724367
11
89.8690233262
21
147.3788479638
0
LINE
5
21F
100
AcDbEntity
8
0
100
AcDbLine
62
7
6
CONTINUOUS
10
90.3753531269
20
147.3492975387
11
89.8881680945
21
147.4617730658
0
LINE
5
220
100
AcDbEntity
8
0
100
AcDbLine
62
7
6
CONTINUOUS
10
121.1698448129
20
133.0923251703
11
107.2367041474
21
151.2503476090
0
LINE
5
221
100
AcDbEntity
8
0
100
AcDbLine
62
7
6
CONTINUOUS
10
106.4640535527
20
163.2827693963
11
118.4978749288
21
137.4761561751
0
LINE
5
222
100
AcDbEntity
8
0
100
AcDbLine
62
7
6
CONTINUOUS
10
126.7620966269
20
118.1038953084
11
124.6212945329
21
126.0934774922
0
LINE
5
223
100
AcDbEntity
8
0
100
AcDbLine
62
7
6
CONTINUOUS
10
126.3072834694
20
160.6917328999
11
126.3072834694
21
156.7671851464
0
LINE
5
224
100
AcDbEntity
8
0
100
AcDbLine
62
7
6
CONTINUOUS
10
130.5938321531
20
147.5746518290
11
137.0187878568
21
142.1834738677
0
LINE
5
225
100
AcDbEntity
8
0
100
AcDbLine
62
7
6
CONTINUOUS
10
93.5855214799
20
169.4708993979
11
99.8977730734
21
168.3375538044
0
LINE
5
226
100
AcDbEntity
8
0
100
AcDbLine
62
7
6
CONTINUOUS
10
89.3993459079
20
168.7198932267
11
99.8819408498
21
166.2997954942
0
LINE
5
227
100
AcDbEntity
8
0
100
AcDbLine
62
7
6
CONTINUOUS
10
121.4397524203
20
175.9627903512
11
132.8849348160
21
175.9627903512
0
LINE
5
228
100
AcDbEntity
8
DEFAULT_1
100
AcDbLine
62
2
6
CENTER
10
111.3072834694
20
182.9627903512
11
94.7307199404
21
182.9627903512
0
LINE
5
229
100
AcDbEntity
8
DEFAULT_1
100
AcDbLine
62
2
6
CENTER
10
111.3072834694
20
182.9627903512
11
127.8838469983
21
182.9627903512
0
LINE
5
22A
100
AcDbEntity
8
0
100
AcDbLine
62
7
6
CONTINUOUS
10
121.4397524203
20
189.9627903512
11
132.8849348160
21
189.9627903512
0
LINE
5
22B
100
AcDbEntity
8
0
100
AcDbLine
62
7
6
CONTINUOUS
10
298.4488751998
20
78.2856437821
11
295.3771299929
21
77.9627903512
0
LINE
5
22C
100
AcDbEntity
8
0
100
AcDbLine
62
7
6
CONTINUOUS
10
295.3771299929
20
77.9627903512
11
292.3053847860
21
78.2856437821
0
LINE
5
22D
100
AcDbEntity
8
DEFAULT_2
100
AcDbLine
62
8
6
HIDDEN
10
290.9590161398
20
97.4984275068
11
295.3771299929
21
97.9627899847
0
LINE
5
22E
100
AcDbEntity
8
DEFAULT_2
100
AcDbLine
62
8
6
HIDDEN
10
295.3771299929
20
97.9627899847
11
299.7952438460
21
97.4984275068
0
LINE
5
22F
100
AcDbEntity
8
0
100
AcDbLine
62
7
6
CONTINUOUS
10
288.0404044507
20
119.7177005151
11
287.9201363559
21
119.7177005151
0
LINE
5
230
100
AcDbEntity
8
0
100
AcDbLine
62
7
6
CONTINUOUS
10
302.7138555351
20
119.7177005151
11
302.8341236299
21
119.7177005151
0
LINE
5
231
100
AcDbEntity
8
0
100
AcDbLine
62
7
6
CONTINUOUS
10
285.3183619282
20
168.7198932267
11
284.3771299929
21
166.2997954942
0
POLYLINE
5
232
100
AcDbEntity
8
0
100
AcDb2dPolyline
62
7
6
CONTINUOUS
66
1
70
0
0
VERTEX
5
233
100
AcDbEntity
8
0
100
AcDbVertex
62
7
6
CONTINUOUS
100
AcDb2dVertex
10
287.7690562623
20
122.6408107095
0
VERTEX
5
234
100
AcDbEntity
8
0
100
AcDbVertex
62
7
6
CONTINUOUS
100
AcDb2dVertex
10
287.9751943816
20
122.6623619479
0
VERTEX
5
235
100
AcDbEntity
8
0
100
AcDbVertex
62
7
6
CONTINUOUS
100
AcDb2dVertex
10
288.1651360283
20
122.7204984867
0
VERTEX
5
236
100
AcDbEntity
8
0
100
AcDbVertex
62
7
6
CONTINUOUS
100
AcDb2dVertex
10
288.3422680153
20
122.8175310170
0
VERTEX
5
237
100
AcDbEntity
8
0
100
AcDbVertex
62
7
6
CONTINUOUS
100
AcDb2dVertex
10
288.4964299038
20
122.9465274651
0
VERTEX
5
238
100
AcDbEntity
8
0
100
AcDbVertex
62
7
6
CONTINUOUS
100
AcDb2dVertex
10
288.6174612555
20
123.1005557574
0
VERTEX
5
239
100
AcDbEntity
8
0
100
AcDbVertex
62
7
6
CONTINUOUS
100
AcDb2dVertex
10
288.7087488831
20
123.2819265850
0
SEQEND
5
23A
100
AcDbEntity
8
0
0
LINE
5
23B
100
AcDbEntity
8
0
100
AcDbLine
62
7
6
CONTINUOUS
10
304.4092527820
20
122.6408107095
11
302.9852037235
21
122.6408107095
0
LINE
5
23C
100
AcDbEntity
8
0
100
AcDbLine
62
7
6
CONTINUOUS
10
286.3450072038
20
122.6408107095
11
287.7690562623
21
122.6408107095
0
POLYLINE
5
23D
100
AcDbEntity
8
0
100
AcDb2dPolyline
62
7
6
CONTINUOUS
66
1
70
0
0
VERTEX
5
23E
100
AcDbEntity
8
0
100
AcDbVertex
62
7
6
CONTINUOUS
100
AcDb2dVertex
10
302.9852037235
20
122.6408107095
0
VERTEX
5
23F
100
AcDbEntity
8
0
100
AcDbVertex
62
7
6
CONTINUOUS
100
AcDb2dVertex
10
302.7790656042
20
122.6623619479
0
VERTEX
5
240
100
AcDbEntity
8
0
100
AcDbVertex
62
7
6
CONTINUOUS
100
AcDb2dVertex
10
302.5891239575
20
122.7204984867
0
VERTEX
5
241
100
AcDbEntity
8
0
100
AcDbVertex
62
7
6
CONTINUOUS
100
AcDb2dVertex
10
302.4119919706
20
122.8175310170
0
VERTEX
5
242
100
AcDbEntity
8
0
100
AcDbVertex
62
7
6
CONTINUOUS
100
AcDb2dVertex
10
302.2578300820
20
122.9465274651
0
VERTEX
5
243
100
AcDbEntity
8
0
100
AcDbVertex
62
7
6
CONTINUOUS
100
AcDb2dVertex
10
302.1367987303
20
123.1005557574
0
VERTEX
5
244
100
AcDbEntity
8
0
100
AcDbVertex
62
7
6
CONTINUOUS
100
AcDb2dVertex
10
302.0455111028
20
123.2819265850
0
SEQEND
5
245
100
AcDbEntity
8
0
0
LINE
5
246
100
AcDbEntity
8
0
100
AcDbLine
62
7
6
CONTINUOUS
10
292.2987388628
20
78.3155504366
11
289.7295670773
21
89.8768234716
0
LINE
5
247
100
AcDbEntity
8
0
100
AcDbLine
62
7
6
CONTINUOUS
10
295.3771299929
20
126.9627903512
11
291.5019368209
21
126.5554911363
0
LINE
5
248
100
AcDbEntity
8
0
100
AcDbLine
62
7
6
CONTINUOUS
10
297.4771299929
20
127.3249929027
11
293.2771299929
21
127.3249929027
0
LINE
5
249
100
AcDbEntity
8
0
100
AcDbLine
62
7
6
CONTINUOUS
10
297.1183595098
20
128.9742161306
11
293.6359004761
21
128.9742161306
0
LINE
5
24A
100
AcDbEntity
8
0
100
AcDbLine
62
7
6
CONTINUOUS
10
299.2523231649
20
126.5554911363
11
295.3771299929
21
126.9627903512
0
LINE
5
24B
100
AcDbEntity
8
0
100
AcDbLine
62
7
6
CONTINUOUS
10
286.3412316080
20
120.9915874816
11
284.6212535828
21
126.6421674981
0
LINE
5
24C
100
AcDbEntity
8
0
100
AcDbLine
62
7
6
CONTINUOUS
10
287.9895352503
20
114.6967932594
11
289.2089126650
21
110.3249950857
0
LINE
5
24D
100
AcDbEntity
8
0
100
AcDbLine
62
7
6
CONTINUOUS
10
286.3412316080
20
120.9915874816
11
286.6782672556
21
119.7659915292
0
LINE
5
24E
100
AcDbEntity
8
0
100
AcDbLine
62
7
6
CONTINUOUS
10
286.9499920438
20
120.4408446922
11
286.3450072038
21
122.6408107095
0
LINE
5
24F
100
AcDbEntity
8
0
100
AcDbLine
62
7
6
CONTINUOUS
10
285.1540184225
20
128.0803558306
11
286.5261570626
21
123.0907128181
0
LINE
5
250
100
AcDbEntity
8
0
100
AcDbLine
62
7
6
CONTINUOUS
10
284.2412742039
20
129.0450049086
11
283.7744026641
21
156.7207589043
0
LINE
5
251
100
AcDbEntity
8
0
100
AcDbLine
62
7
6
CONTINUOUS
10
284.3771299929
20
166.2997954942
11
284.3771299929
21
173.8909935815
0
LINE
5
252
100
AcDbEntity
8
0
100
AcDbLine
62
7
6
CONTINUOUS
10
284.8145733105
20
145.7027395428
11
284.8145733105
21
147.9371494702
0
LINE
5
253
100
AcDbEntity
8
0
100
AcDbLine
62
7
6
CONTINUOUS
10
285.6277672381
20
132.6996626258
11
285.6272290160
21
132.6751149925
0
LINE
5
254
100
AcDbEntity
8
0
100
AcDbLine
62
7
6
CONTINUOUS
10
303.1365916735
20
119.0969163238
11
302.8320587941
21
119.4349717156
0
LINE
5
255
100
AcDbEntity
8
0
100
AcDbLine
62
7
6
CONTINUOUS
10
287.3771299929
20
93.5228289503
11
287.3771299929
21
119.0799571160
0
LINE
5
256
100
AcDbEntity
8
DEFAULT_2
100
AcDbLine
62
8
6
HIDDEN
10
287.3771299929
20
119.0799571160
11
287.3771299929
21
119.2536891437
0
LINE
5
257
100
AcDbEntity
8
0
100
AcDbLine
62
7
6
CONTINUOUS
10
287.4771299929
20
118.7688764182
11
287.4771299929
21
116.7863566010
0
LINE
5
258
100
AcDbEntity
8
0
100
AcDbLine
62
7
6
CONTINUOUS
10
289.8771299929
20
176.6720563823
11
289.8771299929
21
205.3847139083
0
LINE
5
259
100
AcDbEntity
8
0
100
AcDbLine
62
7
6
CONTINUOUS
10
290.5771299929
20
149.0037443470
11
290.5771299929
21
164.1296149551
0
LINE
5
25A
100
AcDbEntity
8
0
100
AcDbLine
62
7
6
CONTINUOUS
10
291.1771299929
20
143.4518172795
11
291.1771299929
21
147.4617730658
0
LINE
5
25B
100
AcDbEntity
8
0
100
AcDbLine
62
7
6
CONTINUOUS
10
291.3771299929
20
149.5631350756
11
291.3771299929
21
164.1296149551
0
LINE
5
25C
100
AcDbEntity
8
0
100
AcDbLine
62
7
6
CONTINUOUS
10
291.6026990120
20
143.4518172795
11
291.6026990120
21
145.3057201812
0
LINE
5
25D
100
AcDbEntity
8
0
100
AcDbLine
62
7
6
CONTINUOUS
10
291.6026990120
20
145.8032707933
11
291.6026990120
21
147.0471475558
0
LINE
5
25E
100
AcDbEntity
8
0
100
AcDbLine
62
7
6
CONTINUOUS
10
289.3770779990
20
109.0816913840
11
289.3771299926
21
109.1033270292
0
LINE
5
25F
100
AcDbEntity
8
0
100
AcDbLine
62
7
6
CONTINUOUS
10
293.3049750884
20
146.0520460993
11
293.1631186811
21
145.8861958953
0
LINE
5
260
100
AcDbEntity
8
0
100
AcDbLine
62
7
6
CONTINUOUS
10
293.2340469862
20
145.4715703853
11
293.5177595980
21
145.6374205893
0
LINE
5
261
100
AcDbEntity
8
0
100
AcDbLine
62
7
6
CONTINUOUS
10
293.2655317567
20
145.3774999461
11
293.5177595980
21
145.5249450621
0
LINE
5
262
100
AcDbEntity
8
0
100
AcDbLine
62
7
6
CONTINUOUS
10
293.1631186811
20
145.8861958953
11
292.9503341715
21
145.8032707933
0
LINE
5
263
100
AcDbEntity
8
0
100
AcDbLine
62
7
6
CONTINUOUS
10
292.3053847860
20
78.2856437821
11
292.3053847860
21
85.0712104091
0
LINE
5
264
100
AcDbEntity
8
0
100
AcDbLine
62
7
6
CONTINUOUS
10
292.8084778656
20
145.1932446541
11
292.8084778656
21
145.3057201812
0
LINE
5
265
100
AcDbEntity
8
0
100
AcDbLine
62
7
6
CONTINUOUS
10
292.9503341715
20
146.9346720286
11
292.9503341715
21
147.0471475558
0
LINE
5
266
100
AcDbEntity
8
0
100
AcDbLine
62
7
6
CONTINUOUS
10
293.1631186811
20
146.8517469266
11
293.1631186811
21
146.9642224538
0
LINE
5
267
100
AcDbEntity
8
0
100
AcDbLine
62
7
6
CONTINUOUS
10
293.3049750884
20
146.6858967226
11
293.3049750884
21
146.7983722497
0
LINE
5
268
100
AcDbEntity
8
0
100
AcDbLine
62
7
6
CONTINUOUS
10
293.3759031906
20
146.5495969437
11
293.3759031906
21
146.3008214054
0
LINE
5
269
100
AcDbEntity
8
0
100
AcDbLine
62
7
6
CONTINUOUS
10
293.3759031906
20
143.4518172795
11
293.3759031906
21
143.5642928067
0
LINE
5
26A
100
AcDbEntity
8
0
100
AcDbLine
62
7
6
CONTINUOUS
10
293.5177595980
20
145.5249450621
11
293.5177595980
21
145.6374205893
0
LINE
5
26B
100
AcDbEntity
8
0
100
AcDbLine
62
7
6
CONTINUOUS
10
293.7305441075
20
145.8566454702
11
293.7305441075
21
145.9691209973
0
LINE
5
26C
100
AcDbEntity
8
0
100
AcDbLine
62
7
6
CONTINUOUS
10
293.8014722097
20
146.1054207762
11
293.8014722097
21
146.5495969437
0
LINE
5
26D
100
AcDbEntity
8
0
100
AcDbLine
62
7
6
CONTINUOUS
10
293.8724005149
20
143.4518172795
11
293.8724005149
21
143.5642928067
0
LINE
5
26E
100
AcDbEntity
8
0
100
AcDbLine
62
7
6
CONTINUOUS
10
294.4398257384
20
144.7786190279
11
294.4398257384
21
147.4617730658
0
LINE
5
26F
100
AcDbEntity
8
0
100
AcDbLine
62
7
6
CONTINUOUS
10
294.5107540435
20
144.3639935178
11
294.5107540435
21
144.4764690450
0
LINE
5
270
100
AcDbEntity
8
0
100
AcDbLine
62
7
6
CONTINUOUS
10
294.6526104509
20
144.0322930517
11
294.6526104509
21
144.1447685789
0
LINE
5
271
100
AcDbEntity
8
0
100
AcDbLine
62
7
6
CONTINUOUS
10
294.8653949604
20
144.8910945550
11
294.8653949604
21
147.4617730658
0
LINE
5
272
100
AcDbEntity
8
0
100
AcDbLine
62
7
6
CONTINUOUS
10
294.9363228597
20
143.7005926146
11
294.9363228597
21
143.8130681418
0
LINE
5
273
100
AcDbEntity
8
0
100
AcDbLine
62
7
6
CONTINUOUS
10
295.2200356744
20
143.5347423888
11
295.2200356744
21
143.6472179160
0
LINE
5
274
100
AcDbEntity
8
DEFAULT_1
100
AcDbLine
62
2
6
CENTER
10
295.3771299929
20
194.9627903512
11
295.3771299929
21
126.9627903512
0
LINE
5
275
100
AcDbEntity
8
DEFAULT_1
100
AcDbLine
62
2
6
CENTER
10
295.3771299929
20
77.9627903512
11
295.3771299929
21
75.6652129727
0
LINE
5
276
100
AcDbEntity
8
DEFAULT_1
100
AcDbLine
62
2
6
CENTER
10
295.3771299929
20
126.6278538606
11
295.3771299929
21
77.9944199432
0
LINE
5
277
100
AcDbEntity
8
0
100
AcDbLine
62
7
6
CONTINUOUS
10
295.3771299929
20
77.9627903512
11
295.3771299929
21
77.9944199432
0
LINE
5
278
100
AcDbEntity
8
0
100
AcDbLine
62
7
6
CONTINUOUS
10
295.3771299929
20
126.6278538606
11
295.3771299929
21
126.9627903512
0
LINE
5
279
100
AcDbEntity
8
DEFAULT_1
100
AcDbLine
62
2
6
CENTER
10
295.3771299929
20
194.9627903512
11
295.3771299929
21
208.2568279296
0
LINE
5
27A
100
AcDbEntity
8
0
100
AcDbLine
62
7
6
CONTINUOUS
10
295.5746763883
20
143.4518172795
11
295.5746763883
21
143.5642928067
0
LINE
5
27B
100
AcDbEntity
8
0
100
AcDbLine
62
7
6
CONTINUOUS
10
295.8583892030
20
143.4518172795
11
295.8583892030
21
143.5642928067
0
LINE
5
27C
100
AcDbEntity
8
0
100
AcDbLine
62
7
6
CONTINUOUS
10
296.5676710368
20
144.8910945550
11
296.4967427317
21
144.5593941470
0
LINE
5
27D
100
AcDbEntity
8
0
100
AcDbLine
62
7
6
CONTINUOUS
10
293.3759031906
20
146.3008214054
11
293.3049750884
21
146.0520460993
0
LINE
5
27E
100
AcDbEntity
8
0
100
AcDbLine
62
7
6
CONTINUOUS
10
293.7305441075
20
145.9691209973
11
293.8014722097
21
146.2178963034
0
LINE
5
27F
100
AcDbEntity
8
0
100
AcDbLine
62
7
6
CONTINUOUS
10
293.7305441075
20
145.8566454702
11
293.8014722097
21
146.1054207762
0
LINE
5
280
100
AcDbEntity
8
0
100
AcDbLine
62
7
6
CONTINUOUS
10
288.7087488831
20
123.2819265850
11
289.8771299929
21
126.4097526283
0
LINE
5
281
100
AcDbEntity
8
0
100
AcDbLine
62
7
6
CONTINUOUS
10
286.5261570626
20
123.0907128181
11
286.3450072038
21
122.6408107095
0
LINE
5
282
100
AcDbEntity
8
0
100
AcDbLine
62
7
6
CONTINUOUS
10
296.7804555464
20
144.1447685789
11
296.9223117508
21
144.4764690450
0
LINE
5
283
100
AcDbEntity
8
0
100
AcDbLine
62
7
6
CONTINUOUS
10
296.7804555464
20
144.0322930517
11
296.9223117508
21
144.3639935178
0
LINE
5
284
100
AcDbEntity
8
0
100
AcDbLine
62
7
6
CONTINUOUS
10
296.4967427317
20
144.5593941470
11
296.3548865273
21
144.3106188410
0
LINE
5
285
100
AcDbEntity
8
0
100
AcDbLine
62
7
6
CONTINUOUS
10
293.5177595980
20
145.6374205893
11
293.7305441075
21
145.9691209973
0
LINE
5
286
100
AcDbEntity
8
0
100
AcDbLine
62
7
6
CONTINUOUS
10
293.5177595980
20
145.5249450621
11
293.7305441075
21
145.8566454702
0
LINE
5
287
100
AcDbEntity
8
0
100
AcDbLine
62
7
6
CONTINUOUS
10
296.4967427317
20
143.8130681418
11
296.7804555464
21
144.1447685789
0
LINE
5
288
100
AcDbEntity
8
0
100
AcDbLine
62
7
6
CONTINUOUS
10
296.4967427317
20
143.7005926146
11
296.7804555464
21
144.0322930517
0
LINE
5
289
100
AcDbEntity
8
0
100
AcDbLine
62
7
6
CONTINUOUS
10
296.3548865273
20
144.3106188410
11
296.1421020177
21
144.1447685789
0
LINE
5
28A
100
AcDbEntity
8
0
100
AcDbLine
62
7
6
CONTINUOUS
10
296.2130299170
20
143.6472179160
11
296.4967427317
21
143.8130681418
0
LINE
5
28B
100
AcDbEntity
8
0
100
AcDbLine
62
7
6
CONTINUOUS
10
296.2130299170
20
143.5347423888
11
296.4967427317
21
143.7005926146
0
LINE
5
28C
100
AcDbEntity
8
0
100
AcDbLine
62
7
6
CONTINUOUS
10
296.1421020177
20
144.1447685789
11
295.8583892030
21
144.0618434768
0
LINE
5
28D
100
AcDbEntity
8
0
100
AcDbLine
62
7
6
CONTINUOUS
10
299.5466537647
20
144.1447685789
11
299.2629413558
21
144.0618434768
0
LINE
5
28E
100
AcDbEntity
8
0
100
AcDbLine
62
7
6
CONTINUOUS
10
299.2629413558
20
143.4518172795
11
299.6175824757
21
143.5347423888
0
LINE
5
28F
100
AcDbEntity
8
0
100
AcDbLine
62
7
6
CONTINUOUS
10
300.1822340806
20
125.6991760537
11
300.1822825912
21
125.6990879285
0
POLYLINE
5
290
100
AcDbEntity
8
0
100
AcDb2dPolyline
62
7
6
CONTINUOUS
66
1
70
0
0
VERTEX
5
291
100
AcDbEntity
8
0
100
AcDbVertex
62
7
6
CONTINUOUS
100
AcDb2dVertex
10
300.8771299929
20
126.4097526283
0
VERTEX
5
292
100
AcDbEntity
8
0
100
AcDbVertex
62
7
6
CONTINUOUS
100
AcDb2dVertex
10
300.6804458554
20
126.8491505961
0
VERTEX
5
293
100
AcDbEntity
8
0
100
AcDbVertex
62
7
6
CONTINUOUS
100
AcDb2dVertex
10
300.4345098000
20
127.2561791738
0
VERTEX
5
294
100
AcDbEntity
8
0
100
AcDbVertex
62
7
6
CONTINUOUS
100
AcDb2dVertex
10
300.1369468664
20
127.6335004173
0
VERTEX
5
295
100
AcDbEntity
8
0
100
AcDbVertex
62
7
6
CONTINUOUS
100
AcDb2dVertex
10
299.7948819352
20
127.9731281584
0
VERTEX
5
296
100
AcDbEntity
8
0
100
AcDbVertex
62
7
6
CONTINUOUS
100
AcDb2dVertex
10
299.4124745233
20
128.2690993814
0
VERTEX
5
297
100
AcDbEntity
8
0
100
AcDbVertex
62
7
6
CONTINUOUS
100
AcDb2dVertex
10
298.9962457609
20
128.5180066844
0
VERTEX
5
298
100
AcDbEntity
8
0
100
AcDbVertex
62
7
6
CONTINUOUS
100
AcDb2dVertex
10
298.5517121395
20
128.7150446664
0
VERTEX
5
299
100
AcDbEntity
8
0
100
AcDbVertex
62
7
6
CONTINUOUS
100
AcDb2dVertex
10
298.0860470922
20
128.8584443101
0
VERTEX
5
29A
100
AcDbEntity
8
0
100
AcDbVertex
62
7
6
CONTINUOUS
100
AcDb2dVertex
10
297.6093894152
20
128.9444134460
0
VERTEX
5
29B
100
AcDbEntity
8
0
100
AcDbVertex
62
7
6
CONTINUOUS
100
AcDb2dVertex
10
297.1183595098
20
128.9742161306
0
SEQEND
5
29C
100
AcDbEntity
8
0
0
LINE
5
29D
100
AcDbEntity
8
0
100
AcDbLine
62
7
6
CONTINUOUS
10
294.5107540435
20
144.3639935178
11
294.6526104509
21
144.0322930517
0
LINE
5
29E
100
AcDbEntity
8
0
100
AcDbLine
62
7
6
CONTINUOUS
10
294.5107540435
20
144.4764690450
11
294.6526104509
21
144.1447685789
0
LINE
5
29F
100
AcDbEntity
8
0
100
AcDbLine
62
7
6
CONTINUOUS
10
302.8320587941
20
119.4349717156
11
300.3377866416
21
125.4009880284
0
LINE
5
2A0
100
AcDbEntity
8
0
100
AcDbLine
62
7
6
CONTINUOUS
10
302.0455111028
20
123.2819265850
11
300.8771299929
21
126.4097526283
0
LINE
5
2A1
100
AcDbEntity
8
0
100
AcDbLine
62
7
6
CONTINUOUS
10
293.8724005149
20
143.5642928067
11
293.2340469862
21
145.4715703853
0
LINE
5
2A2
100
AcDbEntity
8
0
100
AcDbLine
62
7
6
CONTINUOUS
10
292.8084778656
20
145.1932446541
11
293.3759031906
21
143.4518172795
0
LINE
5
2A3
100
AcDbEntity
8
0
100
AcDbLine
62
7
6
CONTINUOUS
10
292.8084778656
20
145.3057201812
11
293.3759031906
21
143.5642928067
0
LINE
5
2A4
100
AcDbEntity
8
0
100
AcDbLine
62
7
6
CONTINUOUS
10
293.3049750884
20
146.6858967226
11
293.3759031906
21
146.4371214165
0
LINE
5
2A5
100
AcDbEntity
8
0
100
AcDbLine
62
7
6
CONTINUOUS
10
293.3049750884
20
146.7983722497
11
293.3759031906
21
146.5495969437
0
LINE
5
2A6
100
AcDbEntity
8
0
100
AcDbLine
62
7
6
CONTINUOUS
10
293.8014722097
20
146.5495969437
11
293.7305441075
21
146.7983722497
0
POLYLINE
5
2A7
100
AcDbEntity
8
0
100
AcDb2dPolyline
62
7
6
CONTINUOUS
66
1
70
0
0
VERTEX
5
2A8
100
AcDbEntity
8
0
100
AcDbVertex
62
7
6
CONTINUOUS
100
AcDb2dVertex
10
298.3499755443
20
126.6503316929
0
VERTEX
5
2A9
100
AcDbEntity
8
0
100
AcDbVertex
62
7
6
CONTINUOUS
100
AcDb2dVertex
10
298.3330808576
20
126.7190470624
0
VERTEX
5
2AA
100
AcDbEntity
8
0
100
AcDbVertex
62
7
6
CONTINUOUS
100
AcDb2dVertex
10
298.2788542872
20
126.8460889747
0
VERTEX
5
2AB
100
AcDbEntity
8
0
100
AcDbVertex
62
7
6
CONTINUOUS
100
AcDb2dVertex
10
298.2052452878
20
126.9635081634
0
VERTEX
5
2AC
100
AcDbEntity
8
0
100
AcDbVertex
62
7
6
CONTINUOUS
100
AcDb2dVertex
10
298.1133819953
20
127.0680047492
0
VERTEX
5
2AD
100
AcDbEntity
8
0
100
AcDbVertex
62
7
6
CONTINUOUS
100
AcDb2dVertex
10
298.0061367200
20
127.1575135915
0
VERTEX
5
2AE
100
AcDbEntity
8
0
100
AcDbVertex
62
7
6
CONTINUOUS
100
AcDb2dVertex
10
297.8856289244
20
127.2292359971
0
VERTEX
5
2AF
100
AcDbEntity
8
0
100
AcDbVertex
62
7
6
CONTINUOUS
100
AcDb2dVertex
10
297.7552452878
20
127.2820727439
0
VERTEX
5
2B0
100
AcDbEntity
8
0
100
AcDbVertex
62
7
6
CONTINUOUS
100
AcDb2dVertex
10
297.6195906232
20
127.3137376975
0
VERTEX
5
2B1
100
AcDbEntity
8
0
100
AcDbVertex
62
7
6
CONTINUOUS
100
AcDb2dVertex
10
297.4771299929
20
127.3249929027
0
SEQEND
5
2B2
100
AcDbEntity
8
0
0
LINE
5
2B3
100
AcDbEntity
8
0
100
AcDbLine
62
7
6
CONTINUOUS
10
294.9363228597
20
144.5593941470
11
294.8653949604
21
144.8910945550
0
LINE
5
2B4
100
AcDbEntity
8
0
100
AcDbLine
62
7
6
CONTINUOUS
10
294.4398257384
20
144.7786190279
11
294.5107540435
21
144.3639935178
0
LINE
5
2B5
100
AcDbEntity
8
0
100
AcDbLine
62
7
6
CONTINUOUS
10
294.4398257384
20
144.8910945550
11
294.5107540435
21
144.4764690450
0
LINE
5
2B6
100
AcDbEntity
8
0
100
AcDbLine
62
7
6
CONTINUOUS
10
296.2130299170
20
143.5347423888
11
296.2130299170
21
143.6472179160
0
LINE
5
2B7
100
AcDbEntity
8
0
100
AcDbLine
62
7
6
CONTINUOUS
10
296.4967427317
20
143.7005926146
11
296.4967427317
21
143.8130681418
0
LINE
5
2B8
100
AcDbEntity
8
0
100
AcDbLine
62
7
6
CONTINUOUS
10
296.5676710368
20
147.4617730658
11
296.5676710368
21
144.8910945550
0
LINE
5
2B9
100
AcDbEntity
8
0
100
AcDbLine
62
7
6
CONTINUOUS
10
296.7804555464
20
144.0322930517
11
296.7804555464
21
144.1447685789
0
LINE
5
2BA
100
AcDbEntity
8
0
100
AcDbLine
62
7
6
CONTINUOUS
10
296.9223117508
20
144.3639935178
11
296.9223117508
21
144.4764690450
0
LINE
5
2BB
100
AcDbEntity
8
0
100
AcDbLine
62
7
6
CONTINUOUS
10
296.9932400559
20
144.7786190279
11
296.9932400559
21
147.4617730658
0
LINE
5
2BC
100
AcDbEntity
8
0
100
AcDbLine
62
7
6
CONTINUOUS
10
297.5606652794
20
143.4518172795
11
297.5606652794
21
147.4617730658
0
LINE
5
2BD
100
AcDbEntity
8
0
100
AcDbLine
62
7
6
CONTINUOUS
10
297.9862342985
20
144.0618434768
11
297.9862342985
21
146.9642224538
0
LINE
5
2BE
100
AcDbEntity
8
0
100
AcDbLine
62
7
6
CONTINUOUS
10
298.4488751998
20
78.2856437821
11
298.4488751998
21
85.0712104091
0
LINE
5
2BF
100
AcDbEntity
8
0
100
AcDbLine
62
7
6
CONTINUOUS
10
299.2629413558
20
143.4518172795
11
299.2629413558
21
143.5642928067
0
LINE
5
2C0
100
AcDbEntity
8
0
100
AcDbLine
62
7
6
CONTINUOUS
10
299.2629413558
20
146.8517469266
11
299.2629413558
21
146.9642224538
0
LINE
5
2C1
100
AcDbEntity
8
0
100
AcDbLine
62
7
6
CONTINUOUS
10
299.3771299929
20
149.5631350756
11
299.3771299929
21
164.1296149551
0
LINE
5
2C2
100
AcDbEntity
8
0
100
AcDbLine
62
7
6
CONTINUOUS
10
299.5466537647
20
146.7688218246
11
299.5466537647
21
146.8812973518
0
LINE
5
2C3
100
AcDbEntity
8
0
100
AcDbLine
62
7
6
CONTINUOUS
10
299.6175824757
20
143.5347423888
11
299.6175824757
21
143.6472179160
0
LINE
5
2C4
100
AcDbEntity
8
0
100
AcDbLine
62
7
6
CONTINUOUS
10
299.7594382742
20
146.6029716206
11
299.7594382742
21
146.7154471477
0
LINE
5
2C5
100
AcDbEntity
8
0
100
AcDbLine
62
7
6
CONTINUOUS
10
299.9012948845
20
143.7005926146
11
299.9012948845
21
143.8130681418
0
LINE
5
2C6
100
AcDbEntity
8
0
100
AcDbLine
62
7
6
CONTINUOUS
10
299.9012948845
20
146.3541960822
11
299.9012948845
21
146.4666716094
0
LINE
5
2C7
100
AcDbEntity
8
0
100
AcDbLine
62
7
6
CONTINUOUS
10
299.9722227838
20
146.1349712014
11
299.9722227838
21
144.8910945550
0
LINE
5
2C8
100
AcDbEntity
8
0
100
AcDbLine
62
7
6
CONTINUOUS
10
300.1771299929
20
149.0037443470
11
300.1771299929
21
164.1296149551
0
LINE
5
2C9
100
AcDbEntity
8
0
100
AcDbLine
62
7
6
CONTINUOUS
10
300.1850072933
20
144.0322930517
11
300.1850072933
21
144.1447685789
0
LINE
5
2CA
100
AcDbEntity
8
0
100
AcDbLine
62
7
6
CONTINUOUS
10
296.9223117508
20
144.4764690450
11
296.9932400559
21
144.8910945550
0
LINE
5
2CB
100
AcDbEntity
8
0
100
AcDbLine
62
7
6
CONTINUOUS
10
296.9223117508
20
144.3639935178
11
296.9932400559
21
144.7786190279
0
LINE
5
2CC
100
AcDbEntity
8
0
100
AcDbLine
62
7
6
CONTINUOUS
10
300.3268639036
20
144.4764690450
11
300.3977918029
21
144.8910945550
0
LINE
5
2CD
100
AcDbEntity
8
0
100
AcDbLine
62
7
6
CONTINUOUS
10
300.3268639036
20
144.3639935178
11
300.3977918029
21
144.7786190279
0
LINE
5
2CE
100
AcDbEntity
8
0
100
AcDbLine
62
7
6
CONTINUOUS
10
287.4540002912
20
94.3007586234
11
287.4539846406
21
94.3006799486
0
LINE
5
2CF
100
AcDbEntity
8
0
100
AcDbLine
62
7
6
CONTINUOUS
10
299.9722227838
20
144.8910945550
11
299.9012948845
21
144.5593941470
0
POLYLINE
5
2D0
100
AcDbEntity
8
0
100
AcDb2dPolyline
62
7
6
CONTINUOUS
66
1
70
0
0
VERTEX
5
2D1
100
AcDbEntity
8
0
100
AcDbVertex
62
7
6
CONTINUOUS
100
AcDb2dVertex
10
292.4042844415
20
126.6503316929
0
VERTEX
5
2D2
100
AcDbEntity
8
0
100
AcDbVertex
62
7
6
CONTINUOUS
100
AcDb2dVertex
10
292.4211791282
20
126.7190470624
0
VERTEX
5
2D3
100
AcDbEntity
8
0
100
AcDbVertex
62
7
6
CONTINUOUS
100
AcDb2dVertex
10
292.4754056986
20
126.8460889747
0
VERTEX
5
2D4
100
AcDbEntity
8
0
100
AcDbVertex
62
7
6
CONTINUOUS
100
AcDb2dVertex
10
292.5490146980
20
126.9635081634
0
VERTEX
5
2D5
100
AcDbEntity
8
0
100
AcDbVertex
62
7
6
CONTINUOUS
100
AcDb2dVertex
10
292.6408779905
20
127.0680047492
0
VERTEX
5
2D6
100
AcDbEntity
8
0
100
AcDbVertex
62
7
6
CONTINUOUS
100
AcDb2dVertex
10
292.7481232658
20
127.1575135915
0
VERTEX
5
2D7
100
AcDbEntity
8
0
100
AcDbVertex
62
7
6
CONTINUOUS
100
AcDb2dVertex
10
292.8686310615
20
127.2292359971
0
VERTEX
5
2D8
100
AcDbEntity
8
0
100
AcDbVertex
62
7
6
CONTINUOUS
100
AcDb2dVertex
10
292.9990146980
20
127.2820727439
0
VERTEX
5
2D9
100
AcDbEntity
8
0
100
AcDbVertex
62
7
6
CONTINUOUS
100
AcDb2dVertex
10
293.1346693626
20
127.3137376975
0
VERTEX
5
2DA
100
AcDbEntity
8
0
100
AcDbVertex
62
7
6
CONTINUOUS
100
AcDb2dVertex
10
293.2771299929
20
127.3249929027
0
SEQEND
5
2DB
100
AcDbEntity
8
0
0
LINE
5
2DC
100
AcDbEntity
8
0
100
AcDbLine
62
7
6
CONTINUOUS
10
287.9222011917
20
119.4349717156
11
290.4164733442
21
125.4009880284
0
LINE
5
2DD
100
AcDbEntity
8
0
100
AcDbLine
62
7
6
CONTINUOUS
10
300.1850072933
20
144.1447685789
11
300.3268639036
21
144.4764690450
0
LINE
5
2DE
100
AcDbEntity
8
0
100
AcDbLine
62
7
6
CONTINUOUS
10
300.1850072933
20
144.0322930517
11
300.3268639036
21
144.3639935178
0
POLYLINE
5
2DF
100
AcDbEntity
8
0
100
AcDb2dPolyline
62
7
6
CONTINUOUS
66
1
70
0
0
VERTEX
5
2E0
100
AcDbEntity
8
0
100
AcDbVertex
62
7
6
CONTINUOUS
100
AcDb2dVertex
10
289.8771299929
20
126.4097526283
0
VERTEX
5
2E1
100
AcDbEntity
8
0
100
AcDbVertex
62
7
6
CONTINUOUS
100
AcDb2dVertex
10
290.0738141304
20
126.8491505961
0
VERTEX
5
2E2
100
AcDbEntity
8
0
100
AcDbVertex
62
7
6
CONTINUOUS
100
AcDb2dVertex
10
290.3197501858
20
127.2561791738
0
VERTEX
5
2E3
100
AcDbEntity
8
0
100
AcDbVertex
62
7
6
CONTINUOUS
100
AcDb2dVertex
10
290.6173131194
20
127.6335004173
0
VERTEX
5
2E4
100
AcDbEntity
8
0
100
AcDbVertex
62
7
6
CONTINUOUS
100
AcDb2dVertex
10
290.9593780506
20
127.9731281584
0
VERTEX
5
2E5
100
AcDbEntity
8
0
100
AcDbVertex
62
7
6
CONTINUOUS
100
AcDb2dVertex
10
291.3417854625
20
128.2690993814
0
VERTEX
5
2E6
100
AcDbEntity
8
0
100
AcDbVertex
62
7
6
CONTINUOUS
100
AcDb2dVertex
10
291.7580142249
20
128.5180066844
0
VERTEX
5
2E7
100
AcDbEntity
8
0
100
AcDbVertex
62
7
6
CONTINUOUS
100
AcDb2dVertex
10
292.2025478463
20
128.7150446664
0
VERTEX
5
2E8
100
AcDbEntity
8
0
100
AcDbVertex
62
7
6
CONTINUOUS
100
AcDb2dVertex
10
292.6682128937
20
128.8584443101
0
VERTEX
5
2E9
100
AcDbEntity
8
0
100
AcDbVertex
62
7
6
CONTINUOUS
100
AcDb2dVertex
10
293.1448705706
20
128.9444134460
0
VERTEX
5
2EA
100
AcDbEntity
8
0
100
AcDbVertex
62
7
6
CONTINUOUS
100
AcDb2dVertex
10
293.6359004761
20
128.9742161306
0
SEQEND
5
2EB
100
AcDbEntity
8
0
0
LINE
5
2EC
100
AcDbEntity
8
0
100
AcDbLine
62
7
6
CONTINUOUS
10
290.5720259052
20
125.6991760537
11
290.5719788875
21
125.6990906417
0
LINE
5
2ED
100
AcDbEntity
8
0
100
AcDbLine
62
7
6
CONTINUOUS
10
299.9012948845
20
144.5593941470
11
299.7594382742
21
144.3106188410
0
LINE
5
2EE
100
AcDbEntity
8
0
100
AcDbLine
62
7
6
CONTINUOUS
10
299.9012948845
20
143.8130681418
11
300.1850072933
21
144.1447685789
0
LINE
5
2EF
100
AcDbEntity
8
0
100
AcDbLine
62
7
6
CONTINUOUS
10
299.9012948845
20
143.7005926146
11
300.1850072933
21
144.0322930517
0
LINE
5
2F0
100
AcDbEntity
8
0
100
AcDbLine
62
7
6
CONTINUOUS
10
299.7594382742
20
144.3106188410
11
299.5466537647
21
144.1447685789
0
LINE
5
2F1
100
AcDbEntity
8
0
100
AcDbLine
62
7
6
CONTINUOUS
10
299.6175824757
20
143.6472179160
11
299.9012948845
21
143.8130681418
0
LINE
5
2F2
100
AcDbEntity
8
0
100
AcDbLine
62
7
6
CONTINUOUS
10
299.6175824757
20
143.5347423888
11
299.9012948845
21
143.7005926146
0
LINE
5
2F3
100
AcDbEntity
8
0
100
AcDbLine
62
7
6
CONTINUOUS
10
299.2629413558
20
143.5642928067
11
299.6175824757
21
143.6472179160
0
LINE
5
2F4
100
AcDbEntity
8
0
100
AcDbLine
62
7
6
CONTINUOUS
10
295.8583892030
20
143.4518172795
11
296.2130299170
21
143.5347423888
0
LINE
5
2F5
100
AcDbEntity
8
0
100
AcDbLine
62
7
6
CONTINUOUS
10
295.8583892030
20
143.5642928067
11
296.2130299170
21
143.6472179160
0
POLYLINE
5
2F6
100
AcDbEntity
8
0
100
AcDb2dPolyline
62
7
6
CONTINUOUS
66
1
70
0
0
VERTEX
5
2F7
100
AcDbEntity
8
0
100
AcDbVertex
62
7
6
CONTINUOUS
100
AcDb2dVertex
10
305.9396866753
20
145.7027395428
0
VERTEX
5
2F8
100
AcDbEntity
8
0
100
AcDbVertex
62
7
6
CONTINUOUS
100
AcDb2dVertex
10
305.1174660597
20
145.6240481936
0
VERTEX
5
2F9
100
AcDbEntity
8
0
100
AcDbVertex
62
7
6
CONTINUOUS
100
AcDb2dVertex
10
304.3135497918
20
145.4720355834
0
VERTEX
5
2FA
100
AcDbEntity
8
0
100
AcDbVertex
62
7
6
CONTINUOUS
100
AcDb2dVertex
10
303.5244716271
20
145.2455306529
0
VERTEX
5
2FB
100
AcDbEntity
8
0
100
AcDbVertex
62
7
6
CONTINUOUS
100
AcDb2dVertex
10
302.7606302987
20
144.9480465799
0
VERTEX
5
2FC
100
AcDbEntity
8
0
100
AcDbVertex
62
7
6
CONTINUOUS
100
AcDb2dVertex
10
302.0292917262
20
144.5813442488
0
VERTEX
5
2FD
100
AcDbEntity
8
0
100
AcDbVertex
62
7
6
CONTINUOUS
100
AcDb2dVertex
10
301.3363881057
20
144.1495094809
0
VERTEX
5
2FE
100
AcDbEntity
8
0
100
AcDbVertex
62
7
6
CONTINUOUS
100
AcDb2dVertex
10
300.6885041324
20
143.6554318371
0
VERTEX
5
2FF
100
AcDbEntity
8
0
100
AcDbVertex
62
7
6
CONTINUOUS
100
AcDb2dVertex
10
300.0909482293
20
143.1044609826
0
VERTEX
5
300
100
AcDbEntity
8
0
100
AcDbVertex
62
7
6
CONTINUOUS
100
AcDb2dVertex
10
299.5499422003
20
142.5009714738
0
VERTEX
5
301
100
AcDbEntity
8
0
100
AcDbVertex
62
7
6
CONTINUOUS
100
AcDb2dVertex
10
299.0693305988
20
141.8507781982
0
VERTEX
5
302
100
AcDbEntity
8
0
100
AcDbVertex
62
7
6
CONTINUOUS
100
AcDb2dVertex
10
298.6540468695
20
141.1588504655
0
VERTEX
5
303
100
AcDbEntity
8
0
100
AcDbVertex
62
7
6
CONTINUOUS
100
AcDb2dVertex
10
298.3070461431
20
140.4320995645
0
VERTEX
5
304
100
AcDbEntity
8
0
100
AcDbVertex
62
7
6
CONTINUOUS
100
AcDb2dVertex
10
298.0324694968
20
139.6768122419
0
VERTEX
5
305
100
AcDbEntity
8
0
100
AcDbVertex
62
7
6
CONTINUOUS
100
AcDb2dVertex
10
297.8316925346
20
138.8998314334
0
VERTEX
5
306
100
AcDbEntity
8
0
100
AcDbVertex
62
7
6
CONTINUOUS
100
AcDb2dVertex
10
297.7074279884
20
138.1076595350
0
VERTEX
5
307
100
AcDbEntity
8
0
100
AcDbVertex
62
7
6
CONTINUOUS
100
AcDb2dVertex
10
297.6598055517
20
137.3076049128
0
VERTEX
5
308
100
AcDbEntity
8
0
100
AcDbVertex
62
7
6
CONTINUOUS
100
AcDb2dVertex
10
297.6902992888
20
136.5067772944
0
VERTEX
5
309
100
AcDbEntity
8
0
100
AcDbVertex
62
7
6
CONTINUOUS
100
AcDb2dVertex
10
297.7975888195
20
135.7122749918
0
VERTEX
5
30A
100
AcDbEntity
8
0
100
AcDbVertex
62
7
6
CONTINUOUS
100
AcDb2dVertex
10
297.9817057418
20
134.9313682646
0
VERTEX
5
30B
100
AcDbEntity
8
0
100
AcDbVertex
62
7
6
CONTINUOUS
100
AcDb2dVertex
10
298.2400681849
20
134.1706509984
0
VERTEX
5
30C
100
AcDbEntity
8
0
100
AcDbVertex
62
7
6
CONTINUOUS
100
AcDb2dVertex
10
298.5714349356
20
133.4370289183
0
VERTEX
5
30D
100
AcDbEntity
8
0
100
AcDbVertex
62
7
6
CONTINUOUS
100
AcDb2dVertex
10
298.9718156185
20
132.7368367650
0
VERTEX
5
30E
100
AcDbEntity
8
0
100
AcDbVertex
62
7
6
CONTINUOUS
100
AcDb2dVertex
10
299.4384216977
20
132.0770118100
0
VERTEX
5
30F
100
AcDbEntity
8
0
100
AcDbVertex
62
7
6
CONTINUOUS
100
AcDb2dVertex
10
299.9664064404
20
131.4626521852
0
VERTEX
5
310
100
AcDbEntity
8
0
100
AcDbVertex
62
7
6
CONTINUOUS
100
AcDb2dVertex
10
300.5520279841
20
130.8996764117
0
VERTEX
5
311
100
AcDbEntity
8
0
100
AcDbVertex
62
7
6
CONTINUOUS
100
AcDb2dVertex
10
301.1891831811
20
130.3925605938
0
VERTEX
5
312
100
AcDbEntity
8
0
100
AcDbVertex
62
7
6
CONTINUOUS
100
AcDb2dVertex
10
301.8727031825
20
129.9467406633
0
VERTEX
5
313
100
AcDbEntity
8
0
100
AcDbVertex
62
7
6
CONTINUOUS
100
AcDb2dVertex
10
302.5960432297
20
129.5652556584
0
VERTEX
5
314
100
AcDbEntity
8
0
100
AcDbVertex
62
7
6
CONTINUOUS
100
AcDb2dVertex
10
303.3533649242
20
129.2523219325
0
VERTEX
5
315
100
AcDbEntity
8
0
100
AcDbVertex
62
7
6
CONTINUOUS
100
AcDb2dVertex
10
304.1373803368
20
129.0098434714
0
VERTEX
5
316
100
AcDbEntity
8
0
100
AcDbVertex
62
7
6
CONTINUOUS
100
AcDb2dVertex
10
304.9377011477
20
128.8415433914
0
VERTEX
5
317
100
AcDbEntity
8
0
100
AcDbVertex
62
7
6
CONTINUOUS
100
AcDb2dVertex
10
305.7577901302
20
128.7461806537
0
SEQEND
5
318
100
AcDbEntity
8
0
0
LINE
5
319
100
AcDbEntity
8
0
100
AcDbLine
62
7
6
CONTINUOUS
10
291.1771299929
20
143.4518172795
11
291.6026990120
21
143.4518172795
0
LINE
5
31A
100
AcDbEntity
8
0
100
AcDbLine
62
7
6
CONTINUOUS
10
293.3759031906
20
143.4518172795
11
293.8724005149
21
143.4518172795
0
LINE
5
31B
100
AcDbEntity
8
0
100
AcDbLine
62
7
6
CONTINUOUS
10
295.5746763883
20
143.4518172795
11
295.8583892030
21
143.4518172795
0
LINE
5
31C
100
AcDbEntity
8
0
100
AcDbLine
62
7
6
CONTINUOUS
10
297.5606652794
20
143.4518172795
11
299.2629413558
21
143.4518172795
0
LINE
5
31D
100
AcDbEntity
8
0
100
AcDbLine
62
7
6
CONTINUOUS
10
291.1771299929
20
143.5642928067
11
291.6026990120
21
143.5642928067
0
LINE
5
31E
100
AcDbEntity
8
0
100
AcDbLine
62
7
6
CONTINUOUS
10
293.3759031906
20
143.5642928067
11
293.8724005149
21
143.5642928067
0
LINE
5
31F
100
AcDbEntity
8
0
100
AcDbLine
62
7
6
CONTINUOUS
10
295.5746763883
20
143.5642928067
11
295.8583892030
21
143.5642928067
0
LINE
5
320
100
AcDbEntity
8
0
100
AcDbLine
62
7
6
CONTINUOUS
10
297.5606652794
20
143.5642928067
11
299.2629413558
21
143.5642928067
0
LINE
5
321
100
AcDbEntity
8
0
100
AcDbLine
62
7
6
CONTINUOUS
10
299.2629413558
20
144.0618434768
11
297.9862342985
21
144.0618434768
0
LINE
5
322
100
AcDbEntity
8
0
100
AcDbLine
62
7
6
CONTINUOUS
10
295.8583892030
20
144.0618434768
11
295.5746763883
21
144.0618434768
0
LINE
5
323
100
AcDbEntity
8
0
100
AcDbLine
62
7
6
CONTINUOUS
10
291.6026990120
20
145.1932446541
11
292.8084778656
21
145.1932446541
0
LINE
5
324
100
AcDbEntity
8
0
100
AcDbLine
62
7
6
CONTINUOUS
10
291.6026990120
20
145.3057201812
11
292.8084778656
21
145.3057201812
0
LINE
5
325
100
AcDbEntity
8
0
100
AcDbLine
62
7
6
CONTINUOUS
10
292.9503341715
20
145.8032707933
11
291.6026990120
21
145.8032707933
0
LINE
5
326
100
AcDbEntity
8
0
100
AcDbLine
62
7
6
CONTINUOUS
10
297.9862342985
20
146.8517469266
11
299.2629413558
21
146.8517469266
0
POLYLINE
5
327
100
AcDbEntity
8
0
100
AcDb2dPolyline
62
7
6
CONTINUOUS
66
1
70
0
0
VERTEX
5
328
100
AcDbEntity
8
0
100
AcDbVertex
62
7
6
CONTINUOUS
100
AcDb2dVertex
10
284.8145733105
20
145.7027395428
0
VERTEX
5
329
100
AcDbEntity
8
0
100
AcDbVertex
62
7
6
CONTINUOUS
100
AcDb2dVertex
10
285.6367939261
20
145.6240481936
0
VERTEX
5
32A
100
AcDbEntity
8
0
100
AcDbVertex
62
7
6
CONTINUOUS
100
AcDb2dVertex
10
286.4407101940
20
145.4720355834
0
VERTEX
5
32B
100
AcDbEntity
8
0
100
AcDbVertex
62
7
6
CONTINUOUS
100
AcDb2dVertex
10
287.2297883587
20
145.2455306529
0
VERTEX
5
32C
100
AcDbEntity
8
0
100
AcDbVertex
62
7
6
CONTINUOUS
100
AcDb2dVertex
10
287.9936296871
20
144.9480465799
0
VERTEX
5
32D
100
AcDbEntity
8
0
100
AcDbVertex
62
7
6
CONTINUOUS
100
AcDb2dVertex
10
288.7249682596
20
144.5813442488
0
VERTEX
5
32E
100
AcDbEntity
8
0
100
AcDbVertex
62
7
6
CONTINUOUS
100
AcDb2dVertex
10
289.4178718801
20
144.1495094809
0
VERTEX
5
32F
100
AcDbEntity
8
0
100
AcDbVertex
62
7
6
CONTINUOUS
100
AcDb2dVertex
10
290.0657558535
20
143.6554318371
0
VERTEX
5
330
100
AcDbEntity
8
0
100
AcDbVertex
62
7
6
CONTINUOUS
100
AcDb2dVertex
10
290.6633117565
20
143.1044609826
0
VERTEX
5
331
100
AcDbEntity
8
0
100
AcDbVertex
62
7
6
CONTINUOUS
100
AcDb2dVertex
10
291.2043177856
20
142.5009714738
0
VERTEX
5
332
100
AcDbEntity
8
0
100
AcDbVertex
62
7
6
CONTINUOUS
100
AcDb2dVertex
10
291.6849293870
20
141.8507781982
0
VERTEX
5
333
100
AcDbEntity
8
0
100
AcDbVertex
62
7
6
CONTINUOUS
100
AcDb2dVertex
10
292.1002131163
20
141.1588504655
0
VERTEX
5
334
100
AcDbEntity
8
0
100
AcDbVertex
62
7
6
CONTINUOUS
100
AcDb2dVertex
10
292.4472138428
20
140.4320995645
0
VERTEX
5
335
100
AcDbEntity
8
0
100
AcDbVertex
62
7
6
CONTINUOUS
100
AcDb2dVertex
10
292.7217904890
20
139.6768122419
0
VERTEX
5
336
100
AcDbEntity
8
0
100
AcDbVertex
62
7
6
CONTINUOUS
100
AcDb2dVertex
10
292.9225674512
20
138.8998314334
0
VERTEX
5
337
100
AcDbEntity
8
0
100
AcDbVertex
62
7
6
CONTINUOUS
100
AcDb2dVertex
10
293.0468319974
20
138.1076595350
0
VERTEX
5
338
100
AcDbEntity
8
0
100
AcDbVertex
62
7
6
CONTINUOUS
100
AcDb2dVertex
10
293.0944544341
20
137.3076049128
0
VERTEX
5
339
100
AcDbEntity
8
0
100
AcDbVertex
62
7
6
CONTINUOUS
100
AcDb2dVertex
10
293.0639606970
20
136.5067772944
0
VERTEX
5
33A
100
AcDbEntity
8
0
100
AcDbVertex
62
7
6
CONTINUOUS
100
AcDb2dVertex
10
292.9566711663
20
135.7122749918
0
VERTEX
5
33B
100
AcDbEntity
8
0
100
AcDbVertex
62
7
6
CONTINUOUS
100
AcDb2dVertex
10
292.7725542440
20
134.9313682646
0
VERTEX
5
33C
100
AcDbEntity
8
0
100
AcDbVertex
62
7
6
CONTINUOUS
100
AcDb2dVertex
10
292.5141918009
20
134.1706509984
0
VERTEX
5
33D
100
AcDbEntity
8
0
100
AcDbVertex
62
7
6
CONTINUOUS
100
AcDb2dVertex
10
292.1828250502
20
133.4370289183
0
VERTEX
5
33E
100
AcDbEntity
8
0
100
AcDbVertex
62
7
6
CONTINUOUS
100
AcDb2dVertex
10
291.7824443674
20
132.7368367650
0
VERTEX
5
33F
100
AcDbEntity
8
0
100
AcDbVertex
62
7
6
CONTINUOUS
100
AcDb2dVertex
10
291.3158382881
20
132.0770118100
0
VERTEX
5
340
100
AcDbEntity
8
0
100
AcDbVertex
62
7
6
CONTINUOUS
100
AcDb2dVertex
10
290.7878535454
20
131.4626521852
0
VERTEX
5
341
100
AcDbEntity
8
0
100
AcDbVertex
62
7
6
CONTINUOUS
100
AcDb2dVertex
10
290.2022320017
20
130.8996764117
0
VERTEX
5
342
100
AcDbEntity
8
0
100
AcDbVertex
62
7
6
CONTINUOUS
100
AcDb2dVertex
10
289.5650768047
20
130.3925605938
0
VERTEX
5
343
100
AcDbEntity
8
0
100
AcDbVertex
62
7
6
CONTINUOUS
100
AcDb2dVertex
10
288.8815568033
20
129.9467406633
0
VERTEX
5
344
100
AcDbEntity
8
0
100
AcDbVertex
62
7
6
CONTINUOUS
100
AcDb2dVertex
10
288.1582167561
20
129.5652556584
0
VERTEX
5
345
100
AcDbEntity
8
0
100
AcDbVertex
62
7
6
CONTINUOUS
100
AcDb2dVertex
10
287.4008950616
20
129.2523219325
0
VERTEX
5
346
100
AcDbEntity
8
0
100
AcDbVertex
62
7
6
CONTINUOUS
100
AcDb2dVertex
10
286.6168796490
20
129.0098434714
0
VERTEX
5
347
100
AcDbEntity
8
0
100
AcDbVertex
62
7
6
CONTINUOUS
100
AcDb2dVertex
10
285.8165588381
20
128.8415433914
0
VERTEX
5
348
100
AcDbEntity
8
0
100
AcDbVertex
62
7
6
CONTINUOUS
100
AcDb2dVertex
10
284.9964698557
20
128.7461806537
0
SEQEND
5
349
100
AcDbEntity
8
0
0
LINE
5
34A
100
AcDbEntity
8
0
100
AcDbLine
62
7
6
CONTINUOUS
10
295.2200356744
20
143.5347423888
11
295.5746763883
21
143.4518172795
0
LINE
5
34B
100
AcDbEntity
8
0
100
AcDbLine
62
7
6
CONTINUOUS
10
295.2200356744
20
143.6472179160
11
295.5746763883
21
143.5642928067
0
LINE
5
34C
100
AcDbEntity
8
0
100
AcDbLine
62
7
6
CONTINUOUS
10
293.2340469862
20
147.3788479638
11
292.8794060693
21
147.4617730658
0
LINE
5
34D
100
AcDbEntity
8
0
100
AcDbLine
62
7
6
CONTINUOUS
10
295.5746763883
20
144.0618434768
11
295.2909639795
21
144.1447685789
0
LINE
5
34E
100
AcDbEntity
8
0
100
AcDbLine
62
7
6
CONTINUOUS
10
292.9503341715
20
146.9346720286
11
293.1631186811
21
146.8517469266
0
LINE
5
34F
100
AcDbEntity
8
0
100
AcDbLine
62
7
6
CONTINUOUS
10
292.9503341715
20
147.0471475558
11
293.1631186811
21
146.9642224538
0
LINE
5
350
100
AcDbEntity
8
0
100
AcDbLine
62
7
6
CONTINUOUS
10
294.9363228597
20
143.7005926146
11
295.2200356744
21
143.5347423888
0
LINE
5
351
100
AcDbEntity
8
0
100
AcDbLine
62
7
6
CONTINUOUS
10
294.9363228597
20
143.8130681418
11
295.2200356744
21
143.6472179160
0
LINE
5
352
100
AcDbEntity
8
0
100
AcDbLine
62
7
6
CONTINUOUS
10
295.2909639795
20
144.1447685789
11
295.0781794700
21
144.3106188410
0
LINE
5
353
100
AcDbEntity
8
0
100
AcDbLine
62
7
6
CONTINUOUS
10
293.5177595980
20
147.1300726578
11
293.2340469862
21
147.3788479638
0
LINE
5
354
100
AcDbEntity
8
0
100
AcDbLine
62
7
6
CONTINUOUS
10
294.6526104509
20
144.0322930517
11
294.9363228597
21
143.7005926146
0
LINE
5
355
100
AcDbEntity
8
0
100
AcDbLine
62
7
6
CONTINUOUS
10
294.6526104509
20
144.1447685789
11
294.9363228597
21
143.8130681418
0
LINE
5
356
100
AcDbEntity
8
0
100
AcDbLine
62
7
6
CONTINUOUS
10
293.1631186811
20
146.8517469266
11
293.3049750884
21
146.6858967226
0
LINE
5
357
100
AcDbEntity
8
0
100
AcDbLine
62
7
6
CONTINUOUS
10
293.1631186811
20
146.9642224538
11
293.3049750884
21
146.7983722497
0
LINE
5
358
100
AcDbEntity
8
0
100
AcDbLine
62
7
6
CONTINUOUS
10
293.7305441075
20
146.7983722497
11
293.5177595980
21
147.1300726578
0
LINE
5
359
100
AcDbEntity
8
0
100
AcDbLine
62
7
6
CONTINUOUS
10
295.0781794700
20
144.3106188410
11
294.9363228597
21
144.5593941470
0
LINE
5
35A
100
AcDbEntity
8
0
100
AcDbLine
62
7
6
CONTINUOUS
10
304.2281029232
20
123.0907128181
11
304.4092527820
21
122.6408107095
0
LINE
5
35B
100
AcDbEntity
8
0
100
AcDbLine
62
7
6
CONTINUOUS
10
301.3771817381
20
109.0817433300
11
301.3771299933
21
109.1033270292
0
LINE
5
35C
100
AcDbEntity
8
0
100
AcDbLine
62
7
6
CONTINUOUS
10
300.3268639036
20
144.3639935178
11
300.3268639036
21
144.4764690450
0
LINE
5
35D
100
AcDbEntity
8
0
100
AcDbLine
62
7
6
CONTINUOUS
10
300.3977918029
20
144.7786190279
11
300.3977918029
21
146.1349712014
0
LINE
5
35E
100
AcDbEntity
8
0
100
AcDbLine
62
7
6
CONTINUOUS
10
300.8771299929
20
176.6720563823
11
300.8771299929
21
205.3847139083
0
LINE
5
35F
100
AcDbEntity
8
0
100
AcDbLine
62
7
6
CONTINUOUS
10
303.2771299929
20
116.7863731738
11
303.2771299929
21
118.7688764182
0
LINE
5
360
100
AcDbEntity
8
0
100
AcDbLine
62
7
6
CONTINUOUS
10
303.3771299929
20
93.5228289503
11
303.3771299929
21
119.0799571160
0
LINE
5
361
100
AcDbEntity
8
DEFAULT_2
100
AcDbLine
62
8
6
HIDDEN
10
303.3771299929
20
119.0799571160
11
303.3771299929
21
119.2536891437
0
LINE
5
362
100
AcDbEntity
8
0
100
AcDbLine
62
7
6
CONTINUOUS
10
298.6607530037
20
150.8243277261
11
295.3771299929
21
150.4792050407
0
LINE
5
363
100
AcDbEntity
8
0
100
AcDbLine
62
7
6
CONTINUOUS
10
291.6026990120
20
146.9346720286
11
292.9503341715
21
146.9346720286
0
LINE
5
364
100
AcDbEntity
8
0
100
AcDbLine
62
7
6
CONTINUOUS
10
297.9862342985
20
146.9642224538
11
299.2629413558
21
146.9642224538
0
LINE
5
365
100
AcDbEntity
8
0
100
AcDbLine
62
7
6
CONTINUOUS
10
291.6026990120
20
147.0471475558
11
292.9503341715
21
147.0471475558
0
LINE
5
366
100
AcDbEntity
8
0
100
AcDbLine
62
7
6
CONTINUOUS
10
299.2629413558
20
147.4617730658
11
297.5606652794
21
147.4617730658
0
LINE
5
367
100
AcDbEntity
8
0
100
AcDbLine
62
7
6
CONTINUOUS
10
296.9932400559
20
147.4617730658
11
296.5676710368
21
147.4617730658
0
LINE
5
368
100
AcDbEntity
8
0
100
AcDbLine
62
7
6
CONTINUOUS
10
294.8653949604
20
147.4617730658
11
294.4398257384
21
147.4617730658
0
LINE
5
369
100
AcDbEntity
8
0
100
AcDbLine
62
7
6
CONTINUOUS
10
292.8794060693
20
147.4617730658
11
291.1771299929
21
147.4617730658
0
LINE
5
36A
100
AcDbEntity
8
0
100
AcDbLine
62
7
6
CONTINUOUS
10
300.1771299929
20
149.0037443470
11
290.5771299929
21
149.0037443470
0
LINE
5
36B
100
AcDbEntity
8
0
100
AcDbLine
62
7
6
CONTINUOUS
10
300.1771299929
20
149.5631350756
11
290.5771299929
21
149.5631350756
0
LINE
5
36C
100
AcDbEntity
8
0
100
AcDbLine
62
7
6
CONTINUOUS
10
295.3771299929
20
150.4792050407
11
292.0935069821
21
150.8243277261
0
LINE
5
36D
100
AcDbEntity
8
0
100
AcDbLine
62
7
6
CONTINUOUS
10
299.6175824757
20
147.3788479638
11
299.2629413558
21
147.4617730658
0
LINE
5
36E
100
AcDbEntity
8
0
100
AcDbLine
62
7
6
CONTINUOUS
10
299.2629413558
20
146.8517469266
11
299.5466537647
21
146.7688218246
0
LINE
5
36F
100
AcDbEntity
8
0
100
AcDbLine
62
7
6
CONTINUOUS
10
299.2629413558
20
146.9642224538
11
299.5466537647
21
146.8812973518
0
LINE
5
370
100
AcDbEntity
8
0
100
AcDbLine
62
7
6
CONTINUOUS
10
299.9012948845
20
147.2129977598
11
299.6175824757
21
147.3788479638
0
LINE
5
371
100
AcDbEntity
8
0
100
AcDbLine
62
7
6
CONTINUOUS
10
299.5466537647
20
146.7688218246
11
299.7594382742
21
146.6029716206
0
LINE
5
372
100
AcDbEntity
8
0
100
AcDbLine
62
7
6
CONTINUOUS
10
299.5466537647
20
146.8812973518
11
299.7594382742
21
146.7154471477
0
LINE
5
373
100
AcDbEntity
8
0
100
AcDbLine
62
7
6
CONTINUOUS
10
300.1850072933
20
146.8812973518
11
299.9012948845
21
147.2129977598
0
LINE
5
374
100
AcDbEntity
8
0
100
AcDbLine
62
7
6
CONTINUOUS
10
299.7594382742
20
146.6029716206
11
299.9012948845
21
146.3541960822
0
LINE
5
375
100
AcDbEntity
8
0
100
AcDbLine
62
7
6
CONTINUOUS
10
299.7594382742
20
146.7154471477
11
299.9012948845
21
146.4666716094
0
LINE
5
376
100
AcDbEntity
8
0
100
AcDbLine
62
7
6
CONTINUOUS
10
300.3268639036
20
146.5495969437
11
300.1850072933
21
146.8812973518
0
LINE
5
377
100
AcDbEntity
8
0
100
AcDbLine
62
7
6
CONTINUOUS
10
299.9012948845
20
146.3541960822
11
299.9722227838
21
146.0224956742
0
LINE
5
378
100
AcDbEntity
8
0
100
AcDbLine
62
7
6
CONTINUOUS
10
299.9012948845
20
146.4666716094
11
299.9722227838
21
146.1349712014
0
LINE
5
379
100
AcDbEntity
8
0
100
AcDbLine
62
7
6
CONTINUOUS
10
300.3977918029
20
146.1349712014
11
300.3268639036
21
146.5495969437
0
LINE
5
37A
100
AcDbEntity
8
0
100
AcDbLine
62
7
6
CONTINUOUS
10
305.1264927477
20
132.6996626258
11
305.1270309698
21
132.6751149925
0
LINE
5
37B
100
AcDbEntity
8
0
100
AcDbLine
62
7
6
CONTINUOUS
10
305.9396866753
20
145.7027395428
11
305.9396866753
21
147.9371494702
0
LINE
5
37C
100
AcDbEntity
8
0
100
AcDbLine
62
7
6
CONTINUOUS
10
306.3771299929
20
166.2997954942
11
306.3771299929
21
173.8909935815
0
LINE
5
37D
100
AcDbEntity
8
0
100
AcDbLine
62
7
6
CONTINUOUS
10
306.5129857819
20
129.0450049086
11
306.9798573217
21
156.7207589043
0
LINE
5
37E
100
AcDbEntity
8
0
100
AcDbLine
62
7
6
CONTINUOUS
10
305.6002415634
20
128.0803558306
11
304.2281029232
21
123.0907128181
0
LINE
5
37F
100
AcDbEntity
8
0
100
AcDbLine
62
7
6
CONTINUOUS
10
287.6176683124
20
119.0969163238
11
287.9222011917
21
119.4349717156
0
LINE
5
380
100
AcDbEntity
8
0
100
AcDbLine
62
7
6
CONTINUOUS
10
301.0246929085
20
89.8768234716
11
298.4555211230
21
78.3155504366
0
LINE
5
381
100
AcDbEntity
8
0
100
AcDbLine
62
7
6
CONTINUOUS
10
303.8042679420
20
120.4408446922
11
304.4092527820
21
122.6408107095
0
LINE
5
382
100
AcDbEntity
8
0
100
AcDbLine
62
7
6
CONTINUOUS
10
304.4130283778
20
120.9915874816
11
304.0759927303
21
119.7659915292
0
LINE
5
383
100
AcDbEntity
8
0
100
AcDbLine
62
7
6
CONTINUOUS
10
301.5453473209
20
110.3249950857
11
302.7647247355
21
114.6967932594
0
LINE
5
384
100
AcDbEntity
8
0
100
AcDbLine
62
7
6
CONTINUOUS
10
304.4130283778
20
120.9915874816
11
306.1330064030
21
126.6421674981
0
LINE
5
385
100
AcDbEntity
8
0
100
AcDbLine
62
7
6
CONTINUOUS
10
290.5771299929
20
156.4792050407
11
291.3771299929
21
156.4792050407
0
LINE
5
386
100
AcDbEntity
8
0
100
AcDbLine
62
7
6
CONTINUOUS
10
299.3771299929
20
156.4792050407
11
300.1771299929
21
156.4792050407
0
LINE
5
387
100
AcDbEntity
8
0
100
AcDbLine
62
7
6
CONTINUOUS
10
290.5771299929
20
162.4792050407
11
291.3771299929
21
162.4792050407
0
LINE
5
388
100
AcDbEntity
8
0
100
AcDbLine
62
7
6
CONTINUOUS
10
299.3771299929
20
162.4792050407
11
300.1771299929
21
162.4792050407
0
LINE
5
389
100
AcDbEntity
8
0
100
AcDbLine
62
7
6
CONTINUOUS
10
290.5771299929
20
164.1296149551
11
300.1771299929
21
164.1296149551
0
LINE
5
38A
100
AcDbEntity
8
0
100
AcDbLine
62
7
6
CONTINUOUS
10
305.4358980576
20
168.7198932267
11
306.3771299929
21
166.2997954942
0
LINE
5
38B
100
AcDbEntity
8
DEFAULT_2
100
AcDbLine
62
8
6
HIDDEN
10
285.0667512940
20
169.8791258827
11
295.3771299929
21
170.9627903512
0
LINE
5
38C
100
AcDbEntity
8
0
100
AcDbLine
62
7
6
CONTINUOUS
10
305.4004965274
20
168.7660271101
11
285.3537634584
21
168.7660271101
0
LINE
5
38D
100
AcDbEntity
8
DEFAULT_2
100
AcDbLine
62
8
6
HIDDEN
10
295.3771299929
20
170.9627903512
11
305.6875086919
21
169.8791258827
0
LINE
5
38E
100
AcDbEntity
8
0
100
AcDbLine
62
7
6
CONTINUOUS
10
286.9124061733
20
174.5703187866
11
284.3771299929
21
173.8909935815
0
LINE
5
38F
100
AcDbEntity
8
0
100
AcDbLine
62
7
6
CONTINUOUS
10
303.8418538125
20
174.5703187866
11
306.3771299929
21
173.8909935815
0
LINE
5
390
100
AcDbEntity
8
DEFAULT_1
100
AcDbLine
62
2
6
CENTER
10
301.4242973412
20
182.9627903512
11
288.9480473428
21
182.9627903512
0
LINE
5
391
100
AcDbEntity
8
DEFAULT_2
100
AcDbLine
62
8
6
HIDDEN
10
295.3771299929
20
194.9627903512
11
300.8771299929
21
195.5408636451
0
LINE
5
392
100
AcDbEntity
8
DEFAULT_2
100
AcDbLine
62
8
6
HIDDEN
10
289.8771299929
20
195.5408636451
11
295.3771299929
21
194.9627903512
0
LINE
5
393
100
AcDbEntity
8
0
100
AcDbLine
62
7
6
CONTINUOUS
10
295.3771299929
20
205.9627903512
11
289.8771299929
21
205.3847170572
0
LINE
5
394
100
AcDbEntity
8
0
100
AcDbLine
62
7
6
CONTINUOUS
10
300.8771299929
20
205.3847170572
11
295.3771299929
21
205.9627903512
0
ARC
5
395
100
AcDbEntity
8
0
100
AcDbCircle
62
7
6
CONTINUOUS
10
88.5263743836
20
132.6723734961
40
0.7500000000
100
AcDbArc
50
71.2517715505
51
238.0177175434
0
ARC
5
396
100
AcDbEntity
8
0
100
AcDbCircle
62
7
6
CONTINUOUS
10
88.5579928824
20
134.1429517057
40
0.7500000000
100
AcDbArc
50
73.4268037703
51
243.6677760211
0
ARC
5
397
100
AcDbEntity
8
0
100
AcDbCircle
62
7
6
CONTINUOUS
10
89.6614184525
20
135.3660837556
40
0.7500000000
100
AcDbArc
50
85.6356880083
51
240.1993369468
0
ARC
5
398
100
AcDbEntity
8
0
100
AcDbCircle
62
7
6
CONTINUOUS
10
90.4699514931
20
141.0909308559
40
0.7500000000
100
AcDbArc
50
95.9822824566
51
262.7482284495
0
ARC
5
399
100
AcDbEntity
8
0
100
AcDbCircle
62
7
6
CONTINUOUS
10
88.9944340101
20
166.9660271101
40
1.8000000000
100
AcDbArc
50
77.0000000000
51
144.3409930166
0
ARC
5
39A
100
AcDbEntity
8
0
100
AcDbCircle
62
7
6
CONTINUOUS
10
89.8537109554
20
139.7553232789
40
0.7500000000
100
AcDbArc
50
90.3322239789
51
260.5731962297
0
ARC
5
39B
100
AcDbEntity
8
0
100
AcDbCircle
62
7
6
CONTINUOUS
10
88.2511625948
20
165.7948170050
40
1.8000000000
100
AcDbArc
50
150.8590850284
51
217.7909288251
0
ARC
5
39C
100
AcDbEntity
8
0
100
AcDbCircle
62
7
6
CONTINUOUS
10
90.3092774890
20
138.1722695421
40
0.7500000000
100
AcDbArc
50
93.8007381438
51
248.3641835981
0
ARC
5
39D
100
AcDbEntity
8
0
100
AcDbCircle
62
7
6
CONTINUOUS
10
89.4981629384
20
136.8816521760
40
0.7500000000
100
AcDbArc
50
88.4531935494
51
245.5471063144
0
ARC
5
39E
100
AcDbEntity
8
0
100
AcDbCircle
62
7
6
CONTINUOUS
10
98.3072834694
20
159.4792050407
40
7.0000000000
100
AcDbArc
50
336.7924056783
51
77.0000000000
0
ARC
5
39F
100
AcDbEntity
8
0
100
AcDbCircle
62
7
6
CONTINUOUS
10
98.9069440289
20
159.8539145459
40
14.0000000000
100
AcDbArc
50
144.3409930166
51
150.8590850284
0
ARC
5
3A0
100
AcDbEntity
8
0
100
AcDbCircle
62
7
6
CONTINUOUS
10
71.0236681433
20
152.4361705570
40
20.0000000000
100
AcDbArc
50
347.0000000000
51
37.7909288251
0
CIRCLE
5
3A1
100
AcDbEntity
8
0
100
AcDbCircle
62
7
6
CONTINUOUS
10
98.3072834694
20
159.4792050407
40
3.0000000000
0
ARC
5
3A2
100
AcDbEntity
8
0
100
AcDbCircle
62
7
6
CONTINUOUS
10
66.0082771081
20
105.9627900758
40
30.0000000000
100
AcDbArc
50
10.0154101683
51
35.4621154933
0
ARC
5
3A3
100
AcDbEntity
8
0
100
AcDbCircle
62
7
6
CONTINUOUS
10
111.3072835341
20
113.9627899847
40
16.0000000000
100
AcDbArc
50
190.0154101683
51
14.9999995405
0
ARC
5
3A4
100
AcDbEntity
8
0
100
AcDbCircle
62
7
6
CONTINUOUS
10
105.3027780071
20
120.9170965902
40
20.0000000000
100
AcDbArc
50
15.0000000000
51
37.5000000000
0
ARC
5
3A5
100
AcDbEntity
8
0
100
AcDbCircle
62
7
6
CONTINUOUS
10
104.8566441265
20
149.4240633220
40
3.0000000000
100
AcDbArc
50
37.5000000000
51
123.0779859752
0
ARC
5
3A6
100
AcDbEntity
8
0
100
AcDbCircle
62
7
6
CONTINUOUS
10
98.3072834694
20
159.4792050407
40
9.0000000000
100
AcDbArc
50
297.8621359502
51
303.0779859752
0
ARC
5
3A7
100
AcDbEntity
8
0
100
AcDbCircle
62
7
6
CONTINUOUS
10
98.3072834694
20
159.4792050407
40
9.0000000000
100
AcDbArc
50
174.1401387436
51
214.7661424222
0
ARC
5
3A8
100
AcDbEntity
8
0
100
AcDbCircle
62
7
6
CONTINUOUS
10
89.9684116469
20
168.1084122307
40
3.0000000000
100
AcDbArc
50
355.9807807465
51
34.8424808085
0
ARC
5
3A9
100
AcDbEntity
8
0
100
AcDbCircle
62
7
6
CONTINUOUS
10
138.3072834694
20
160.6917328999
40
12.0000000000
100
AcDbArc
50
140.4823472028
51
180.0000000001
0
ARC
5
3AA
100
AcDbEntity
8
0
100
AcDbCircle
62
7
6
CONTINUOUS
10
138.3072834694
20
156.7671851464
40
12.0000000000
100
AcDbArc
50
180.0000000000
51
230.0000000000
0
ARC
5
3AB
100
AcDbEntity
8
0
100
AcDbCircle
62
7
6
CONTINUOUS
10
111.3072834694
20
111.5416961429
40
40.0000000000
100
AcDbArc
50
0.0000000000
51
50.0000000000
0
ARC
5
3AC
100
AcDbEntity
8
0
100
AcDbCircle
62
7
6
CONTINUOUS
10
119.6372834694
20
111.5416961429
40
31.6700000000
100
AcDbArc
50
306.3116240220
51
360.0000000000
0
ARC
5
3AD
100
AcDbEntity
8
0
100
AcDbCircle
62
7
6
CONTINUOUS
10
113.8161867905
20
119.4627903512
40
41.5000000000
100
AcDbArc
50
267.7628867813
51
306.3116240220
0
ARC
5
3AE
100
AcDbEntity
8
0
100
AcDbCircle
62
7
6
CONTINUOUS
10
113.3672834694
20
107.9715551779
40
30.0000000000
100
AcDbArc
50
197.7767325868
51
267.7628867813
0
ARC
5
3AF
100
AcDbEntity
8
0
100
AcDbCircle
62
7
6
CONTINUOUS
10
89.3072834694
20
117.5068839279
40
10.0000000000
100
AcDbArc
50
120.0000000000
51
197.7767325868
0
ARC
5
3B0
100
AcDbEntity
8
0
100
AcDbCircle
62
7
6
CONTINUOUS
10
86.3552668071
20
124.4627903512
40
2.5000000000
100
AcDbArc
50
106.5207239003
51
120.0000000000
0
CIRCLE
5
3B1
100
AcDbEntity
8
0
100
AcDbCircle
62
7
6
CONTINUOUS
10
111.3072834694
20
182.9627903512
40
12.0000000000
0
ARC
5
3B2
100
AcDbEntity
8
0
100
AcDbCircle
62
7
6
CONTINUOUS
10
98.3072834694
20
159.4792050407
40
9.0000000000
100
AcDbArc
50
25.0000000000
51
79.8211708399
0
ARC
5
3B3
100
AcDbEntity
8
0
100
AcDbCircle
62
7
6
CONTINUOUS
10
135.8075143729
20
152.6191141455
40
16.0000000000
100
AcDbArc
50
158.4135781307
51
216.5252694098
0
ARC
5
3B4
100
AcDbEntity
8
0
100
AcDbCircle
62
7
6
CONTINUOUS
10
111.3072834694
20
182.9627903512
40
23.0000000000
100
AcDbArc
50
320.4823472028
51
214.8424808085
0
ARC
5
3B5
100
AcDbEntity
8
0
100
AcDbCircle
62
7
6
CONTINUOUS
10
66.0082771081
20
105.9627900758
40
29.7897915295
100
AcDbArc
50
22.5022799441
51
35.2175624591
0
ARC
5
3B6
100
AcDbEntity
8
0
100
AcDbCircle
62
7
6
CONTINUOUS
10
111.3072834694
20
182.9627903512
40
22.6846872942
100
AcDbArc
50
342.0264328286
51
17.9735671715
0
ARC
5
3B7
100
AcDbEntity
8
0
100
AcDbCircle
62
7
6
CONTINUOUS
10
111.3072834694
20
182.9627903512
40
12.3153127058
100
AcDbArc
50
325.3614061677
51
34.6385938323
0
ARC
5
3B8
100
AcDbEntity
8
DEFAULT_2
100
AcDbCircle
62
8
6
HIDDEN
10
291.3771299929
20
93.5203399253
40
4.0000000000
100
AcDbArc
50
96.0000000000
51
168.7490281558
0
ARC
5
3B9
100
AcDbEntity
8
DEFAULT_2
100
AcDbCircle
62
8
6
HIDDEN
10
299.3771299929
20
93.5203399253
40
4.0000000000
100
AcDbArc
50
11.2509718442
51
84.0000000000
0
ARC
5
3BA
100
AcDbEntity
8
0
100
AcDbCircle
62
7
6
CONTINUOUS
10
292.1771299929
20
151.6199452172
40
0.8000000000
100
AcDbArc
50
180.0000000000
51
263.9999827039
0
ARC
5
3BB
100
AcDbEntity
8
0
100
AcDbCircle
62
7
6
CONTINUOUS
10
291.3771299929
20
93.5203399253
40
4.0000000000
100
AcDbArc
50
181.3111904707
51
246.2254908798
0
ARC
5
3BC
100
AcDbEntity
8
0
100
AcDbCircle
62
7
6
CONTINUOUS
10
298.5771299929
20
151.6199452172
40
0.8000000000
100
AcDbArc
50
276.0000172961
51
360.0000000000
0
ARC
5
3BD
100
AcDbEntity
8
0
100
AcDbCircle
62
7
6
CONTINUOUS
10
304.8771299929
20
178.4340220917
40
4.0000000000
100
AcDbArc
50
180.0000000000
51
255.0000000000
0
ARC
5
3BE
100
AcDbEntity
8
0
100
AcDbCircle
62
7
6
CONTINUOUS
10
299.3771299929
20
93.5203399253
40
4.0000000000
100
AcDbArc
50
293.7745091202
51
358.6888095293
0
ARC
5
3BF
100
AcDbEntity
8
0
100
AcDbCircle
62
7
6
CONTINUOUS
10
285.8771299929
20
178.4340220917
40
4.0000000000
100
AcDbArc
50
285.0000000000
51
360.0000000000
0
SPLINE
5
3C0
100
AcDbEntity
8
0
100
AcDbSpline
62
7
6
CONTINUOUS
70
0
71
3
72
12
73
8
74
6
42
0.0000001000
43
0.0000001000
44
0.0000000001
40
0.0000000000
40
0.0000000000
40
0.0000000000
40
0.0000000000
40
0.0312337486
40
0.1739487425
40
0.4077154095
40
0.6994732430
40
1.0000000000
40
1.0000000000
40
1.0000000000
40
1.0000000000
10
90.3872552616
20
141.8301925608
30
0.0000000000
10
90.3939570173
20
141.8276715831
30
0.0000000000
10
90.4361388469
20
141.7965350763
30
0.0000000000
10
90.4233880401
20
141.6846191750
30
0.0000000000
10
90.4546020749
20
141.5246888504
30
0.0000000000
10
90.4562103386
20
141.3160464408
30
0.0000000000
10
90.4587163959
20
141.1687179675
30
0.0000000000
10
90.4580767679
20
141.0936723522
30
0.0000000000
11
90.3872552616
21
141.8301925608
31
0.0000000000
11
90.4075697530
21
141.8159544450
31
0.0000000000
11
90.4304545220
21
141.7115147978
31
0.0000000000
11
90.4472384658
21
141.5371904111
31
0.0000000000
11
90.4565215553
21
141.3188120040
31
0.0000000000
11
90.4580767679
21
141.0936723522
31
0.0000000000
0
SPLINE
5
3C1
100
AcDbEntity
8
0
100
AcDbSpline
62
7
6
CONTINUOUS
70
0
71
3
72
14
73
10
74
8
42
0.0000001000
43
0.0000001000
44
0.0000000001
40
0.0000000000
40
0.0000000000
40
0.0000000000
40
0.0000000000
40
0.0295800827
40
0.1056948840
40
0.2167948980
40
0.3685479407
40
0.5595622621
40
0.7755751835
40
1.0000000000
40
1.0000000000
40
1.0000000000
40
1.0000000000
10
89.5190312953
20
137.6292821796
30
0.0000000000
10
89.5271201850
20
137.6291727802
30
0.0000000000
10
89.5549399303
20
137.6237536274
30
0.0000000000
10
89.5849560425
20
137.5655847255
30
0.0000000000
10
89.6019275996
20
137.4800812400
30
0.0000000000
10
89.6074205511
20
137.3582598784
30
0.0000000000
10
89.5986289283
20
137.2106901156
30
0.0000000000
10
89.5763006018
20
137.0445030432
30
0.0000000000
10
89.5533992208
20
136.9299604395
30
0.0000000000
10
89.5400156261
20
136.8719897217
30
0.0000000000
11
89.5190312953
21
137.6292821796
31
0.0000000000
11
89.5416588568
21
137.6243427911
31
0.0000000000
11
89.5773770607
21
137.5754689004
31
0.0000000000
11
89.5981093495
21
137.4895769387
31
0.0000000000
11
89.6050752054
21
137.3690877847
31
0.0000000000
11
89.5972628830
21
137.2173736569
31
0.0000000000
11
89.5748355092
21
137.0470471361
31
0.0000000000
11
89.5400156261
21
136.8719897217
31
0.0000000000
0
SPLINE
5
3C2
100
AcDbEntity
8
0
100
AcDbSpline
62
7
6
CONTINUOUS
70
0
71
3
72
13
73
9
74
7
42
0.0000001000
43
0.0000001000
44
0.0000000001
40
0.0000000000
40
0.0000000000
40
0.0000000000
40
0.0000000000
40
0.0094680224
40
0.0966458363
40
0.2442635701
40
0.4559019488
40
0.7166275341
40
1.0000000000
40
1.0000000000
40
1.0000000000
40
1.0000000000
10
88.7724549721
20
134.8613442583
30
0.0000000000
10
88.7746924944
20
134.8607943681
30
0.0000000000
10
88.7968034583
20
134.8534028761
30
0.0000000000
10
88.8298807348
20
134.7844769294
30
0.0000000000
10
88.8270147197
20
134.6714095060
30
0.0000000000
10
88.8055658057
20
134.5087296261
30
0.0000000000
10
88.7552331073
20
134.3180290104
30
0.0000000000
10
88.7089144112
20
134.1833309145
30
0.0000000000
10
88.6821748102
20
134.1142820487
30
0.0000000000
11
88.7724549721
21
134.8613442583
31
0.0000000000
11
88.7789381450
21
134.8591553411
31
0.0000000000
11
88.8171051650
21
134.8024675713
31
0.0000000000
11
88.8257166642
21
134.6870703006
31
0.0000000000
11
88.8042292471
21
134.5225634952
31
0.0000000000
11
88.7544265245
21
134.3243402764
31
0.0000000000
11
88.6821748102
21
134.1142820487
31
0.0000000000
0
SPLINE
5
3C3
100
AcDbEntity
8
0
100
AcDbSpline
62
7
6
CONTINUOUS
70
0
71
3
72
13
73
9
74
7
42
0.0000001000
43
0.0000001000
44
0.0000000001
40
0.0000000000
40
0.0000000000
40
0.0000000000
40
0.0000000000
40
0.0064617905
40
0.0701499143
40
0.2115652116
40
0.4236391080
40
0.6931636885
40
1.0000000000
40
1.0000000000
40
1.0000000000
40
1.0000000000
10
88.7685218589
20
133.3804003092
30
0.0000000000
10
88.7697513857
20
133.3804302983
30
0.0000000000
10
88.7818543534
20
133.3787711285
30
0.0000000000
10
88.7676834408
20
133.2982471580
30
0.0000000000
10
88.7427885277
20
133.2174689510
30
0.0000000000
10
88.6854087236
20
133.0592617606
30
0.0000000000
10
88.6091154858
20
132.8790502442
30
0.0000000000
10
88.5479750884
20
132.7452609219
30
0.0000000000
10
88.5144996584
20
132.6751149925
30
0.0000000000
11
88.7685218589
21
133.3804003092
31
0.0000000000
11
88.7718385294
21
133.3799121631
31
0.0000000000
11
88.7730342058
21
133.3315287159
31
0.0000000000
11
88.7451706036
21
133.2277387335
31
0.0000000000
11
88.6902642944
21
133.0762199280
31
0.0000000000
11
88.6115519736
21
132.8871299696
31
0.0000000000
11
88.5144996584
21
132.6751149925
31
0.0000000000
0
SPLINE
5
3C4
100
AcDbEntity
8
0
100
AcDbSpline
62
7
6
CONTINUOUS
70
0
71
3
72
13
73
9
74
7
42
0.0000001000
43
0.0000001000
44
0.0000000001
40
0.0000000000
40
0.0000000000
40
0.0000000000
40
0.0000000000
40
0.0248956123
40
0.1252758799
40
0.2849263535
40
0.4942073992
40
0.7374965142
40
1.0000000000
40
1.0000000000
40
1.0000000000
40
1.0000000000
10
89.8483681396
20
140.5026597658
30
0.0000000000
10
89.8552455789
20
140.5032233832
30
0.0000000000
10
89.8889571480
20
140.5007625649
30
0.0000000000
10
89.9339406207
20
140.4194511656
30
0.0000000000
10
89.9651122490
20
140.3016757594
30
0.0000000000
10
89.9859009301
20
140.1320059335
30
0.0000000000
10
89.9906627839
20
139.9370261173
30
0.0000000000
10
89.9839469219
20
139.7982874660
30
0.0000000000
10
89.9778928832
20
139.7266536219
30
0.0000000000
11
89.8483681396
21
140.5026597658
31
0.0000000000
11
89.8680940731
21
140.5009306302
31
0.0000000000
11
89.9210391990
21
140.4376994233
31
0.0000000000
11
89.9595729832
21
140.3123216909
31
0.0000000000
11
89.9821044189
21
140.1418632183
31
0.0000000000
11
89.9882017170
21
139.9420747420
31
0.0000000000
11
89.9778928832
21
139.7266536219
31
0.0000000000
0
SPLINE
5
3C5
100
AcDbEntity
8
0
100
AcDbSpline
62
7
6
CONTINUOUS
70
0
71
3
72
15
73
11
74
9
42
0.0000001000
43
0.0000001000
44
0.0000000001
40
0.0000000000
40
0.0000000000
40
0.0000000000
40
0.0000000000
40
0.0246274090
40
0.0835069294
40
0.1740238934
40
0.2968348061
40
0.4479568096
40
0.6195633403
40
0.8057123645
40
1.0000000000
40
1.0000000000
40
1.0000000000
40
1.0000000000
10
89.7183665022
20
136.1133934740
30
0.0000000000
10
89.7227434257
20
136.1110091396
30
0.0000000000
10
89.7363693783
20
136.0884625976
30
0.0000000000
10
89.7283631403
20
136.0463759327
30
0.0000000000
10
89.7234913171
20
135.9781002813
30
0.0000000000
10
89.7054415768
20
135.8888911575
30
0.0000000000
10
89.6817533484
20
135.7801616637
30
0.0000000000
10
89.6504744311
20
135.6569663550
30
0.0000000000
10
89.6137958286
20
135.5240645732
30
0.0000000000
10
89.5866232845
20
135.4330163240
30
0.0000000000
10
89.5723003459
20
135.3866582916
30
0.0000000000
11
89.7183665022
21
136.1133934740
31
0.0000000000
11
89.7292611529
21
136.0979149994
31
0.0000000000
11
89.7304709508
21
136.0538189265
31
0.0000000000
11
89.7228545349
21
135.9864324793
31
0.0000000000
11
89.7066432116
21
135.8958616743
31
0.0000000000
11
89.6822551841
21
135.7852985504
31
0.0000000000
11
89.6509587833
21
135.6605978571
31
0.0000000000
11
89.6138826951
21
135.5261532087
31
0.0000000000
11
89.5723003459
21
135.3866582916
31
0.0000000000
0
SPLINE
5
3C6
100
AcDbEntity
8
0
100
AcDbSpline
62
7
6
CONTINUOUS
70
0
71
3
72
10
73
6
74
4
42
0.0000001000
43
0.0000001000
44
0.0000000001
40
0.0000000000
40
0.0000000000
40
0.0000000000
40
0.0000000000
40
0.3175523106
40
0.6514139224
40
1.0000000000
40
1.0000000000
40
1.0000000000
40
1.0000000000
10
87.2854578567
20
130.4033677392
30
0.0000000000
10
87.1674666165
20
130.2212755309
30
0.0000000000
10
86.9191132350
20
129.8517830560
30
0.0000000000
10
86.5183343073
20
129.2982189858
30
0.0000000000
10
86.2309079740
20
128.9308536364
30
0.0000000000
10
86.0804851824
20
128.7461806537
30
0.0000000000
11
87.2854578567
21
130.4033677392
31
0.0000000000
11
86.9223085393
21
129.8631473036
31
0.0000000000
11
86.5209051454
21
129.3088620886
31
0.0000000000
11
86.0804851824
21
128.7461806537
31
0.0000000000
0
SPLINE
5
3C7
100
AcDbEntity
8
0
100
AcDbSpline
62
7
6
CONTINUOUS
70
0
71
3
72
12
73
8
74
6
42
0.0000001000
43
0.0000001000
44
0.0000000001
40
0.0000000000
40
0.0000000000
40
0.0000000000
40
0.0000000000
40
0.3005267570
40
0.5922845905
40
0.8260512575
40
0.9687662514
40
1.0000000000
40
1.0000000000
40
1.0000000000
40
1.0000000000
10
88.5144996584
20
132.6751149925
30
0.0000000000
10
88.4821767198
20
132.6073840458
30
0.0000000000
10
88.4153397386
20
132.4760646744
30
0.0000000000
10
88.3224314284
20
132.2892431352
30
0.0000000000
10
88.2242675999
20
132.1591820439
30
0.0000000000
10
88.1866672472
20
132.0530031123
30
0.0000000000
10
88.1351051237
20
132.0435091023
30
0.0000000000
10
88.1279765016
20
132.0441811190
30
0.0000000000
11
88.5144996584
21
132.6751149925
31
0.0000000000
11
88.4144071152
21
132.4734425742
31
0.0000000000
11
88.3103327369
21
132.2812348007
31
0.0000000000
11
88.2188286468
21
132.1319106765
31
0.0000000000
11
88.1524766248
21
132.0480729658
31
0.0000000000
11
88.1279765016
21
132.0441811190
31
0.0000000000
0
SPLINE
5
3C8
100
AcDbEntity
8
0
100
AcDbSpline
62
7
6
CONTINUOUS
70
0
71
3
72
13
73
9
74
7
42
0.0000001000
43
0.0000001000
44
0.0000000001
40
0.0000000000
40
0.0000000000
40
0.0000000000
40
0.0000000000
40
0.2625034858
40
0.5057926008
40
0.7150736465
40
0.8747241201
40
0.9751043877
40
1.0000000000
40
1.0000000000
40
1.0000000000
40
1.0000000000
10
88.6821748102
20
134.1142820487
30
0.0000000000
10
88.6562139338
20
134.0472440602
30
0.0000000000
10
88.6014310888
20
133.9196025463
30
0.0000000000
10
88.5116776373
20
133.7464433077
30
0.0000000000
10
88.4186145384
20
133.6030582363
30
0.0000000000
10
88.3389683246
20
133.5108671448
30
0.0000000000
10
88.2628928758
20
133.4575043997
30
0.0000000000
10
88.2315143664
20
133.4700708101
30
0.0000000000
10
88.2255800385
20
133.4735922570
30
0.0000000000
11
88.6821748102
21
134.1142820487
31
0.0000000000
11
88.5970059252
21
133.9161437332
31
0.0000000000
11
88.5039442065
21
133.7392479198
31
0.0000000000
11
88.4089690101
21
133.5959179907
31
0.0000000000
11
88.3193730939
21
133.5001213305
31
0.0000000000
11
88.2440675933
21
133.4664991137
31
0.0000000000
11
88.2255800385
21
133.4735922570
31
0.0000000000
0
SPLINE
5
3C9
100
AcDbEntity
8
0
100
AcDbSpline
62
7
6
CONTINUOUS
70
0
71
3
72
13
73
9
74
7
42
0.0000001000
43
0.0000001000
44
0.0000000001
40
0.0000000000
40
0.0000000000
40
0.0000000000
40
0.0000000000
40
0.2580812807
40
0.4952514057
40
0.7083493409
40
0.8806382280
40
0.9849816895
40
1.0000000000
40
1.0000000000
40
1.0000000000
40
1.0000000000
10
89.5723003459
20
135.3866582916
30
0.0000000000
10
89.5536747088
20
135.3263740223
30
0.0000000000
10
89.5165982960
20
135.2104044057
30
0.0000000000
10
89.4584489160
20
135.0500372400
30
0.0000000000
10
89.4046349846
20
134.8992000171
30
0.0000000000
10
89.3513228362
20
134.8135508424
30
0.0000000000
10
89.3226998886
20
134.7110496417
30
0.0000000000
10
89.2953624590
20
134.7211999789
30
0.0000000000
10
89.2920125016
20
134.7230233952
30
0.0000000000
11
89.5723003459
21
135.3866582916
31
0.0000000000
11
89.5140607777
21
135.2065524336
31
0.0000000000
11
89.4559295249
21
135.0426022169
31
0.0000000000
11
89.3984656540
21
134.8972539211
31
0.0000000000
11
89.3450764639
21
134.7827222698
31
0.0000000000
11
89.3019944156
21
134.7194705175
31
0.0000000000
11
89.2920125016
21
134.7230233952
31
0.0000000000
0
SPLINE
5
3CA
100
AcDbEntity
8
0
100
AcDbSpline
62
7
6
CONTINUOUS
70
0
71
3
72
13
73
9
74
7
42
0.0000001000
43
0.0000001000
44
0.0000000001
40
0.0000000000
40
0.0000000000
40
0.0000000000
40
0.0000000000
40
0.3068363115
40
0.5763608920
40
0.7884347884
40
0.9298500857
40
0.9935382095
40
1.0000000000
40
1.0000000000
40
1.0000000000
40
1.0000000000
10
90.4580767679
20
141.0936723522
30
0.0000000000
10
90.4574143336
20
141.0159509459
30
0.0000000000
10
90.4537175801
20
140.8688997134
30
0.0000000000
10
90.4432899589
20
140.6734819212
30
0.0000000000
10
90.4255091177
20
140.5061325899
30
0.0000000000
10
90.4124736822
20
140.4226164067
30
0.0000000000
10
90.3899110287
20
140.3440298223
30
0.0000000000
10
90.3783056212
20
140.3478441622
30
0.0000000000
10
90.3772136763
20
140.3484101053
30
0.0000000000
11
90.4580767679
21
141.0936723522
31
0.0000000000
11
90.4523655623
21
140.8605696183
31
0.0000000000
11
90.4402201458
21
140.6561114792
31
0.0000000000
11
90.4231481370
21
140.4958579372
31
0.0000000000
11
90.4026932432
21
140.3903575197
31
0.0000000000
11
90.3804086691
21
140.3473949154
31
0.0000000000
11
90.3772136763
21
140.3484101053
31
0.0000000000
0
SPLINE
5
3CB
100
AcDbEntity
8
0
100
AcDbSpline
62
7
6
CONTINUOUS
70
0
71
3
72
13
73
9
74
7
42
0.0000001000
43
0.0000001000
44
0.0000000001
40
0.0000000000
40
0.0000000000
40
0.0000000000
40
0.0000000000
40
0.2833724659
40
0.5440980512
40
0.7557364299
40
0.9033541637
40
0.9905319776
40
1.0000000000
40
1.0000000000
40
1.0000000000
40
1.0000000000
10
89.9778928832
20
139.7266536219
30
0.0000000000
10
89.9716572469
20
139.6528710428
30
0.0000000000
10
89.9542404564
20
139.5115004162
30
0.0000000000
10
89.9158815385
20
139.3180354355
30
0.0000000000
10
89.8638455292
20
139.1624171429
30
0.0000000000
10
89.8168559904
20
139.0595364377
30
0.0000000000
10
89.7569111849
20
139.0120863307
30
0.0000000000
10
89.7337977654
20
139.0151357104
30
0.0000000000
10
89.7315456377
20
139.0156223375
30
0.0000000000
11
89.9778928832
21
139.7266536219
31
0.0000000000
11
89.9507488277
21
139.5061814706
31
0.0000000000
11
89.9086158785
21
139.3061875451
31
0.0000000000
11
89.8558136042
21
139.1489103441
31
0.0000000000
11
89.7974868060
21
139.0489669971
31
0.0000000000
11
89.7383322331
21
139.0147476874
31
0.0000000000
11
89.7315456377
21
139.0156223375
31
0.0000000000
0
SPLINE
5
3CC
100
AcDbEntity
8
0
100
AcDbSpline
62
7
6
CONTINUOUS
70
0
71
3
72
15
73
11
74
9
42
0.0000001000
43
0.0000001000
44
0.0000000001
40
0.0000000000
40
0.0000000000
40
0.0000000000
40
0.0000000000
40
0.1943469235
40
0.3804308184
40
0.5518705557
40
0.7028392845
40
0.8256438861
40
0.9163060355
40
0.9753499822
40
1.0000000000
40
1.0000000000
40
1.0000000000
40
1.0000000000
10
90.2201593824
20
138.1928440782
30
0.0000000000
10
90.2127085895
20
138.1448852107
30
0.0000000000
10
90.1972184603
20
138.0511430356
30
0.0000000000
10
90.1719325990
20
137.9156578382
30
0.0000000000
10
90.1460623395
20
137.7913146000
30
0.0000000000
10
90.1197140260
20
137.6832859441
30
0.0000000000
10
90.0968440589
20
137.5951918584
30
0.0000000000
10
90.0712714484
20
137.5316245867
30
0.0000000000
10
90.0600297527
20
137.4901855911
30
0.0000000000
10
90.0378484300
20
137.4758724602
30
0.0000000000
10
90.0328619791
20
137.4756393939
30
0.0000000000
11
90.2201593824
21
138.1928440782
31
0.0000000000
11
90.1963755509
21
138.0491971676
31
0.0000000000
11
90.1707717505
21
137.9121564852
31
0.0000000000
11
90.1442637469
21
137.7864809024
31
0.0000000000
11
90.1177497713
21
137.6765284307
31
0.0000000000
11
90.0926307977
21
137.5880199857
31
0.0000000000
11
90.0699166748
21
137.5240073851
31
0.0000000000
11
90.0494583357
21
137.4847875202
31
0.0000000000
11
90.0328619791
21
137.4756393939
31
0.0000000000
0
SPLINE
5
3CD
100
AcDbEntity
8
0
100
AcDbSpline
62
7
6
CONTINUOUS
70
0
71
3
72
14
73
10
74
8
42
0.0000001000
43
0.0000001000
44
0.0000000001
40
0.0000000000
40
0.0000000000
40
0.0000000000
40
0.0000000000
40
0.2210977961
40
0.4392802601
40
0.6324328964
40
0.7802181799
40
0.8903318634
40
0.9696966391
40
1.0000000000
40
1.0000000000
40
1.0000000000
40
1.0000000000
10
89.5400156261
20
136.8719897217
30
0.0000000000
10
89.5268304001
20
136.8148782335
30
0.0000000000
10
89.4973279135
20
136.7021785696
30
0.0000000000
10
89.4445783018
20
136.5427205640
30
0.0000000000
10
89.3877789047
20
136.4061748311
30
0.0000000000
10
89.3298596906
20
136.2996528996
30
0.0000000000
10
89.2777559034
20
136.2306228202
30
0.0000000000
10
89.2251146163
20
136.1895753999
30
0.0000000000
10
89.1966763479
20
136.1971655504
30
0.0000000000
10
89.1891736127
20
136.2007086753
30
0.0000000000
11
89.5400156261
21
136.8719897217
31
0.0000000000
11
89.4953241671
21
136.7019226058
31
0.0000000000
11
89.4403867106
21
136.5373261486
31
0.0000000000
11
89.3802350831
21
136.3959765130
31
0.0000000000
11
89.3228136523
21
136.2934227292
31
0.0000000000
11
89.2675645418
21
136.2254754761
31
0.0000000000
11
89.2122266417
21
136.1951143228
31
0.0000000000
11
89.1891736127
21
136.2007086753
31
0.0000000000
0
SPLINE
5
3CE
100
AcDbEntity
8
0
100
AcDbSpline
62
7
6
CONTINUOUS
70
0
71
3
72
13
73
9
74
7
42
0.0000001000
43
0.0000001000
44
0.0000000001
40
0.0000000000
40
0.0000000000
40
0.0000000000
40
0.0000000000
40
0.0149768916
40
0.1192418900
40
0.2915671746
40
0.5047159394
40
0.7419132171
40
1.0000000000
40
1.0000000000
40
1.0000000000
40
1.0000000000
10
90.2591701574
20
138.9122043325
30
0.0000000000
10
90.2629684424
20
138.9123805489
30
0.0000000000
10
90.2919426793
20
138.9095784734
30
0.0000000000
10
90.2727941079
20
138.8048550611
30
0.0000000000
10
90.2831508603
20
138.7045534689
30
0.0000000000
10
90.2654009989
20
138.5453377843
30
0.0000000000
10
90.2473605655
20
138.3756928678
30
0.0000000000
10
90.2298460614
20
138.2551947790
30
0.0000000000
10
90.2201593824
20
138.1928440782
30
0.0000000000
11
90.2591701574
21
138.9122043325
31
0.0000000000
11
90.2696661972
21
138.9110452200
31
0.0000000000
11
90.2806764274
21
138.8353678897
31
0.0000000000
11
90.2784623602
21
138.7089938032
31
0.0000000000
11
90.2663932832
21
138.5531245467
31
0.0000000000
11
90.2467682266
21
138.3802605774
31
0.0000000000
11
90.2201593824
21
138.1928440782
31
0.0000000000
0
SPLINE
5
3CF
100
AcDbEntity
8
0
100
AcDbSpline
62
7
6
CONTINUOUS
70
0
71
3
72
39
73
35
74
33
42
0.0000001000
43
0.0000001000
44
0.0000000001
40
0.0000000000
40
0.0000000000
40
0.0000000000
40
0.0000000000
40
0.0081149091
40
0.0163029896
40
0.0244691566
40
0.0325725479
40
0.0407051952
40
0.0492646834
40
0.0586790465
40
0.0693659646
40
0.0814669845
40
0.0949143194
40
0.1096870966
40
0.1259175165
40
0.1437816044
40
0.1634650399
40
0.1851846377
40
0.2092792338
40
0.2361301071
40
0.2660083871
40
0.2988132752
40
0.3343737577
40
0.3729382499
40
0.4154697486
40
0.4624291475
40
0.5122162129
40
0.5631044664
40
0.6148580115
40
0.6678812563
40
0.7234322140
40
0.7829585761
40
0.8479069642
40
0.9197740826
40
1.0000000000
40
1.0000000000
40
1.0000000000
40
1.0000000000
10
89.9836678990
20
136.7695645240
30
0.0000000000
10
89.9891499091
20
136.7933097182
30
0.0000000000
10
90.0000760714
20
136.8410344153
30
0.0000000000
10
90.0162116831
20
136.9127241853
30
0.0000000000
10
90.0320753213
20
136.9844392127
30
0.0000000000
10
90.0476403746
20
137.0560492825
30
0.0000000000
10
90.0631897849
20
137.1288710039
30
0.0000000000
10
90.0792725882
20
137.2056040065
30
0.0000000000
10
90.0965873512
20
137.2899155162
30
0.0000000000
10
90.1156120523
20
137.3847324625
30
0.0000000000
10
90.1364708376
20
137.4915328724
30
0.0000000000
10
90.1589965711
20
137.6105079021
30
0.0000000000
10
90.1829940527
20
137.7418230427
30
0.0000000000
10
90.2083660567
20
137.8863672404
30
0.0000000000
10
90.2350638445
20
138.0456469241
30
0.0000000000
10
90.2629993212
20
138.2214277295
30
0.0000000000
10
90.2920564170
20
138.4159679947
30
0.0000000000
10
90.3220616371
20
138.6321192517
30
0.0000000000
10
90.3526713675
20
138.8729082564
30
0.0000000000
10
90.3831645228
20
139.1400604169
30
0.0000000000
10
90.4124764899
20
139.4336459278
30
0.0000000000
10
90.4394491612
20
139.7536447917
30
0.0000000000
10
90.4630344490
20
140.1031973605
30
0.0000000000
10
90.4819010088
20
140.4873195442
30
0.0000000000
10
90.4939826808
20
140.9054404991
30
0.0000000000
10
90.4971124310
20
141.3488270155
30
0.0000000000
10
90.4899441453
20
141.8065684998
30
0.0000000000
10
90.4717982889
20
142.2737346369
30
0.0000000000
10
90.4417360823
20
142.7543195814
30
0.0000000000
10
90.3978765478
20
143.2572846796
30
0.0000000000
10
90.3369268770
20
143.7945361742
30
0.0000000000
10
90.2540084847
20
144.3783957821
30
0.0000000000
10
90.1424481126
20
145.0206806020
30
0.0000000000
10
90.0488438790
20
145.4678585447
30
0.0000000000
10
89.9952152608
20
145.7027395428
30
0.0000000000
11
89.9836678990
21
136.7695645240
31
0.0000000000
11
89.9999835409
21
136.8408300836
31
0.0000000000
11
90.0161818189
21
136.9127982770
31
0.0000000000
11
90.0320719248
21
136.9846329571
31
0.0000000000
11
90.0475782407
21
137.0559727946
31
0.0000000000
11
90.0628782891
21
137.1276266933
31
0.0000000000
11
90.0786973645
21
137.2031014187
31
0.0000000000
11
90.0957597443
21
137.2861839887
31
0.0000000000
11
90.1147007477
21
137.3805837970
31
0.0000000000
11
90.1355984501
21
137.4875834714
31
0.0000000000
11
90.1581357051
21
137.6066193598
31
0.0000000000
11
90.1820616377
21
137.7375429883
31
0.0000000000
11
90.2073420215
21
137.8815652376
31
0.0000000000
11
90.2339473389
21
138.0402932590
31
0.0000000000
11
90.2617802505
21
138.2154287136
31
0.0000000000
11
90.2906865580
21
138.4089594823
31
0.0000000000
11
90.3205337410
21
138.6239723519
31
0.0000000000
11
90.3510400271
21
138.8639477530
31
0.0000000000
11
90.3815665618
21
139.1313925785
31
0.0000000000
11
90.4109284435
21
139.4254783998
31
0.0000000000
11
90.4378372479
21
139.7447201697
31
0.0000000000
11
90.4612265886
21
140.0913697481
31
0.0000000000
11
90.4800239787
21
140.4740859702
31
0.0000000000
11
90.4922433813
21
140.8969791641
31
0.0000000000
11
90.4954092682
21
141.3455128862
31
0.0000000000
11
90.4882302985
21
141.8039224665
31
0.0000000000
11
90.4701329772
21
142.2698325539
31
0.0000000000
11
90.4403091896
21
142.7466011607
31
0.0000000000
11
90.3968315626
21
143.2451823982
31
0.0000000000
11
90.3363783195
21
143.7780530093
31
0.0000000000
11
90.2541034378
21
144.3573771642
31
0.0000000000
11
90.1432999534
21
144.9952956006
31
0.0000000000
11
89.9952152608
21
145.7027395428
31
0.0000000000
0
SPLINE
5
3D0
100
AcDbEntity
8
0
100
AcDbSpline
62
7
6
CONTINUOUS
70
0
71
3
72
37
73
33
74
31
42
0.0000001000
43
0.0000001000
44
0.0000000001
40
0.0000000000
40
0.0000000000
40
0.0000000000
40
0.0000000000
40
0.0094827582
40
0.0190471086
40
0.0285934560
40
0.0380667031
40
0.0475318343
40
0.0573926224
40
0.0681120942
40
0.0801652721
40
0.0937847855
40
0.1089388806
40
0.1255719876
40
0.1437788035
40
0.1637460998
40
0.1856799628
40
0.2097983649
40
0.2363876101
40
0.2658099107
40
0.2984258100
40
0.3344219164
40
0.3737771680
40
0.4164731867
40
0.4626144816
40
0.5124372488
40
0.5662580585
40
0.6245251541
40
0.6876929313
40
0.7562189436
40
0.8306554888
40
0.9116918189
40
1.0000000000
40
1.0000000000
40
1.0000000000
40
1.0000000000
10
89.9836678990
20
136.7695645240
30
0.0000000000
10
89.9787265815
20
136.7481613263
30
0.0000000000
10
89.9687305091
20
136.7051871098
30
0.0000000000
10
89.9535107835
20
136.6407244559
30
0.0000000000
10
89.9380819841
20
136.5763341709
30
0.0000000000
10
89.9224945354
20
136.5122186170
30
0.0000000000
10
89.9065215573
20
136.4474475647
30
0.0000000000
10
89.8896303098
20
136.3799300697
30
0.0000000000
10
89.8710216714
20
136.3066628815
30
0.0000000000
10
89.8499461771
20
136.2250395598
30
0.0000000000
10
89.8258937870
20
136.1335763266
30
0.0000000000
10
89.7986343815
20
136.0319878662
30
0.0000000000
10
89.7680030019
20
135.9203037921
30
0.0000000000
10
89.7336811318
20
135.7980728982
30
0.0000000000
10
89.6951503837
20
135.6642730039
30
0.0000000000
10
89.6517600517
20
135.5176260883
30
0.0000000000
10
89.6027263578
20
135.3566573883
30
0.0000000000
10
89.5470735985
20
135.1795783852
30
0.0000000000
10
89.4836134025
20
134.9843292228
30
0.0000000000
10
89.4110905400
20
134.7691257260
30
0.0000000000
10
89.3283959158
20
134.5330866846
30
0.0000000000
10
89.2346048841
20
134.2762164994
30
0.0000000000
10
89.1287811355
20
133.9987512821
30
0.0000000000
10
89.0096905739
20
133.7004329534
30
0.0000000000
10
88.8756816142
20
133.3803709816
30
0.0000000000
10
88.7246069132
20
133.0370642641
30
0.0000000000
10
88.5538616011
20
132.6687180926
30
0.0000000000
10
88.3603909474
20
132.2734605884
30
0.0000000000
10
88.1406734208
20
131.8494777303
30
0.0000000000
10
87.8905128827
20
131.3948171157
30
0.0000000000
10
87.6049637237
20
130.9075487713
30
0.0000000000
10
87.3966962781
20
130.5750385323
30
0.0000000000
10
87.2854578567
20
130.4033677392
30
0.0000000000
11
89.9836678990
21
136.7695645240
31
0.0000000000
11
89.9687380528
21
136.7053794703
31
0.0000000000
11
89.9534653415
21
136.6406923972
31
0.0000000000
11
89.9380068309
21
136.5761781163
31
0.0000000000
11
89.9224549710
21
136.5122089492
31
0.0000000000
11
89.9067059671
21
136.4483461214
31
0.0000000000
11
89.8900750616
21
136.3818692625
31
0.0000000000
11
89.8717373384
21
136.3096687404
31
0.0000000000
11
89.8507966261
21
136.2285674167
31
0.0000000000
11
89.8267256184
21
136.1370333886
31
0.0000000000
11
89.7994329783
21
136.0353210736
31
0.0000000000
11
89.7688597894
21
135.9238491696
31
0.0000000000
11
89.7346551086
21
135.8020356275
31
0.0000000000
11
89.6962567739
21
135.6686955513
31
0.0000000000
11
89.6530101180
21
135.5225342283
31
0.0000000000
11
89.6041702510
21
135.3622018397
31
0.0000000000
11
89.5487698434
21
135.1859258018
31
0.0000000000
11
89.4855689026
21
134.9914743229
31
0.0000000000
11
89.4131856277
21
134.7766850783
31
0.0000000000
11
89.3304770161
21
134.5406061711
31
0.0000000000
11
89.2366742881
21
134.2837040346
31
0.0000000000
11
89.1309406649
21
134.0064752322
31
0.0000000000
11
89.0120580198
21
133.7086778756
31
0.0000000000
11
88.8783389146
21
133.3893083778
31
0.0000000000
11
88.7276911671
21
133.0469721426
31
0.0000000000
11
88.5574000818
21
132.6796062215
31
0.0000000000
11
88.3644108283
21
132.2853326603
31
0.0000000000
11
88.1453023832
21
131.8625258061
31
0.0000000000
11
87.8959397347
21
131.4093160039
31
0.0000000000
11
87.6112125698
21
130.9234518626
31
0.0000000000
11
87.2854578567
21
130.4033677392
31
0.0000000000
0
SPLINE
5
3D1
100
AcDbEntity
8
0
100
AcDbSpline
62
7
6
CONTINUOUS
70
0
71
3
72
12
73
8
74
6
42
0.0000001000
43
0.0000001000
44
0.0000000001
40
0.0000000000
40
0.0000000000
40
0.0000000000
40
0.0000000000
40
0.2089809523
40
0.3941291958
40
0.5756258726
40
0.7768592408
40
1.0000000000
40
1.0000000000
40
1.0000000000
40
1.0000000000
10
132.3851853608
20
127.6940414161
30
0.0000000000
10
132.3550785681
20
127.8375825614
30
0.0000000000
10
132.2882389341
20
128.1062739069
30
0.0000000000
10
132.1663226641
20
128.4916182391
30
0.0000000000
10
132.0257916206
20
128.8647461584
30
0.0000000000
10
131.8564383934
20
129.2549395786
30
0.0000000000
10
131.7249865499
20
129.5223373272
30
0.0000000000
10
131.6527270253
20
129.6612716320
30
0.0000000000
11
132.3851853608
21
127.6940414161
31
0.0000000000
11
132.2795199855
21
128.1211586632
31
0.0000000000
11
132.1622143507
21
128.4929053156
31
0.0000000000
11
132.0279169946
21
128.8506561128
31
0.0000000000
11
131.8596769256
21
129.2395023133
31
0.0000000000
11
131.6527270253
21
129.6612716320
31
0.0000000000
0
SPLINE
5
3D2
100
AcDbEntity
8
0
100
AcDbSpline
62
7
6
CONTINUOUS
70
0
71
3
72
10
73
6
74
4
42
0.0000001000
43
0.0000001000
44
0.0000000001
40
0.0000000000
40
0.0000000000
40
0.0000000000
40
0.0000000000
40
0.3083762730
40
0.6413838353
40
1.0000000000
40
1.0000000000
40
1.0000000000
40
1.0000000000
10
92.1276588956
20
100.8799033728
30
0.0000000000
10
92.1261059642
20
100.8254045364
30
0.0000000000
10
92.1352371007
20
100.7116559010
30
0.0000000000
10
92.1743826706
20
100.5389019120
30
0.0000000000
10
92.2140242074
20
100.4229826942
30
0.0000000000
10
92.2370034034
20
100.3638900166
30
0.0000000000
11
92.1276588956
21
100.8799033728
31
0.0000000000
11
92.1385796050
21
100.7167054836
31
0.0000000000
11
92.1762937301
21
100.5441515697
31
0.0000000000
11
92.2370034034
21
100.3638900166
31
0.0000000000
0
SPLINE
5
3D3
100
AcDbEntity
8
0
100
AcDbSpline
62
7
6
CONTINUOUS
70
0
71
3
72
27
73
23
74
21
42
0.0000001000
43
0.0000001000
44
0.0000000001
40
0.0000000000
40
0.0000000000
40
0.0000000000
40
0.0000000000
40
0.0426106852
40
0.0843587804
40
0.1244691241
40
0.1632180438
40
0.2016387687
40
0.2410060826
40
0.2825077998
40
0.3263452281
40
0.3713444122
40
0.4162286771
40
0.4607267705
40
0.5053790634
40
0.5511536041
40
0.5992231710
40
0.6507611690
40
0.7069176380
40
0.7688602250
40
0.8377366591
40
0.9145173565
40
1.0000000000
40
1.0000000000
40
1.0000000000
40
1.0000000000
10
92.2370030779
20
100.3638908395
30
0.0000000000
10
92.2978208400
20
100.2074937117
30
0.0000000000
10
92.4253117013
20
99.9005672225
30
0.0000000000
10
92.6335620523
20
99.4566636064
30
0.0000000000
10
92.8534586496
20
99.0355140828
30
0.0000000000
10
93.0833385053
20
98.6347951649
30
0.0000000000
10
93.3264658424
20
98.2454301311
30
0.0000000000
10
93.5895825356
20
97.8561297724
30
0.0000000000
10
93.8791312324
20
97.4593237892
30
0.0000000000
10
94.1966331742
20
97.0558704862
30
0.0000000000
10
94.5371079993
20
96.6539845096
30
0.0000000000
10
94.8931399996
20
96.2623040051
30
0.0000000000
10
95.2610234978
20
95.8836498308
30
0.0000000000
10
95.6432821672
20
95.5144566088
30
0.0000000000
10
96.0472458708
20
95.1478695620
30
0.0000000000
10
96.4830802409
20
94.7764542970
30
0.0000000000
10
96.9625540078
20
94.3936753443
30
0.0000000000
10
97.4984807428
20
93.9946091085
30
0.0000000000
10
98.1046634440
20
93.5763047386
30
0.0000000000
10
98.7954236087
20
93.1385551260
30
0.0000000000
10
99.5848587085
20
92.6848033446
30
0.0000000000
10
100.1538855268
20
92.3932951743
30
0.0000000000
10
100.4573659551
20
92.2476010610
30
0.0000000000
11
92.2370030779
21
100.3638908395
31
0.0000000000
11
92.4300981078
21
99.8989778740
31
0.0000000000
11
92.6394988166
21
99.4524083534
31
0.0000000000
11
92.8587328064
21
99.0322929626
31
0.0000000000
11
93.0864367402
21
98.6351455595
31
0.0000000000
11
93.3267573004
21
98.2500662248
31
0.0000000000
11
93.5871005729
21
97.8646584929
31
0.0000000000
11
93.8760117757
21
97.4685014365
31
0.0000000000
11
94.1961865283
21
97.0614139755
31
0.0000000000
11
94.5397266755
21
96.6556828941
31
0.0000000000
11
94.8963106069
21
96.2631989036
31
0.0000000000
11
95.2625643859
21
95.8860568755
31
0.0000000000
11
95.6419473293
21
95.5194981362
31
0.0000000000
11
96.0423619438
21
95.1560018636
31
0.0000000000
11
96.4745463754
21
94.7875729871
31
0.0000000000
11
96.9503363935
21
94.4076135652
31
0.0000000000
11
97.4824115866
21
94.0112984127
31
0.0000000000
11
98.0846860774
21
93.5955888013
31
0.0000000000
11
98.7719905044
21
93.1599616644
31
0.0000000000
11
99.5584591113
21
92.7079387537
31
0.0000000000
11
100.4573659551
21
92.2476010610
31
0.0000000000
0
SPLINE
5
3D4
100
AcDbEntity
8
0
100
AcDbSpline
62
7
6
CONTINUOUS
70
0
71
3
72
9
73
5
74
3
42
0.0000001000
43
0.0000001000
44
0.0000000001
40
0.0000000000
40
0.0000000000
40
0.0000000000
40
0.0000000000
40
0.4998043672
40
1.0000000000
40
1.0000000000
40
1.0000000000
40
1.0000000000
10
85.4143112822
20
99.0093582484
30
0.0000000000
10
85.4024980436
20
99.0479710193
30
0.0000000000
10
85.3788422497
20
99.1252206503
30
0.0000000000
10
85.3551465126
20
99.2024580383
30
0.0000000000
10
85.3432840738
20
99.2410887911
30
0.0000000000
11
85.4143112822
21
99.0093582484
31
0.0000000000
11
85.3788415274
21
99.1251873668
31
0.0000000000
11
85.3432840738
21
99.2410887911
31
0.0000000000
0
SPLINE
5
3D5
100
AcDbEntity
8
0
100
AcDbSpline
62
7
6
CONTINUOUS
70
0
71
3
72
21
73
17
74
15
42
0.0000001000
43
0.0000001000
44
0.0000000001
40
0.0000000000
40
0.0000000000
40
0.0000000000
40
0.0000000000
40
0.0835847777
40
0.1685810434
40
0.2536947071
40
0.3375631979
40
0.4199401463
40
0.4996533066
40
0.5754673002
40
0.6467706453
40
0.7147643182
40
0.7780779482
40
0.8367393474
40
0.8912082803
40
0.9428226096
40
1.0000000000
40
1.0000000000
40
1.0000000000
40
1.0000000000
10
92.1276596021
20
100.8799010687
30
0.0000000000
10
92.1280434871
20
100.8933731949
30
0.0000000000
10
92.1294189744
20
100.9205327162
30
0.0000000000
10
92.1335489502
20
100.9612501872
30
0.0000000000
10
92.1400711837
20
101.0017081690
30
0.0000000000
10
92.1492646879
20
101.0412202877
30
0.0000000000
10
92.1613850424
20
101.0790376846
30
0.0000000000
10
92.1766558733
20
101.1143092399
30
0.0000000000
10
92.1951521067
20
101.1459875644
30
0.0000000000
10
92.2169564286
20
101.1731588533
30
0.0000000000
10
92.2418251659
20
101.1946790664
30
0.0000000000
10
92.2691796126
20
101.2091986686
30
0.0000000000
10
92.2966260135
20
101.2166565846
30
0.0000000000
10
92.3241343316
20
101.2181592667
30
0.0000000000
10
92.3476735022
20
101.2048552657
30
0.0000000000
10
92.3618665880
20
101.1944331232
30
0.0000000000
10
92.3704433455
20
101.1910509264
30
0.0000000000
11
92.1276596021
21
100.8799010687
31
0.0000000000
11
92.1297439752
21
100.9202800900
31
0.0000000000
11
92.1339462863
21
100.9611803406
31
0.0000000000
11
92.1405702295
21
101.0018163637
31
0.0000000000
11
92.1498567049
21
101.0413092530
31
0.0000000000
11
92.1621405628
21
101.0792171812
31
0.0000000000
11
92.1776151309
21
101.1145358388
31
0.0000000000
11
92.1962943065
21
101.1460961848
31
0.0000000000
11
92.2180721921
21
101.1728433466
31
0.0000000000
11
92.2431478880
21
101.1941275367
31
0.0000000000
11
92.2702293722
21
101.2084314837
31
0.0000000000
11
92.2976256072
21
101.2158255487
31
0.0000000000
11
92.3239734948
21
101.2156511683
31
0.0000000000
11
92.3465354320
21
101.2049581865
31
0.0000000000
11
92.3704433455
21
101.1910509264
31
0.0000000000
0
SPLINE
5
3D6
100
AcDbEntity
8
0
100
AcDbSpline
62
7
6
CONTINUOUS
70
0
71
3
72
10
73
6
74
4
42
0.0000001000
43
0.0000001000
44
0.0000000001
40
0.0000000000
40
0.0000000000
40
0.0000000000
40
0.0000000000
40
0.3323243811
40
0.6665511035
40
1.0000000000
40
1.0000000000
40
1.0000000000
40
1.0000000000
10
134.5541380382
20
111.5416961429
30
0.0000000000
10
134.6779989208
20
112.4840634089
30
0.0000000000
10
134.8092366593
20
114.3917859023
30
0.0000000000
10
134.6503617320
20
117.2541240173
30
0.0000000000
10
134.3084134602
20
119.1387943364
30
0.0000000000
10
134.0805617394
20
120.0648641672
30
0.0000000000
11
134.5541380382
21
111.5416961429
31
0.0000000000
11
134.7499160177
21
114.3863840382
31
0.0000000000
11
134.5911328436
21
117.2497242431
31
0.0000000000
11
134.0805617394
21
120.0648641672
31
0.0000000000
0
SPLINE
5
3D7
100
AcDbEntity
8
0
100
AcDbSpline
62
7
6
CONTINUOUS
70
0
71
3
72
10
73
6
74
4
42
0.0000001000
43
0.0000001000
44
0.0000000001
40
0.0000000000
40
0.0000000000
40
0.0000000000
40
0.0000000000
40
0.3187661662
40
0.6491388595
40
1.0000000000
40
1.0000000000
40
1.0000000000
40
1.0000000000
10
134.0805625223
20
120.0648604470
30
0.0000000000
10
133.8821534259
20
120.8712653560
30
0.0000000000
10
133.4951858091
20
122.5176604773
30
0.0000000000
10
132.9380043925
20
125.0626471412
30
0.0000000000
10
132.5728268801
20
126.7994393179
30
0.0000000000
10
132.3851853608
20
127.6940414161
30
0.0000000000
11
134.0805625223
21
120.0648604470
31
0.0000000000
11
133.5082006449
21
122.4895866795
31
0.0000000000
11
132.9528053163
21
125.0112242642
31
0.0000000000
11
132.3851853608
21
127.6940414161
31
0.0000000000
0
SPLINE
5
3D8
100
AcDbEntity
8
0
100
AcDbSpline
62
7
6
CONTINUOUS
70
0
71
3
72
12
73
8
74
6
42
0.0000001000
43
0.0000001000
44
0.0000000001
40
0.0000000000
40
0.0000000000
40
0.0000000000
40
0.0000000000
40
0.1917329423
40
0.3889923886
40
0.5914621631
40
0.7973048498
40
1.0000000000
40
1.0000000000
40
1.0000000000
40
1.0000000000
10
129.1819764815
20
98.5536946187
30
0.0000000000
10
129.7425211641
20
99.2685587959
30
0.0000000000
10
130.7993902063
20
100.7838253406
30
0.0000000000
10
132.1453430674
20
103.2476449915
30
0.0000000000
10
133.2473521644
20
105.9026786141
30
0.0000000000
10
134.0733399037
20
108.6825185894
30
0.0000000000
10
134.4289877764
20
110.5895189294
30
0.0000000000
10
134.5541380382
20
111.5416961429
30
0.0000000000
11
129.1819764815
21
98.5536946187
31
0.0000000000
11
130.7426698512
21
100.7878401831
31
0.0000000000
11
132.0891115424
21
103.2472296681
31
0.0000000000
11
133.1942339525
21
105.9044823721
31
0.0000000000
11
134.0276764868
21
108.7091046544
31
0.0000000000
11
134.5541380382
21
111.5416961429
31
0.0000000000
0
SPLINE
5
3D9
100
AcDbEntity
8
0
100
AcDbSpline
62
7
6
CONTINUOUS
70
0
71
3
72
10
73
6
74
4
42
0.0000001000
43
0.0000001000
44
0.0000000001
40
0.0000000000
40
0.0000000000
40
0.0000000000
40
0.0000000000
40
0.3689717035
40
0.6951303287
40
1.0000000000
40
1.0000000000
40
1.0000000000
40
1.0000000000
10
93.7493475430
20
169.7990939772
30
0.0000000000
10
93.7800446432
20
169.7173931268
30
0.0000000000
10
93.8636924315
20
169.5712910939
30
0.0000000000
10
94.0472001032
20
169.4152404029
30
0.0000000000
10
94.1905896512
20
169.3622600903
30
0.0000000000
10
94.2615693829
20
169.3495170511
30
0.0000000000
11
93.7493475430
21
169.7990939772
31
0.0000000000
11
93.8812167643
21
169.5728936750
31
0.0000000000
11
94.0584778120
21
169.4240715953
31
0.0000000000
11
94.2615693829
21
169.3495170511
31
0.0000000000
0
SPLINE
5
3DA
100
AcDbEntity
8
0
100
AcDbSpline
62
7
6
CONTINUOUS
70
0
71
3
72
14
73
10
74
8
42
0.0000001000
43
0.0000001000
44
0.0000000001
40
0.0000000000
40
0.0000000000
40
0.0000000000
40
0.0000000000
40
0.1451940752
40
0.2898368096
40
0.4340967909
40
0.5771839671
40
0.7197130984
40
0.8608056854
40
1.0000000000
40
1.0000000000
40
1.0000000000
40
1.0000000000
10
112.6619109426
20
89.9151024699
30
0.0000000000
10
113.5884497475
20
89.9772020469
30
0.0000000000
10
115.4325394213
20
90.2112848949
30
0.0000000000
10
118.1318103520
20
90.8871915371
30
0.0000000000
10
120.7192332869
20
91.8749862135
30
0.0000000000
10
123.1582200975
20
93.1580121430
30
0.0000000000
10
125.4097022074
20
94.7121472324
30
0.0000000000
10
127.4394142039
20
96.5084512041
30
0.0000000000
10
128.6326515842
20
97.8531390647
30
0.0000000000
10
129.1819764815
20
98.5536946187
30
0.0000000000
11
112.6619109426
21
89.9151024699
31
0.0000000000
11
115.4255459243
21
90.2662382235
31
0.0000000000
11
118.1176367774
21
90.9406211879
31
0.0000000000
11
120.7033825829
21
91.9282219768
31
0.0000000000
11
123.1329060620
21
93.2068097906
31
0.0000000000
11
125.3831934047
21
94.7608048500
31
0.0000000000
11
127.4099421519
21
96.5555160287
31
0.0000000000
11
129.1819764815
21
98.5536946187
31
0.0000000000
0
SPLINE
5
3DB
100
AcDbEntity
8
0
100
AcDbSpline
62
7
6
CONTINUOUS
70
0
71
3
72
11
73
7
74
5
42
0.0000001000
43
0.0000001000
44
0.0000000001
40
0.0000000000
40
0.0000000000
40
0.0000000000
40
0.0000000000
40
0.2481451562
40
0.4965877905
40
0.7476405051
40
1.0000000000
40
1.0000000000
40
1.0000000000
40
1.0000000000
10
100.4570817454
20
92.2477426821
30
0.0000000000
10
101.3932955280
20
91.7982880630
30
0.0000000000
10
103.3274762437
20
91.0194380128
30
0.0000000000
10
106.3642383721
20
90.2317769082
30
0.0000000000
10
109.4945181917
20
89.8376917276
30
0.0000000000
10
111.6081264440
20
89.8444744819
30
0.0000000000
10
112.6619109426
20
89.9151024699
30
0.0000000000
11
100.4570817454
21
92.2477426821
31
0.0000000000
11
103.3470069901
21
91.0837480974
31
0.0000000000
11
106.3661935820
21
90.2999431840
31
0.0000000000
11
109.4934788228
21
89.9056874986
31
0.0000000000
11
112.6619109426
21
89.9151024699
31
0.0000000000
0
SPLINE
5
3DC
100
AcDbEntity
8
0
100
AcDbSpline
62
7
6
CONTINUOUS
70
0
71
3
72
13
73
9
74
7
42
0.0000001000
43
0.0000001000
44
0.0000000001
40
0.0000000000
40
0.0000000000
40
0.0000000000
40
0.0000000000
40
0.2889952452
40
0.5456254648
40
0.7533482881
40
0.9027107093
40
0.9843533908
40
1.0000000000
40
1.0000000000
40
1.0000000000
40
1.0000000000
10
284.6395959835
20
160.1540582037
30
0.0000000000
10
284.6395959835
20
160.3801675598
30
0.0000000000
10
284.6367056981
20
160.8085651902
30
0.0000000000
10
284.6104378926
20
161.3920205273
30
0.0000000000
10
284.5927088421
20
161.8863233968
30
0.0000000000
10
284.5175256805
20
162.1932508060
30
0.0000000000
10
284.5272967538
20
162.4354292612
30
0.0000000000
10
284.4467536544
20
162.4613454161
30
0.0000000000
10
284.4341331346
20
162.4629526625
30
0.0000000000
11
284.6395959835
21
160.1540582037
31
0.0000000000
11
284.6320078742
21
160.8323438284
31
0.0000000000
11
284.6095807296
21
161.4342872352
31
0.0000000000
11
284.5738064208
21
161.9205389063
31
0.0000000000
11
284.5262961347
21
162.2678874003
31
0.0000000000
11
284.4704775170
21
162.4512090329
31
0.0000000000
11
284.4341331346
21
162.4629526625
31
0.0000000000
0
SPLINE
5
3DD
100
AcDbEntity
8
0
100
AcDbSpline
62
7
6
CONTINUOUS
70
0
71
3
72
16
73
12
74
10
42
0.0000001000
43
0.0000001000
44
0.0000000001
40
0.0000000000
40
0.0000000000
40
0.0000000000
40
0.0000000000
40
0.1342326374
40
0.2745532486
40
0.4147581603
40
0.5511190579
40
0.6769068298
40
0.7890508471
40
0.8819913421
40
0.9532824075
40
1.0000000000
40
1.0000000000
40
1.0000000000
40
1.0000000000
10
283.7744026641
20
156.7207589043
30
0.0000000000
10
283.7671433239
20
157.1510865125
30
0.0000000000
10
283.7610737551
20
158.0314211976
30
0.0000000000
10
283.7745080312
20
159.3612432039
30
0.0000000000
10
283.8097652366
20
160.6975025698
30
0.0000000000
10
283.8654387684
20
161.9864128264
30
0.0000000000
10
283.9394392792
20
163.1843541201
30
0.0000000000
10
284.0287696291
20
164.2414102167
30
0.0000000000
10
284.1287492066
20
165.1225118604
30
0.0000000000
10
284.2366692247
20
165.7895267042
30
0.0000000000
10
284.3228349546
20
166.1601919659
30
0.0000000000
10
284.3771299929
20
166.2997954942
30
0.0000000000
11
283.7744026641
21
156.7207589043
31
0.0000000000
11
283.7647849214
21
158.0118895849
31
0.0000000000
11
283.7781743983
21
159.3615491113
31
0.0000000000
11
283.8139140533
21
160.7096885009
31
0.0000000000
11
283.8711106283
21
162.0200787854
31
0.0000000000
11
283.9469431893
21
163.2276364760
31
0.0000000000
11
284.0395817288
21
164.3023501227
31
0.0000000000
11
284.1444619389
21
165.1901593286
31
0.0000000000
11
284.2586543213
21
165.8663241780
31
0.0000000000
11
284.3771299929
21
166.2997954942
31
0.0000000000
0
SPLINE
5
3DE
100
AcDbEntity
8
0
100
AcDbSpline
62
7
6
CONTINUOUS
70
0
71
3
72
15
73
11
74
9
42
0.0000001000
43
0.0000001000
44
0.0000000001
40
0.0000000000
40
0.0000000000
40
0.0000000000
40
0.0000000000
40
0.1198916384
40
0.2546542205
40
0.3896127891
40
0.5241428920
40
0.6578794912
40
0.7908720414
40
0.9235142040
40
1.0000000000
40
1.0000000000
40
1.0000000000
40
1.0000000000
10
305.1266250656
20
132.6996631766
30
0.0000000000
10
305.1237452654
20
132.7775968448
30
0.0000000000
10
305.0915186690
20
132.9433049189
30
0.0000000000
10
304.9619623310
20
133.1664907452
30
0.0000000000
10
304.7558171606
20
133.3378108448
30
0.0000000000
10
304.5039601483
20
133.4272775065
30
0.0000000000
10
304.2380589171
20
133.4249343767
30
0.0000000000
10
303.9901404982
20
133.3324904912
30
0.0000000000
10
303.8173326688
20
133.1857875881
30
0.0000000000
10
303.7406239408
20
133.0721772044
30
0.0000000000
10
303.7169353445
20
133.0282428756
30
0.0000000000
11
305.1266250656
21
132.6996631766
31
0.0000000000
11
305.0817742690
21
132.9292322982
31
0.0000000000
11
304.9500815818
21
133.1563429961
31
0.0000000000
11
304.7478489858
21
133.3243454497
31
0.0000000000
11
304.5008967936
21
133.4120908604
31
0.0000000000
11
304.2403751354
21
133.4098001765
31
0.0000000000
11
303.9976243350
21
133.3192702852
31
0.0000000000
11
303.8006032596
21
133.1520785366
31
0.0000000000
11
303.7169353445
21
133.0282428756
31
0.0000000000
0
SPLINE
5
3DF
100
AcDbEntity
8
0
100
AcDbSpline
62
7
6
CONTINUOUS
70
0
71
3
72
9
73
5
74
3
42
0.0000001000
43
0.0000001000
44
0.0000000001
40
0.0000000000
40
0.0000000000
40
0.0000000000
40
0.0000000000
40
0.1721538883
40
1.0000000000
40
1.0000000000
40
1.0000000000
40
1.0000000000
10
302.0620163997
20
133.8372699533
30
0.0000000000
10
302.0693834580
20
133.8537723580
30
0.0000000000
10
302.1087135597
20
133.9512108628
30
0.0000000000
10
302.1271299929
20
134.0565180196
30
0.0000000000
10
302.1271299929
20
134.1429517057
30
0.0000000000
11
302.0620163997
21
133.8372699533
31
0.0000000000
11
302.0823053003
21
133.8875543959
31
0.0000000000
11
302.1271299929
21
134.1429517057
31
0.0000000000
0
SPLINE
5
3E0
100
AcDbEntity
8
0
100
AcDbSpline
62
7
6
CONTINUOUS
70
0
71
3
72
14
73
10
74
8
42
0.0000001000
43
0.0000001000
44
0.0000000001
40
0.0000000000
40
0.0000000000
40
0.0000000000
40
0.0000000000
40
0.1495749441
40
0.3001235845
40
0.4508911694
40
0.6011800981
40
0.7505825721
40
0.8991538396
40
1.0000000000
40
1.0000000000
40
1.0000000000
40
1.0000000000
10
302.1271299929
20
134.1429517057
30
0.0000000000
10
302.1271299929
20
134.2298958678
30
0.0000000000
10
302.0961738140
20
134.4058637417
30
0.0000000000
10
301.9619623310
20
134.6370689548
30
0.0000000000
10
301.7558171606
20
134.8083890544
30
0.0000000000
10
301.5039601483
20
134.8978557161
30
0.0000000000
10
301.2380589171
20
134.8955125862
30
0.0000000000
10
301.0164428535
20
134.8128763299
30
0.0000000000
10
300.8995512331
20
134.7241669087
30
0.0000000000
10
300.8570900058
20
134.6833303669
30
0.0000000000
11
302.1271299929
21
134.1429517057
31
0.0000000000
11
302.0817742690
21
134.3998105078
31
0.0000000000
11
301.9500815818
21
134.6269212056
31
0.0000000000
11
301.7478489858
21
134.7949236593
31
0.0000000000
11
301.5008967936
21
134.8826690700
31
0.0000000000
11
301.2403751354
21
134.8803783861
31
0.0000000000
11
300.9976243350
21
134.7898484948
31
0.0000000000
11
300.8570900058
21
134.6833303669
31
0.0000000000
0
SPLINE
5
3E1
100
AcDbEntity
8
0
100
AcDbSpline
62
7
6
CONTINUOUS
70
0
71
3
72
12
73
8
74
6
42
0.0000001000
43
0.0000001000
44
0.0000000001
40
0.0000000000
40
0.0000000000
40
0.0000000000
40
0.0000000000
40
0.1989049863
40
0.4047094554
40
0.6099282316
40
0.8143163179
40
1.0000000000
40
1.0000000000
40
1.0000000000
40
1.0000000000
10
305.0483579918
20
135.7006764200
30
0.0000000000
10
305.0138124196
20
135.7699540980
30
0.0000000000
10
304.9209007285
20
135.9008389971
30
0.0000000000
10
304.7268653740
20
136.0441902372
30
0.0000000000
10
304.4952991846
20
136.1197981602
30
0.0000000000
10
304.2597496040
20
136.1187110019
30
0.0000000000
10
304.1130485353
20
136.0717590615
30
0.0000000000
10
304.0478734419
20
136.0399396948
30
0.0000000000
11
305.0483579918
21
135.7006764200
31
0.0000000000
11
304.9138281161
21
135.8899684037
31
0.0000000000
11
304.7206867005
21
136.0327686802
31
0.0000000000
11
304.4929909564
21
136.1070805417
31
0.0000000000
11
304.2544476498
21
136.1059817503
31
0.0000000000
11
304.0478734419
21
136.0399396948
31
0.0000000000
0
SPLINE
5
3E2
100
AcDbEntity
8
0
100
AcDbSpline
62
7
6
CONTINUOUS
70
0
71
3
72
12
73
8
74
6
42
0.0000001000
43
0.0000001000
44
0.0000000001
40
0.0000000000
40
0.0000000000
40
0.0000000000
40
0.0000000000
40
0.0990379377
40
0.3244882750
40
0.5493446316
40
0.7743592581
40
1.0000000000
40
1.0000000000
40
1.0000000000
40
1.0000000000
10
301.4002605220
20
140.5049354253
30
0.0000000000
10
301.4383742460
20
140.5037637910
30
0.0000000000
10
301.5629541094
20
140.4904508732
30
0.0000000000
10
301.7641194876
20
140.4154402739
30
0.0000000000
10
301.9653395094
20
140.2446172190
30
0.0000000000
10
302.0966803527
20
140.0158713009
30
0.0000000000
10
302.1271299929
20
139.8417569651
30
0.0000000000
10
302.1271299929
20
139.7553232789
30
0.0000000000
11
301.4002605220
21
140.5049354253
31
0.0000000000
11
301.5138848505
21
140.4927499593
31
0.0000000000
11
301.7566356508
21
140.4022200679
31
0.0000000000
11
301.9536567262
21
140.2350283193
31
0.0000000000
11
302.0823053003
21
140.0107205888
31
0.0000000000
11
302.1271299929
21
139.7553232789
31
0.0000000000
0
SPLINE
5
3E3
100
AcDbEntity
8
0
100
AcDbSpline
62
7
6
CONTINUOUS
70
0
71
3
72
10
73
6
74
4
42
0.0000001000
43
0.0000001000
44
0.0000000001
40
0.0000000000
40
0.0000000000
40
0.0000000000
40
0.0000000000
40
0.3669848571
40
0.7363586958
40
1.0000000000
40
1.0000000000
40
1.0000000000
40
1.0000000000
10
302.1271299929
20
139.7553232789
30
0.0000000000
10
302.1271299929
20
139.6683791168
30
0.0000000000
10
302.0961738140
20
139.4924112429
30
0.0000000000
10
301.9748548619
20
139.2834159055
30
0.0000000000
10
301.8629736088
20
139.1805923536
30
0.0000000000
10
301.8118227612
20
139.1441772886
30
0.0000000000
11
302.1271299929
21
139.7553232789
31
0.0000000000
11
302.0817742690
21
139.4984644768
31
0.0000000000
11
301.9500815818
21
139.2713537790
31
0.0000000000
11
301.8118227612
21
139.1441772886
31
0.0000000000
0
SPLINE
5
3E4
100
AcDbEntity
8
0
100
AcDbSpline
62
7
6
CONTINUOUS
70
0
71
3
72
12
73
8
74
6
42
0.0000001000
43
0.0000001000
44
0.0000000001
40
0.0000000000
40
0.0000000000
40
0.0000000000
40
0.0000000000
40
0.1686351456
40
0.3766699726
40
0.5841567026
40
0.7917894766
40
1.0000000000
40
1.0000000000
40
1.0000000000
40
1.0000000000
10
301.3036861615
20
137.6280346086
30
0.0000000000
10
301.3737107410
20
137.6348989164
30
0.0000000000
10
301.5322986020
20
137.6282106040
30
0.0000000000
10
301.7641194876
20
137.5417691711
30
0.0000000000
10
301.9653395094
20
137.3709461161
30
0.0000000000
10
302.0966803527
20
137.1422001981
30
0.0000000000
10
302.1271299929
20
136.9680858622
30
0.0000000000
10
302.1271299929
20
136.8816521760
30
0.0000000000
11
301.3036861615
21
137.6280346086
31
0.0000000000
11
301.5138848505
21
137.6190788564
31
0.0000000000
11
301.7566356508
21
137.5285489650
31
0.0000000000
11
301.9536567262
21
137.3613572164
31
0.0000000000
11
302.0823053003
21
137.1370494859
31
0.0000000000
11
302.1271299929
21
136.8816521760
31
0.0000000000
0
SPLINE
5
3E5
100
AcDbEntity
8
0
100
AcDbSpline
62
7
6
CONTINUOUS
70
0
71
3
72
8
73
4
74
2
42
0.0000001000
43
0.0000001000
44
0.0000000001
40
0.0000000000
40
0.0000000000
40
0.0000000000
40
0.0000000000
40
1.0000000000
40
1.0000000000
40
1.0000000000
40
1.0000000000
10
302.1271299929
20
136.8816521760
30
0.0000000000
10
302.1271299929
20
136.8251319650
30
0.0000000000
10
302.1206102155
20
136.7682929775
30
0.0000000000
10
302.1078255724
20
136.7128485492
30
0.0000000000
11
302.1271299929
21
136.8816521760
31
0.0000000000
11
302.1078255724
21
136.7128485492
31
0.0000000000
0
SPLINE
5
3E6
100
AcDbEntity
8
0
100
AcDbSpline
62
7
6
CONTINUOUS
70
0
71
3
72
15
73
11
74
9
42
0.0000001000
43
0.0000001000
44
0.0000000001
40
0.0000000000
40
0.0000000000
40
0.0000000000
40
0.0000000000
40
0.0070257768
40
0.0539660004
40
0.1441996702
40
0.2719380160
40
0.4320127895
40
0.6130152843
40
0.8065449261
40
1.0000000000
40
1.0000000000
40
1.0000000000
40
1.0000000000
10
306.4341331346
20
156.4954574188
30
0.0000000000
10
306.4251804898
20
156.4943172831
30
0.0000000000
10
306.3577005662
20
156.4954575382
30
0.0000000000
10
306.3453755734
20
156.7444374941
30
0.0000000000
10
306.2651464666
20
157.0156394732
30
0.0000000000
10
306.2243090288
20
157.5037418108
30
0.0000000000
10
306.1750042813
20
158.0726821104
30
0.0000000000
10
306.1418958439
20
158.7355266942
30
0.0000000000
10
306.1197558956
20
159.4364078968
30
0.0000000000
10
306.1146640023
20
159.9149425744
30
0.0000000000
10
306.1146640023
20
160.1540582037
30
0.0000000000
11
306.4341331346
21
156.4954574188
31
0.0000000000
11
306.4086757584
21
156.4961741683
31
0.0000000000
11
306.3455842274
21
156.6583952589
31
0.0000000000
11
306.2837824688
21
156.9872317886
31
0.0000000000
11
306.2279638511
21
157.4575953397
31
0.0000000000
11
306.1804535650
21
158.0492609490
31
0.0000000000
11
306.1446792563
21
158.7194785912
31
0.0000000000
11
306.1222521116
21
159.4367514507
31
0.0000000000
11
306.1146640023
21
160.1540582037
31
0.0000000000
0
SPLINE
5
3E7
100
AcDbEntity
8
0
100
AcDbSpline
62
7
6
CONTINUOUS
70
0
71
3
72
15
73
11
74
9
42
0.0000001000
43
0.0000001000
44
0.0000000001
40
0.0000000000
40
0.0000000000
40
0.0000000000
40
0.0000000000
40
0.1198916384
40
0.2546542205
40
0.3896127891
40
0.5241428920
40
0.6578794912
40
0.7908720414
40
0.9235142040
40
1.0000000000
40
1.0000000000
40
1.0000000000
40
1.0000000000
10
285.6276349202
20
132.6996631766
30
0.0000000000
10
285.6305147204
20
132.7775968448
30
0.0000000000
10
285.6627413168
20
132.9433049189
30
0.0000000000
10
285.7922976548
20
133.1664907452
30
0.0000000000
10
285.9984428252
20
133.3378108448
30
0.0000000000
10
286.2502998375
20
133.4272775065
30
0.0000000000
10
286.5162010687
20
133.4249343767
30
0.0000000000
10
286.7641194876
20
133.3324904912
30
0.0000000000
10
286.9369273171
20
133.1857875881
30
0.0000000000
10
287.0136360450
20
133.0721772044
30
0.0000000000
10
287.0373246413
20
133.0282428756
30
0.0000000000
11
285.6276349202
21
132.6996631766
31
0.0000000000
11
285.6724857168
21
132.9292322982
31
0.0000000000
11
285.8041784041
21
133.1563429961
31
0.0000000000
11
286.0064110000
21
133.3243454497
31
0.0000000000
11
286.2533631922
21
133.4120908604
31
0.0000000000
11
286.5138848505
21
133.4098001765
31
0.0000000000
11
286.7566356508
21
133.3192702852
31
0.0000000000
11
286.9536567262
21
133.1520785366
31
0.0000000000
11
287.0373246413
21
133.0282428756
31
0.0000000000
0
SPLINE
5
3E8
100
AcDbEntity
8
0
100
AcDbSpline
62
7
6
CONTINUOUS
70
0
71
3
72
9
73
5
74
3
42
0.0000001000
43
0.0000001000
44
0.0000000001
40
0.0000000000
40
0.0000000000
40
0.0000000000
40
0.0000000000
40
0.1721538883
40
1.0000000000
40
1.0000000000
40
1.0000000000
40
1.0000000000
10
288.6922435861
20
133.8372699533
30
0.0000000000
10
288.6848765278
20
133.8537723580
30
0.0000000000
10
288.6455464261
20
133.9512108628
30
0.0000000000
10
288.6271299929
20
134.0565180196
30
0.0000000000
10
288.6271299929
20
134.1429517057
30
0.0000000000
11
288.6922435861
21
133.8372699533
31
0.0000000000
11
288.6719546855
21
133.8875543959
31
0.0000000000
11
288.6271299929
21
134.1429517057
31
0.0000000000
0
SPLINE
5
3E9
100
AcDbEntity
8
0
100
AcDbSpline
62
7
6
CONTINUOUS
70
0
71
3
72
14
73
10
74
8
42
0.0000001000
43
0.0000001000
44
0.0000000001
40
0.0000000000
40
0.0000000000
40
0.0000000000
40
0.0000000000
40
0.1495749441
40
0.3001235845
40
0.4508911694
40
0.6011800981
40
0.7505825721
40
0.8991538396
40
1.0000000000
40
1.0000000000
40
1.0000000000
40
1.0000000000
10
288.6271299929
20
134.1429517057
30
0.0000000000
10
288.6271299929
20
134.2298958678
30
0.0000000000
10
288.6580861718
20
134.4058637417
30
0.0000000000
10
288.7922976548
20
134.6370689548
30
0.0000000000
10
288.9984428252
20
134.8083890544
30
0.0000000000
10
289.2502998375
20
134.8978557161
30
0.0000000000
10
289.5162010687
20
134.8955125862
30
0.0000000000
10
289.7378171324
20
134.8128763299
30
0.0000000000
10
289.8547087528
20
134.7241669087
30
0.0000000000
10
289.8971699801
20
134.6833303669
30
0.0000000000
11
288.6271299929
21
134.1429517057
31
0.0000000000
11
288.6724857168
21
134.3998105078
31
0.0000000000
11
288.8041784041
21
134.6269212056
31
0.0000000000
11
289.0064110000
21
134.7949236593
31
0.0000000000
11
289.2533631922
21
134.8826690700
31
0.0000000000
11
289.5138848505
21
134.8803783861
31
0.0000000000
11
289.7566356508
21
134.7898484948
31
0.0000000000
11
289.8971699801
21
134.6833303669
31
0.0000000000
0
SPLINE
5
3EA
100
AcDbEntity
8
0
100
AcDbSpline
62
7
6
CONTINUOUS
70
0
71
3
72
12
73
8
74
6
42
0.0000001000
43
0.0000001000
44
0.0000000001
40
0.0000000000
40
0.0000000000
40
0.0000000000
40
0.0000000000
40
0.1989049863
40
0.4047094554
40
0.6099282316
40
0.8143163179
40
1.0000000000
40
1.0000000000
40
1.0000000000
40
1.0000000000
10
285.7059019940
20
135.7006764200
30
0.0000000000
10
285.7404475662
20
135.7699540980
30
0.0000000000
10
285.8333592573
20
135.9008389971
30
0.0000000000
10
286.0273946118
20
136.0441902372
30
0.0000000000
10
286.2589608013
20
136.1197981602
30
0.0000000000
10
286.4945103818
20
136.1187110019
30
0.0000000000
10
286.6412114505
20
136.0717590615
30
0.0000000000
10
286.7063865439
20
136.0399396948
30
0.0000000000
11
285.7059019940
21
135.7006764200
31
0.0000000000
11
285.8404318697
21
135.8899684037
31
0.0000000000
11
286.0335732853
21
136.0327686802
31
0.0000000000
11
286.2612690294
21
136.1070805417
31
0.0000000000
11
286.4998123360
21
136.1059817503
31
0.0000000000
11
286.7063865439
21
136.0399396948
31
0.0000000000
0
SPLINE
5
3EB
100
AcDbEntity
8
0
100
AcDbSpline
62
7
6
CONTINUOUS
70
0
71
3
72
12
73
8
74
6
42
0.0000001000
43
0.0000001000
44
0.0000000001
40
0.0000000000
40
0.0000000000
40
0.0000000000
40
0.0000000000
40
0.0990379377
40
0.3244882750
40
0.5493446316
40
0.7743592581
40
1.0000000000
40
1.0000000000
40
1.0000000000
40
1.0000000000
10
289.3539994638
20
140.5049354253
30
0.0000000000
10
289.3158857398
20
140.5037637910
30
0.0000000000
10
289.1913058764
20
140.4904508732
30
0.0000000000
10
288.9901404982
20
140.4154402739
30
0.0000000000
10
288.7889204764
20
140.2446172190
30
0.0000000000
10
288.6575796331
20
140.0158713009
30
0.0000000000
10
288.6271299929
20
139.8417569651
30
0.0000000000
10
288.6271299929
20
139.7553232789
30
0.0000000000
11
289.3539994638
21
140.5049354253
31
0.0000000000
11
289.2403751354
21
140.4927499593
31
0.0000000000
11
288.9976243350
21
140.4022200679
31
0.0000000000
11
288.8006032596
21
140.2350283193
31
0.0000000000
11
288.6719546855
21
140.0107205888
31
0.0000000000
11
288.6271299929
21
139.7553232789
31
0.0000000000
0
SPLINE
5
3EC
100
AcDbEntity
8
0
100
AcDbSpline
62
7
6
CONTINUOUS
70
0
71
3
72
10
73
6
74
4
42
0.0000001000
43
0.0000001000
44
0.0000000001
40
0.0000000000
40
0.0000000000
40
0.0000000000
40
0.0000000000
40
0.3669848571
40
0.7363586958
40
1.0000000000
40
1.0000000000
40
1.0000000000
40
1.0000000000
10
288.6271299929
20
139.7553232789
30
0.0000000000
10
288.6271299929
20
139.6683791168
30
0.0000000000
10
288.6580861718
20
139.4924112429
30
0.0000000000
10
288.7794051239
20
139.2834159055
30
0.0000000000
10
288.8912863770
20
139.1805923536
30
0.0000000000
10
288.9424372246
20
139.1441772886
30
0.0000000000
11
288.6271299929
21
139.7553232789
31
0.0000000000
11
288.6724857168
21
139.4984644768
31
0.0000000000
11
288.8041784041
21
139.2713537790
31
0.0000000000
11
288.9424372246
21
139.1441772886
31
0.0000000000
0
SPLINE
5
3ED
100
AcDbEntity
8
0
100
AcDbSpline
62
7
6
CONTINUOUS
70
0
71
3
72
12
73
8
74
6
42
0.0000001000
43
0.0000001000
44
0.0000000001
40
0.0000000000
40
0.0000000000
40
0.0000000000
40
0.0000000000
40
0.1686351456
40
0.3766699726
40
0.5841567026
40
0.7917894766
40
1.0000000000
40
1.0000000000
40
1.0000000000
40
1.0000000000
10
289.4505738243
20
137.6280346086
30
0.0000000000
10
289.3805492448
20
137.6348989164
30
0.0000000000
10
289.2219613838
20
137.6282106040
30
0.0000000000
10
288.9901404982
20
137.5417691711
30
0.0000000000
10
288.7889204764
20
137.3709461161
30
0.0000000000
10
288.6575796331
20
137.1422001981
30
0.0000000000
10
288.6271299929
20
136.9680858622
30
0.0000000000
10
288.6271299929
20
136.8816521760
30
0.0000000000
11
289.4505738243
21
137.6280346086
31
0.0000000000
11
289.2403751354
21
137.6190788564
31
0.0000000000
11
288.9976243350
21
137.5285489650
31
0.0000000000
11
288.8006032596
21
137.3613572164
31
0.0000000000
11
288.6719546855
21
137.1370494859
31
0.0000000000
11
288.6271299929
21
136.8816521760
31
0.0000000000
0
SPLINE
5
3EE
100
AcDbEntity
8
0
100
AcDbSpline
62
7
6
CONTINUOUS
70
0
71
3
72
8
73
4
74
2
42
0.0000001000
43
0.0000001000
44
0.0000000001
40
0.0000000000
40
0.0000000000
40
0.0000000000
40
0.0000000000
40
1.0000000000
40
1.0000000000
40
1.0000000000
40
1.0000000000
10
288.6271299929
20
136.8816521760
30
0.0000000000
10
288.6271299929
20
136.8251319650
30
0.0000000000
10
288.6336497703
20
136.7682929775
30
0.0000000000
10
288.6464344134
20
136.7128485492
30
0.0000000000
11
288.6271299929
21
136.8816521760
31
0.0000000000
11
288.6464344134
21
136.7128485492
31
0.0000000000
0
SPLINE
5
3EF
100
AcDbEntity
8
0
100
AcDbSpline
62
7
6
CONTINUOUS
70
0
71
3
72
15
73
11
74
9
42
0.0000001000
43
0.0000001000
44
0.0000000001
40
0.0000000000
40
0.0000000000
40
0.0000000000
40
0.0000000000
40
0.0070257768
40
0.0539660004
40
0.1441996702
40
0.2719380160
40
0.4320127895
40
0.6130152843
40
0.8065449261
40
1.0000000000
40
1.0000000000
40
1.0000000000
40
1.0000000000
10
284.3201268512
20
156.4954574188
30
0.0000000000
10
284.3290794961
20
156.4943172831
30
0.0000000000
10
284.3965594197
20
156.4954575382
30
0.0000000000
10
284.4088844124
20
156.7444374941
30
0.0000000000
10
284.4891135192
20
157.0156394732
30
0.0000000000
10
284.5299509570
20
157.5037418108
30
0.0000000000
10
284.5792557045
20
158.0726821104
30
0.0000000000
10
284.6123641420
20
158.7355266942
30
0.0000000000
10
284.6345040903
20
159.4364078968
30
0.0000000000
10
284.6395959835
20
159.9149425744
30
0.0000000000
10
284.6395959835
20
160.1540582037
30
0.0000000000
11
284.3201268512
21
156.4954574188
31
0.0000000000
11
284.3455842274
21
156.4961741683
31
0.0000000000
11
284.4086757584
21
156.6583952589
31
0.0000000000
11
284.4704775170
21
156.9872317886
31
0.0000000000
11
284.5262961347
21
157.4575953397
31
0.0000000000
11
284.5738064208
21
158.0492609490
31
0.0000000000
11
284.6095807296
21
158.7194785912
31
0.0000000000
11
284.6320078742
21
159.4367514507
31
0.0000000000
11
284.6395959835
21
160.1540582037
31
0.0000000000
0
SPLINE
5
3F0
100
AcDbEntity
8
0
100
AcDbSpline
62
7
6
CONTINUOUS
70
0
71
3
72
8
73
4
74
2
42
0.0000001000
43
0.0000001000
44
0.0000000001
40
0.0000000000
40
0.0000000000
40
0.0000000000
40
0.0000000000
40
1.0000000000
40
1.0000000000
40
1.0000000000
40
1.0000000000
10
285.3538437585
20
168.7657932300
30
0.0000000000
10
285.3406200263
20
168.7633084720
30
0.0000000000
10
285.3252603590
20
168.7376304880
30
0.0000000000
10
285.3183619282
20
168.7198932267
30
0.0000000000
11
285.3538437585
21
168.7657932300
31
0.0000000000
11
285.3183619282
21
168.7198932267
31
0.0000000000
0
SPLINE
5
3F1
100
AcDbEntity
8
0
100
AcDbSpline
62
7
6
CONTINUOUS
70
0
71
3
72
8
73
4
74
2
42
0.0000001000
43
0.0000001000
44
0.0000000001
40
0.0000000000
40
0.0000000000
40
0.0000000000
40
0.0000000000
40
1.0000000000
40
1.0000000000
40
1.0000000000
40
1.0000000000
10
305.4004162274
20
168.7657932300
30
0.0000000000
10
305.4136399595
20
168.7633084720
30
0.0000000000
10
305.4289996268
20
168.7376304880
30
0.0000000000
10
305.4358980576
20
168.7198932267
30
0.0000000000
11
305.4004162274
21
168.7657932300
31
0.0000000000
11
305.4358980576
21
168.7198932267
31
0.0000000000
0
SPLINE
5
3F2
100
AcDbEntity
8
0
100
AcDbSpline
62
7
6
CONTINUOUS
70
0
71
3
72
10
73
6
74
4
42
0.0000001000
43
0.0000001000
44
0.0000000001
40
0.0000000000
40
0.0000000000
40
0.0000000000
40
0.0000000000
40
0.3348433387
40
0.6680835368
40
1.0000000000
40
1.0000000000
40
1.0000000000
40
1.0000000000
10
284.6212535828
20
126.6421674981
30
0.0000000000
10
284.5419582107
20
126.9026736432
30
0.0000000000
10
284.4075223777
20
127.4300455784
30
0.0000000000
10
284.2803010555
20
128.2343413620
30
0.0000000000
10
284.2458270440
20
128.7751163591
30
0.0000000000
10
284.2412742039
20
129.0450049086
30
0.0000000000
11
284.6212535828
21
126.6421674981
31
0.0000000000
11
284.4196195157
21
127.4338142453
31
0.0000000000
11
284.2927196226
21
128.2368598805
31
0.0000000000
11
284.2412742039
21
129.0450049086
31
0.0000000000
0
SPLINE
5
3F3
100
AcDbEntity
8
0
100
AcDbSpline
62
7
6
CONTINUOUS
70
0
71
3
72
8
73
4
74
2
42
0.0000001000
43
0.0000001000
44
0.0000000001
40
0.0000000000
40
0.0000000000
40
0.0000000000
40
0.0000000000
40
1.0000000000
40
1.0000000000
40
1.0000000000
40
1.0000000000
10
287.5787432583
20
119.0452080506
30
0.0000000000
10
287.5584022576
20
119.0465857975
30
0.0000000000
10
287.5380874798
20
119.0485652442
30
0.0000000000
10
287.5178408732
20
119.0511428197
30
0.0000000000
11
287.5787432583
21
119.0452080506
31
0.0000000000
11
287.5178408732
21
119.0511428197
31
0.0000000000
0
SPLINE
5
3F4
100
AcDbEntity
8
0
100
AcDbSpline
62
7
6
CONTINUOUS
70
0
71
3
72
12
73
8
74
6
42
0.0000001000
43
0.0000001000
44
0.0000000001
40
0.0000000000
40
0.0000000000
40
0.0000000000
40
0.0000000000
40
0.1109967822
40
0.3376596940
40
0.5596395146
40
0.7830492621
40
1.0000000000
40
1.0000000000
40
1.0000000000
40
1.0000000000
10
287.5178408732
20
119.0511428197
30
0.0000000000
10
287.4749356286
20
119.0566050440
30
0.0000000000
10
287.3453462749
20
119.0813925859
30
0.0000000000
10
287.1413823887
20
119.1631525664
30
0.0000000000
10
286.9295949598
20
119.3208185803
30
0.0000000000
10
286.7683742411
20
119.5251041718
30
0.0000000000
10
286.7006128122
20
119.6847341785
30
0.0000000000
10
286.6782672556
20
119.7659915292
30
0.0000000000
11
287.5178408732
21
119.0511428197
31
0.0000000000
11
287.3904427523
21
119.0755536029
31
0.0000000000
11
287.1453235279
21
119.1739723791
31
0.0000000000
11
286.9379807239
21
119.3286507743
31
0.0000000000
11
286.7769500750
21
119.5332246294
31
0.0000000000
11
286.6782672556
21
119.7659915292
31
0.0000000000
0
SPLINE
5
3F5
100
AcDbEntity
8
0
100
AcDbSpline
62
7
6
CONTINUOUS
70
0
71
3
72
13
73
9
74
7
42
0.0000001000
43
0.0000001000
44
0.0000000001
40
0.0000000000
40
0.0000000000
40
0.0000000000
40
0.0000000000
40
0.2889952452
40
0.5456254648
40
0.7533482881
40
0.9027107093
40
0.9843533908
40
1.0000000000
40
1.0000000000
40
1.0000000000
40
1.0000000000
10
306.1146640023
20
160.1540582037
30
0.0000000000
10
306.1146640023
20
160.3801675598
30
0.0000000000
10
306.1175542878
20
160.8085651902
30
0.0000000000
10
306.1438220933
20
161.3920205273
30
0.0000000000
10
306.1615511437
20
161.8863233968
30
0.0000000000
10
306.2367343053
20
162.1932508060
30
0.0000000000
10
306.2269632320
20
162.4354292612
30
0.0000000000
10
306.3075063314
20
162.4613454161
30
0.0000000000
10
306.3201268512
20
162.4629526625
30
0.0000000000
11
306.1146640023
21
160.1540582037
31
0.0000000000
11
306.1222521116
21
160.8323438284
31
0.0000000000
11
306.1446792563
21
161.4342872352
31
0.0000000000
11
306.1804535650
21
161.9205389063
31
0.0000000000
11
306.2279638511
21
162.2678874003
31
0.0000000000
11
306.2837824688
21
162.4512090329
31
0.0000000000
11
306.3201268512
21
162.4629526625
31
0.0000000000
0
SPLINE
5
3F6
100
AcDbEntity
8
0
100
AcDbSpline
62
7
6
CONTINUOUS
70
0
71
3
72
16
73
12
74
10
42
0.0000001000
43
0.0000001000
44
0.0000000001
40
0.0000000000
40
0.0000000000
40
0.0000000000
40
0.0000000000
40
0.1342326374
40
0.2745532486
40
0.4147581603
40
0.5511190579
40
0.6769068298
40
0.7890508471
40
0.8819913421
40
0.9532824075
40
1.0000000000
40
1.0000000000
40
1.0000000000
40
1.0000000000
10
306.9798573217
20
156.7207589043
30
0.0000000000
10
306.9871166619
20
157.1510865125
30
0.0000000000
10
306.9931862307
20
158.0314211976
30
0.0000000000
10
306.9797519546
20
159.3612432039
30
0.0000000000
10
306.9444947492
20
160.6975025698
30
0.0000000000
10
306.8888212175
20
161.9864128264
30
0.0000000000
10
306.8148207066
20
163.1843541201
30
0.0000000000
10
306.7254903567
20
164.2414102167
30
0.0000000000
10
306.6255107793
20
165.1225118604
30
0.0000000000
10
306.5175907611
20
165.7895267042
30
0.0000000000
10
306.4314250312
20
166.1601919659
30
0.0000000000
10
306.3771299929
20
166.2997954942
30
0.0000000000
11
306.9798573217
21
156.7207589043
31
0.0000000000
11
306.9894750644
21
158.0118895849
31
0.0000000000
11
306.9760855875
21
159.3615491113
31
0.0000000000
11
306.9403459325
21
160.7096885009
31
0.0000000000
11
306.8831493575
21
162.0200787854
31
0.0000000000
11
306.8073167965
21
163.2276364760
31
0.0000000000
11
306.7146782570
21
164.3023501227
31
0.0000000000
11
306.6097980469
21
165.1901593286
31
0.0000000000
11
306.4956056645
21
165.8663241780
31
0.0000000000
11
306.3771299929
21
166.2997954942
31
0.0000000000
0
SPLINE
5
3F7
100
AcDbEntity
8
0
100
AcDbSpline
62
7
6
CONTINUOUS
70
0
71
3
72
10
73
6
74
4
42
0.0000001000
43
0.0000001000
44
0.0000000001
40
0.0000000000
40
0.0000000000
40
0.0000000000
40
0.0000000000
40
0.3348433387
40
0.6680835368
40
1.0000000000
40
1.0000000000
40
1.0000000000
40
1.0000000000
10
306.1330064030
20
126.6421674981
30
0.0000000000
10
306.2123017751
20
126.9026736432
30
0.0000000000
10
306.3467376081
20
127.4300455784
30
0.0000000000
10
306.4739589303
20
128.2343413620
30
0.0000000000
10
306.5084329418
20
128.7751163591
30
0.0000000000
10
306.5129857819
20
129.0450049086
30
0.0000000000
11
306.1330064030
21
126.6421674981
31
0.0000000000
11
306.3346404701
21
127.4338142453
31
0.0000000000
11
306.4615403632
21
128.2368598805
31
0.0000000000
11
306.5129857819
21
129.0450049086
31
0.0000000000
0
SPLINE
5
3F8
100
AcDbEntity
8
0
100
AcDbSpline
62
7
6
CONTINUOUS
70
0
71
3
72
8
73
4
74
2
42
0.0000001000
43
0.0000001000
44
0.0000000001
40
0.0000000000
40
0.0000000000
40
0.0000000000
40
0.0000000000
40
1.0000000000
40
1.0000000000
40
1.0000000000
40
1.0000000000
10
303.1755167275
20
119.0452080506
30
0.0000000000
10
303.1958577282
20
119.0465857975
30
0.0000000000
10
303.2161725060
20
119.0485652442
30
0.0000000000
10
303.2364191126
20
119.0511428197
30
0.0000000000
11
303.1755167275
21
119.0452080506
31
0.0000000000
11
303.2364191126
21
119.0511428197
31
0.0000000000
0
SPLINE
5
3F9
100
AcDbEntity
8
0
100
AcDbSpline
62
7
6
CONTINUOUS
70
0
71
3
72
12
73
8
74
6
42
0.0000001000
43
0.0000001000
44
0.0000000001
40
0.0000000000
40
0.0000000000
40
0.0000000000
40
0.0000000000
40
0.1109967822
40
0.3376596940
40
0.5596395146
40
0.7830492621
40
1.0000000000
40
1.0000000000
40
1.0000000000
40
1.0000000000
10
303.2364191126
20
119.0511428197
30
0.0000000000
10
303.2793243572
20
119.0566050440
30
0.0000000000
10
303.4089137109
20
119.0813925859
30
0.0000000000
10
303.6128775971
20
119.1631525664
30
0.0000000000
10
303.8246650260
20
119.3208185803
30
0.0000000000
10
303.9858857447
20
119.5251041718
30
0.0000000000
10
304.0536471736
20
119.6847341785
30
0.0000000000
10
304.0759927303
20
119.7659915292
30
0.0000000000
11
303.2364191126
21
119.0511428197
31
0.0000000000
11
303.3638172336
21
119.0755536029
31
0.0000000000
11
303.6089364579
21
119.1739723791
31
0.0000000000
11
303.8162792620
21
119.3286507743
31
0.0000000000
11
303.9773099108
21
119.5332246294
31
0.0000000000
11
304.0759927303
21
119.7659915292
31
0.0000000000
0
SPLINE
5
3FA
100
AcDbEntity
8
0
100
AcDbSpline
62
7
6
CONTINUOUS
70
0
71
3
72
39
73
35
74
33
42
0.0000001000
43
0.0000001000
44
0.0000000001
40
0.0000000000
40
0.0000000000
40
0.0000000000
40
0.0000000000
40
0.0079756052
40
0.0160298457
40
0.0240691460
40
0.0320530691
40
0.0400721435
40
0.0485188265
40
0.0578169410
40
0.0683816247
40
0.0803564281
40
0.0936782794
40
0.1083305736
40
0.1244488412
40
0.1422129677
40
0.1618134241
40
0.1834727256
40
0.2075363903
40
0.2343940181
40
0.2643262872
40
0.2972406247
40
0.3329709979
40
0.3717696594
40
0.4146060563
40
0.4619406877
40
0.5121469708
40
0.5634606921
40
0.6156162763
40
0.6689899886
40
0.7248086553
40
0.7844699546
40
0.8493371139
40
0.9207714833
40
1.0000000000
40
1.0000000000
40
1.0000000000
40
1.0000000000
10
284.6397468371
20
136.7695645240
30
0.0000000000
10
284.6397468371
20
136.7933197108
30
0.0000000000
10
284.6397546855
20
136.8410642988
30
0.0000000000
10
284.6397900960
20
136.9127537804
30
0.0000000000
10
284.6398491875
20
136.9844680211
30
0.0000000000
10
284.6399316663
20
137.0560774970
30
0.0000000000
10
284.6400393271
20
137.1289003225
30
0.0000000000
10
284.6401785018
20
137.2056373954
30
0.0000000000
10
284.6403618188
20
137.2899564439
30
0.0000000000
10
284.6406061400
20
137.3847838167
30
0.0000000000
10
284.6409299704
20
137.4915956374
30
0.0000000000
10
284.6413513193
20
137.6105820740
30
0.0000000000
10
284.6418900885
20
137.7419093818
30
0.0000000000
10
284.6425720696
20
137.8864674200
30
0.0000000000
10
284.6434310722
20
138.0457627601
30
0.0000000000
10
284.6445093622
20
138.2215609766
30
0.0000000000
10
284.6458612921
20
138.4161208626
30
0.0000000000
10
284.6475577860
20
138.6322941430
30
0.0000000000
10
284.6496877013
20
138.8731055482
30
0.0000000000
10
284.6523464154
20
139.1402747189
30
0.0000000000
10
284.6556259822
20
139.4338661223
30
0.0000000000
10
284.6596246835
20
139.7538592603
30
0.0000000000
10
284.6644936468
20
140.1033961629
30
0.0000000000
10
284.6704448986
20
140.4874839752
30
0.0000000000
10
284.6776428949
20
140.9055333659
30
0.0000000000
10
284.6861002956
20
141.3488136383
30
0.0000000000
10
284.6957173086
20
141.8064326780
30
0.0000000000
10
284.7064548063
20
142.2734634865
30
0.0000000000
10
284.7184709451
20
142.7538853821
30
0.0000000000
10
284.7321013312
20
143.2566284679
30
0.0000000000
10
284.7478592492
20
143.7935582097
30
0.0000000000
10
284.7664001307
20
144.3769358139
30
0.0000000000
10
284.7885212498
20
145.0185074684
30
0.0000000000
10
284.8053430778
20
145.4669395143
30
0.0000000000
10
284.8145733105
20
145.7027395428
30
0.0000000000
11
284.6397468371
21
136.7695645240
31
0.0000000000
11
284.6397585422
21
136.8408300836
31
0.0000000000
11
284.6397940804
21
136.9127982770
31
0.0000000000
11
284.6398532615
21
136.9846329571
31
0.0000000000
11
284.6399354205
21
137.0559727946
31
0.0000000000
11
284.6400413440
21
137.1276266933
31
0.0000000000
11
284.6401782188
21
137.2031014187
31
0.0000000000
11
284.6403588338
21
137.2861839887
31
0.0000000000
11
284.6406020339
21
137.3805837970
31
0.0000000000
11
284.6409264064
21
137.4875834714
31
0.0000000000
11
284.6413478937
21
137.6066193598
31
0.0000000000
11
284.6418849599
21
137.7375429883
31
0.0000000000
11
284.6425643538
21
137.8815652376
31
0.0000000000
11
284.6434202214
21
138.0402932590
31
0.0000000000
11
284.6444943503
21
138.2154287136
31
0.0000000000
11
284.6458390081
21
138.4089594823
31
0.0000000000
11
284.6475262419
21
138.6239723519
31
0.0000000000
11
284.6496485688
21
138.8639477530
31
0.0000000000
11
284.6523097862
21
139.1313925785
31
0.0000000000
11
284.6555945985
21
139.4254783998
31
0.0000000000
11
284.6595836126
21
139.7447201697
31
0.0000000000
11
284.6644120520
21
140.0913697481
31
0.0000000000
11
284.6703417539
21
140.4740859702
31
0.0000000000
11
284.6776229148
21
140.8969791641
31
0.0000000000
11
284.6861804774
21
141.3455128862
31
0.0000000000
11
284.6958142646
21
141.8039224665
31
0.0000000000
11
284.7065264163
21
142.2698325539
31
0.0000000000
11
284.7184519091
21
142.7466011607
31
0.0000000000
11
284.7319706288
21
143.2451823982
31
0.0000000000
11
284.7476112953
21
143.7780530093
31
0.0000000000
11
284.7660264132
21
144.3573771642
31
0.0000000000
11
284.7880266645
21
144.9952956006
31
0.0000000000
11
284.8145733105
21
145.7027395428
31
0.0000000000
0
SPLINE
5
3FB
100
AcDbEntity
8
0
100
AcDbSpline
62
7
6
CONTINUOUS
70
0
71
3
72
18
73
14
74
12
42
0.0000001000
43
0.0000001000
44
0.0000000001
40
0.0000000000
40
0.0000000000
40
0.0000000000
40
0.0000000000
40
0.0053768637
40
0.0903658064
40
0.1749187544
40
0.2538795794
40
0.3332166643
40
0.4227307874
40
0.5243727620
40
0.6363794722
40
0.7558108650
40
0.8794201019
40
1.0000000000
40
1.0000000000
40
1.0000000000
40
1.0000000000
10
302.1078812877
20
136.7128322185
30
0.0000000000
10
302.1070407178
20
136.7091886005
30
0.0000000000
10
302.0924172795
20
136.6480683221
30
0.0000000000
10
302.0479451144
20
136.5338333090
30
0.0000000000
10
301.9443656259
20
136.3935766382
30
0.0000000000
10
301.8114928682
20
136.2873707143
30
0.0000000000
10
301.6532894564
20
136.2160378144
30
0.0000000000
10
301.4659447164
20
136.1854007416
30
0.0000000000
10
301.2543173198
20
136.2113809261
30
0.0000000000
10
301.0404922800
20
136.3078579661
30
0.0000000000
10
300.8551529651
20
136.4761803998
30
0.0000000000
10
300.7300092114
20
136.7001406332
30
0.0000000000
10
300.7000760009
20
136.8706495880
30
0.0000000000
10
300.7000760009
20
136.9542308452
30
0.0000000000
11
302.1078812877
21
136.7128322185
31
0.0000000000
11
302.1052709291
21
136.7019226058
31
0.0000000000
11
302.0409081896
21
136.5373261486
31
0.0000000000
11
301.9363367269
21
136.3959765130
31
0.0000000000
11
301.8081041751
21
136.2934227292
31
0.0000000000
11
301.6577659100
21
136.2254754761
31
0.0000000000
11
301.4741156124
21
136.1951143228
31
0.0000000000
11
301.2642654364
21
136.2203550000
31
0.0000000000
11
301.0517607423
21
136.3157049240
31
0.0000000000
11
300.8677718821
21
136.4825238117
31
0.0000000000
11
300.7428310823
21
136.7071591108
31
0.0000000000
11
300.7000760009
21
136.9542308452
31
0.0000000000
0
SPLINE
5
3FC
100
AcDbEntity
8
0
100
AcDbSpline
62
7
6
CONTINUOUS
70
0
71
3
72
37
73
33
74
31
42
0.0000001000
43
0.0000001000
44
0.0000000001
40
0.0000000000
40
0.0000000000
40
0.0000000000
40
0.0000000000
40
0.0100802842
40
0.0202394116
40
0.0303714037
40
0.0404177882
40
0.0504474757
40
0.0608877027
40
0.0722268407
40
0.0849638653
40
0.0993393687
40
0.1153134032
40
0.1328202227
40
0.1519512533
40
0.1728926049
40
0.1958476419
40
0.2210283946
40
0.2487133050
40
0.2792529583
40
0.3129870612
40
0.3500652552
40
0.3904144639
40
0.4339569241
40
0.4807309136
40
0.5308944288
40
0.5846669966
40
0.6423732852
40
0.7043091248
40
0.7707310016
40
0.8419341217
40
0.9182742101
40
1.0000000000
40
1.0000000000
40
1.0000000000
40
1.0000000000
10
284.6397468371
20
136.7695645240
30
0.0000000000
10
284.6397468371
20
136.7481695058
30
0.0000000000
10
284.6397531970
20
136.7052121276
30
0.0000000000
10
284.6397819470
20
136.6407499888
30
0.0000000000
10
284.6398299441
20
136.5763598123
30
0.0000000000
10
284.6398968723
20
136.5122443843
30
0.0000000000
10
284.6399837629
20
136.4474747629
30
0.0000000000
10
284.6400948747
20
136.3799613544
30
0.0000000000
10
284.6402392191
20
136.3067017768
30
0.0000000000
10
284.6404293830
20
136.2250898040
30
0.0000000000
10
284.6406796408
20
136.1336405608
30
0.0000000000
10
284.6410039919
20
136.0320677843
30
0.0000000000
10
284.6414170738
20
135.9204018277
30
0.0000000000
10
284.6419371436
20
135.7981932713
30
0.0000000000
10
284.6425882547
20
135.6644215570
30
0.0000000000
10
284.6434006985
20
135.5178102022
30
0.0000000000
10
284.6444122245
20
135.3568868252
30
0.0000000000
10
284.6456707446
20
135.1798666789
30
0.0000000000
10
284.6472369326
20
134.9846941756
30
0.0000000000
10
284.6491825770
20
134.7695872905
30
0.0000000000
10
284.6515847941
20
134.5336634142
30
0.0000000000
10
284.6545223916
20
134.2769262320
30
0.0000000000
10
284.6580796535
20
133.9996160813
30
0.0000000000
10
284.6623564129
20
133.7014832712
30
0.0000000000
10
284.6674755216
20
133.3816477033
30
0.0000000000
10
284.6735898870
20
133.0386222266
30
0.0000000000
10
284.6808854065
20
132.6706281995
30
0.0000000000
10
284.6895845530
20
132.2758099255
30
0.0000000000
10
284.6999502545
20
131.8523760668
30
0.0000000000
10
284.7122993256
20
131.3984106420
30
0.0000000000
10
284.7270122244
20
130.9120176433
30
0.0000000000
10
284.7383045633
20
130.5767180584
30
0.0000000000
10
284.7444683539
20
130.4033677392
30
0.0000000000
11
284.6397468371
21
136.7695645240
31
0.0000000000
11
284.6397563471
21
136.7053794703
31
0.0000000000
11
284.6397852050
21
136.6406923972
31
0.0000000000
11
284.6398333023
21
136.5761781163
31
0.0000000000
11
284.6399000854
21
136.5122089492
31
0.0000000000
11
284.6399857672
21
136.4483461214
31
0.0000000000
11
284.6400951821
21
136.3818692625
31
0.0000000000
11
284.6402374513
21
136.3096687404
31
0.0000000000
11
284.6404264421
21
136.2285674167
31
0.0000000000
11
284.6406769566
21
136.1370333886
31
0.0000000000
11
284.6410017879
21
136.0353210736
31
0.0000000000
11
284.6414141987
21
135.9238491696
31
0.0000000000
11
284.6419326506
21
135.8020356275
31
0.0000000000
11
284.6425817463
21
135.6686955513
31
0.0000000000
11
284.6433918129
21
135.5225342283
31
0.0000000000
11
284.6443997841
21
135.3622018397
31
0.0000000000
11
284.6456532358
21
135.1859258018
31
0.0000000000
11
284.6472139495
21
134.9914743229
31
0.0000000000
11
284.6491571628
21
134.7766850783
31
0.0000000000
11
284.6515615784
21
134.5406061711
31
0.0000000000
11
284.6545019117
21
134.2837040346
31
0.0000000000
11
284.6580592678
21
134.0064752322
31
0.0000000000
11
284.6623327269
21
133.7086778756
31
0.0000000000
11
284.6674463858
21
133.3893083778
31
0.0000000000
11
284.6735511486
21
133.0469721426
31
0.0000000000
11
284.6808378331
21
132.6796062215
31
0.0000000000
11
284.6895298929
21
132.2853326603
31
0.0000000000
11
284.6998869638
21
131.8625258061
31
0.0000000000
11
284.7122247443
21
131.4093160039
31
0.0000000000
11
284.7269345611
21
130.9234518626
31
0.0000000000
11
284.7444683539
21
130.4033677392
31
0.0000000000
0
SPLINE
5
3FD
100
AcDbEntity
8
0
100
AcDbSpline
62
7
6
CONTINUOUS
70
0
71
3
72
13
73
9
74
7
42
0.0000001000
43
0.0000001000
44
0.0000000001
40
0.0000000000
40
0.0000000000
40
0.0000000000
40
0.0000000000
40
0.2889952452
40
0.5456254648
40
0.7533482881
40
0.9027107093
40
0.9843533908
40
1.0000000000
40
1.0000000000
40
1.0000000000
40
1.0000000000
10
284.1146640023
20
158.8043518776
30
0.0000000000
10
284.1146640023
20
158.5782425215
30
0.0000000000
10
284.1175542878
20
158.1498448912
30
0.0000000000
10
284.1438220933
20
157.5663895540
30
0.0000000000
10
284.1615511437
20
157.0720866845
30
0.0000000000
10
284.2367343053
20
156.7651592753
30
0.0000000000
10
284.2269632320
20
156.5229808201
30
0.0000000000
10
284.3075063314
20
156.4970646652
30
0.0000000000
10
284.3201268512
20
156.4954574188
30
0.0000000000
11
284.1146640023
21
158.8043518776
31
0.0000000000
11
284.1222521116
21
158.1260662529
31
0.0000000000
11
284.1446792563
21
157.5241228461
31
0.0000000000
11
284.1804535650
21
157.0378711750
31
0.0000000000
11
284.2279638511
21
156.6905226810
31
0.0000000000
11
284.2837824688
21
156.5072010484
31
0.0000000000
11
284.3201268512
21
156.4954574188
31
0.0000000000
0
SPLINE
5
3FE
100
AcDbEntity
8
0
100
AcDbSpline
62
7
6
CONTINUOUS
70
0
71
3
72
10
73
6
74
4
42
0.0000001000
43
0.0000001000
44
0.0000000001
40
0.0000000000
40
0.0000000000
40
0.0000000000
40
0.0000000000
40
0.1356198528
40
0.5687080888
40
1.0000000000
40
1.0000000000
40
1.0000000000
40
1.0000000000
10
305.0483542112
20
135.7006778701
30
0.0000000000
10
305.0549177372
20
135.6875126167
30
0.0000000000
10
305.0807326190
20
135.6314568791
30
0.0000000000
10
305.1129965641
20
135.5273389895
30
0.0000000000
10
305.1219688650
20
135.4333631004
30
0.0000000000
10
305.1215322038
20
135.3866582916
30
0.0000000000
11
305.0483542112
21
135.7006778701
31
0.0000000000
11
305.0668053073
21
135.6605978571
31
0.0000000000
11
305.1083058418
21
135.5261532087
31
0.0000000000
11
305.1215322038
21
135.3866582916
31
0.0000000000
0
SPLINE
5
3FF
100
AcDbEntity
8
0
100
AcDbSpline
62
7
6
CONTINUOUS
70
0
71
3
72
15
73
11
74
9
42
0.0000001000
43
0.0000001000
44
0.0000000001
40
0.0000000000
40
0.0000000000
40
0.0000000000
40
0.0000000000
40
0.0070257768
40
0.0539660004
40
0.1441996702
40
0.2719380160
40
0.4320127895
40
0.6130152843
40
0.8065449261
40
1.0000000000
40
1.0000000000
40
1.0000000000
40
1.0000000000
10
306.3201268512
20
162.4629526625
30
0.0000000000
10
306.3290794961
20
162.4640927982
30
0.0000000000
10
306.3965594197
20
162.4629525431
30
0.0000000000
10
306.4088844124
20
162.2139725872
30
0.0000000000
10
306.4891135192
20
161.9427706081
30
0.0000000000
10
306.5299509570
20
161.4546682705
30
0.0000000000
10
306.5792557045
20
160.8857279709
30
0.0000000000
10
306.6123641420
20
160.2228833871
30
0.0000000000
10
306.6345040903
20
159.5220021845
30
0.0000000000
10
306.6395959835
20
159.0434675069
30
0.0000000000
10
306.6395959835
20
158.8043518776
30
0.0000000000
11
306.3201268512
21
162.4629526625
31
0.0000000000
11
306.3455842274
21
162.4622359130
31
0.0000000000
11
306.4086757584
21
162.3000148224
31
0.0000000000
11
306.4704775170
21
161.9711782927
31
0.0000000000
11
306.5262961347
21
161.5008147416
31
0.0000000000
11
306.5738064208
21
160.9091491323
31
0.0000000000
11
306.6095807296
21
160.2389314901
31
0.0000000000
11
306.6320078742
21
159.5216586307
31
0.0000000000
11
306.6395959835
21
158.8043518776
31
0.0000000000
0
SPLINE
5
400
100
AcDbEntity
8
0
100
AcDbSpline
62
7
6
CONTINUOUS
70
0
71
3
72
10
73
6
74
4
42
0.0000001000
43
0.0000001000
44
0.0000000001
40
0.0000000000
40
0.0000000000
40
0.0000000000
40
0.0000000000
40
0.3411884809
40
0.6746790640
40
1.0000000000
40
1.0000000000
40
1.0000000000
40
1.0000000000
10
285.5099447830
20
166.6713435973
30
0.0000000000
10
285.5056874264
20
166.8242296473
30
0.0000000000
10
285.4966362604
20
167.1265351843
30
0.0000000000
10
285.4812410481
20
167.5745443267
30
0.0000000000
10
285.4697306020
20
167.8696481707
30
0.0000000000
10
285.4636862954
20
168.0153551933
30
0.0000000000
11
285.5099447830
21
166.6713435973
31
0.0000000000
11
285.4961914106
21
167.1299733706
31
0.0000000000
11
285.4807647650
21
167.5781916581
31
0.0000000000
11
285.4636862954
21
168.0153551933
31
0.0000000000
0
SPLINE
5
401
100
AcDbEntity
8
0
100
AcDbSpline
62
7
6
CONTINUOUS
70
0
71
3
72
16
73
12
74
10
42
0.0000001000
43
0.0000001000
44
0.0000000001
40
0.0000000000
40
0.0000000000
40
0.0000000000
40
0.0000000000
40
0.0583006913
40
0.1620069859
40
0.2712660838
40
0.3890469090
40
0.5109362021
40
0.6357070212
40
0.7605354833
40
0.8824264595
40
1.0000000000
40
1.0000000000
40
1.0000000000
40
1.0000000000
10
288.6922642115
20
133.8372801435
30
0.0000000000
10
288.7075748234
20
133.8029930410
30
0.0000000000
10
288.7588169388
20
133.7116468736
30
0.0000000000
10
288.8822577256
20
133.5845486160
30
0.0000000000
10
289.0749081064
20
133.4870037078
30
0.0000000000
10
289.3002319005
20
133.4544696669
30
0.0000000000
10
289.5342123906
20
133.4938194760
30
0.0000000000
10
289.7506141468
20
133.6012789795
30
0.0000000000
10
289.9274165414
20
133.7660150022
30
0.0000000000
10
290.0467221938
20
133.9707622897
30
0.0000000000
10
290.0806427170
20
134.1237165655
30
0.0000000000
10
290.0845064086
20
134.1990176170
30
0.0000000000
11
288.6922642115
21
133.8372801435
31
0.0000000000
11
288.7473665502
21
133.7392479198
31
0.0000000000
11
288.8861656356
21
133.5959179907
31
0.0000000000
11
289.0732719584
21
133.5001213305
31
0.0000000000
11
289.2973628091
21
133.4664991137
31
0.0000000000
11
289.5287785436
21
133.5044281869
31
0.0000000000
11
289.7439319066
21
133.6108786100
31
0.0000000000
11
289.9194402387
21
133.7748076866
31
0.0000000000
11
290.0366053637
21
133.9779473157
31
0.0000000000
11
290.0845064086
21
134.1990176170
31
0.0000000000
0
SPLINE
5
402
100
AcDbEntity
8
0
100
AcDbSpline
62
7
6
CONTINUOUS
70
0
71
3
72
12
73
8
74
6
42
0.0000001000
43
0.0000001000
44
0.0000000001
40
0.0000000000
40
0.0000000000
40
0.0000000000
40
0.0000000000
40
0.2471244312
40
0.4965704844
40
0.7352252753
40
0.9616632690
40
1.0000000000
40
1.0000000000
40
1.0000000000
40
1.0000000000
10
290.0541839849
20
136.9542308452
30
0.0000000000
10
290.0541839849
20
137.0356681853
30
0.0000000000
10
290.0259340030
20
137.2008589487
30
0.0000000000
10
289.8998956589
20
137.4142548338
30
0.0000000000
10
289.7107818035
20
137.5632326288
30
0.0000000000
10
289.5501398128
20
137.6158480163
30
0.0000000000
10
289.4632010305
20
137.6268052518
30
0.0000000000
10
289.4505803092
20
137.6280448010
30
0.0000000000
11
290.0541839849
21
136.9542308452
31
0.0000000000
11
290.0119796763
21
137.1948699101
31
0.0000000000
11
289.8861597819
21
137.4069653500
31
0.0000000000
11
289.7008828785
21
137.5530460534
31
0.0000000000
11
289.4883253913
21
137.6232818315
31
0.0000000000
11
289.4505803092
21
137.6280448010
31
0.0000000000
0
SPLINE
5
403
100
AcDbEntity
8
0
100
AcDbSpline
62
7
6
CONTINUOUS
70
0
71
3
72
20
73
16
74
14
42
0.0000001000
43
0.0000001000
44
0.0000000001
40
0.0000000000
40
0.0000000000
40
0.0000000000
40
0.0000000000
40
0.0628285863
40
0.1251902824
40
0.1874333624
40
0.2499962887
40
0.3121054135
40
0.3736238573
40
0.4377616592
40
0.5085808508
40
0.5902365309
40
0.6829694716
40
0.7846505121
40
0.8920383912
40
1.0000000000
40
1.0000000000
40
1.0000000000
40
1.0000000000
10
285.6327277820
20
138.1928440782
30
0.0000000000
10
285.6322931150
20
138.1447609508
30
0.0000000000
10
285.6411152098
20
138.0485785371
30
0.0000000000
10
285.6829400694
20
137.9103850187
30
0.0000000000
10
285.7515976372
20
137.7835352120
30
0.0000000000
10
285.8443001785
20
137.6732885121
30
0.0000000000
10
285.9568058530
20
137.5842709836
30
0.0000000000
10
286.0857554577
20
137.5187597135
30
0.0000000000
10
286.2317115007
20
137.4784809734
30
0.0000000000
10
286.3986035707
20
137.4691570949
30
0.0000000000
10
286.5851449941
20
137.5036520151
30
0.0000000000
10
286.7777113795
20
137.5974780773
30
0.0000000000
10
286.9488624566
20
137.7583399093
30
0.0000000000
10
287.0654552132
20
137.9761833205
30
0.0000000000
10
287.0906170745
20
138.1429914856
30
0.0000000000
10
287.0886802236
20
138.2255958819
30
0.0000000000
11
285.6327277820
21
138.1928440782
31
0.0000000000
11
285.6459621989
21
138.0491971676
31
0.0000000000
11
285.6874508225
21
137.9121564852
31
0.0000000000
11
285.7554889467
21
137.7864809024
31
0.0000000000
11
285.8479250385
21
137.6765284307
31
0.0000000000
11
285.9597372918
21
137.5880199857
31
0.0000000000
11
286.0856465862
21
137.5240073851
31
0.0000000000
11
286.2275891052
21
137.4847875202
31
0.0000000000
11
286.3899349072
21
137.4756666544
31
0.0000000000
11
286.5743008044
21
137.5097095268
31
0.0000000000
11
286.7657005611
21
137.6029800364
31
0.0000000000
11
286.9357685858
21
137.7629204011
31
0.0000000000
11
287.0518070607
21
137.9804724252
31
0.0000000000
11
287.0886802236
21
138.2255958819
31
0.0000000000
0
SPLINE
5
404
100
AcDbEntity
8
0
100
AcDbSpline
62
7
6
CONTINUOUS
70
0
71
3
72
17
73
13
74
11
42
0.0000001000
43
0.0000001000
44
0.0000000001
40
0.0000000000
40
0.0000000000
40
0.0000000000
40
0.0000000000
40
0.1077359711
40
0.2157744585
40
0.3239688913
40
0.4322284534
40
0.5423834060
40
0.6485557031
40
0.7441643385
40
0.8321928705
40
0.9157477596
40
1.0000000000
40
1.0000000000
40
1.0000000000
40
1.0000000000
10
287.0886802236
20
138.2255958819
30
0.0000000000
10
287.0867889708
20
138.3062555709
30
0.0000000000
10
287.0551524721
20
138.4685188665
30
0.0000000000
10
286.9285319968
20
138.6809346876
30
0.0000000000
10
286.7371279638
20
138.8384705149
30
0.0000000000
10
286.5026304133
20
138.9231259276
30
0.0000000000
10
286.2548258431
20
138.9249224442
30
0.0000000000
10
286.0294376398
20
138.8493523358
30
0.0000000000
10
285.8515002461
20
138.7198723342
30
0.0000000000
10
285.7268111315
20
138.5602827198
30
0.0000000000
10
285.6511998296
20
138.3820627483
30
0.0000000000
10
285.6332981339
20
138.2559367438
30
0.0000000000
10
285.6327277820
20
138.1928440782
30
0.0000000000
11
287.0886802236
21
138.2255958819
31
0.0000000000
11
287.0420594648
21
138.4631091768
31
0.0000000000
11
286.9178500526
21
138.6716458806
31
0.0000000000
11
286.7302375361
21
138.8262009887
31
0.0000000000
11
286.5015513530
21
138.9090232318
31
0.0000000000
11
286.2540794207
21
138.9110452200
31
0.0000000000
11
286.0278699741
21
138.8353678897
31
0.0000000000
11
285.8541792347
21
138.7089938032
31
0.0000000000
11
285.7324514603
21
138.5531245467
31
0.0000000000
11
285.6592634863
21
138.3802605774
31
0.0000000000
11
285.6327277820
21
138.1928440782
31
0.0000000000
0
SPLINE
5
405
100
AcDbEntity
8
0
100
AcDbSpline
62
7
6
CONTINUOUS
70
0
71
3
72
12
73
8
74
6
42
0.0000001000
43
0.0000001000
44
0.0000000001
40
0.0000000000
40
0.0000000000
40
0.0000000000
40
0.0000000000
40
0.2122072486
40
0.4233217569
40
0.6334803167
40
0.8424650862
40
1.0000000000
40
1.0000000000
40
1.0000000000
40
1.0000000000
10
290.0845064086
20
139.8113891902
30
0.0000000000
10
290.0807221369
20
139.8899745406
30
0.0000000000
10
290.0485612185
20
140.0467027451
30
0.0000000000
10
289.9297309884
20
140.2538419373
30
0.0000000000
10
289.7512689302
20
140.4113538274
30
0.0000000000
10
289.5496439102
20
140.4938705041
30
0.0000000000
10
289.4126481890
20
140.5067406556
30
0.0000000000
10
289.3539990777
20
140.5049506109
30
0.0000000000
11
290.0845064086
21
139.8113891902
31
0.0000000000
11
290.0366053637
21
140.0425066754
31
0.0000000000
11
289.9194402387
21
140.2460008239
31
0.0000000000
11
289.7439319066
21
140.4003904411
31
0.0000000000
11
289.5287785436
21
140.4883660834
31
0.0000000000
11
289.3539990777
21
140.5049506109
31
0.0000000000
0
SPLINE
5
406
100
AcDbEntity
8
0
100
AcDbSpline
62
7
6
CONTINUOUS
70
0
71
3
72
17
73
13
74
11
42
0.0000001000
43
0.0000001000
44
0.0000000001
40
0.0000000000
40
0.0000000000
40
0.0000000000
40
0.0000000000
40
0.0998586971
40
0.1967912679
40
0.2915350046
40
0.3853448681
40
0.4796935253
40
0.5753640369
40
0.6747627621
40
0.7789695219
40
0.8892652950
40
1.0000000000
40
1.0000000000
40
1.0000000000
40
1.0000000000
10
285.6272290160
20
141.0936723522
30
0.0000000000
10
285.6269521347
20
141.0150317673
30
0.0000000000
10
285.6512348469
20
140.8588399715
30
0.0000000000
10
285.7562751296
20
140.6507640774
30
0.0000000000
10
285.9156220013
20
140.4872463830
30
0.0000000000
10
286.1145110168
20
140.3795615714
30
0.0000000000
10
286.3372308658
20
140.3357949703
30
0.0000000000
10
286.5673270177
20
140.3615723163
30
0.0000000000
10
286.7857397942
20
140.4603326689
30
0.0000000000
10
286.9699136471
20
140.6320864002
30
0.0000000000
10
287.0904105876
20
140.8638836173
30
0.0000000000
10
287.1130802851
20
141.0407502942
30
0.0000000000
10
287.1089443074
20
141.1278583437
30
0.0000000000
11
285.6272290160
21
141.0936723522
31
0.0000000000
11
285.6636004313
21
140.8605696183
31
0.0000000000
11
285.7667627620
21
140.6561114792
31
0.0000000000
11
285.9230400599
21
140.4958579372
31
0.0000000000
11
286.1179518141
21
140.3903575197
31
0.0000000000
11
286.3366777016
21
140.3473949154
31
0.0000000000
11
286.5613024564
21
140.3725450044
31
0.0000000000
11
286.7752878861
21
140.4692839221
31
0.0000000000
11
286.9553942604
21
140.6371352748
31
0.0000000000
11
287.0755017737
21
140.8683860633
31
0.0000000000
11
287.1089443074
21
141.1278583437
31
0.0000000000
0
SPLINE
5
407
100
AcDbEntity
8
0
100
AcDbSpline
62
7
6
CONTINUOUS
70
0
71
3
72
16
73
12
74
10
42
0.0000001000
43
0.0000001000
44
0.0000000001
40
0.0000000000
40
0.0000000000
40
0.0000000000
40
0.0000000000
40
0.1132060609
40
0.2271935362
40
0.3411657697
40
0.4545218318
40
0.5685708429
40
0.6822241354
40
0.7928455012
40
0.9002587325
40
1.0000000000
40
1.0000000000
40
1.0000000000
40
1.0000000000
10
287.1089443074
20
141.1278583437
30
0.0000000000
10
287.1048546686
20
141.2139904482
30
0.0000000000
10
287.0661128406
20
141.3868916402
30
0.0000000000
10
286.9228432098
20
141.6098974235
30
0.0000000000
10
286.7111269134
20
141.7701067170
30
0.0000000000
10
286.4570656110
20
141.8470852571
30
0.0000000000
10
286.1922298480
20
141.8311874867
30
0.0000000000
10
285.9513601787
20
141.7253063182
30
0.0000000000
10
285.7648845513
20
141.5475412482
30
0.0000000000
10
285.6524184161
20
141.3283610115
30
0.0000000000
10
285.6274965036
20
141.1696448782
30
0.0000000000
10
285.6272290160
20
141.0936723522
30
0.0000000000
11
287.1089443074
21
141.1278583437
31
0.0000000000
11
287.0521768360
21
141.3802402673
31
0.0000000000
11
286.9114171734
21
141.5994044011
31
0.0000000000
11
286.7036632829
21
141.7564597362
31
0.0000000000
11
286.4557569211
21
141.8315535039
31
0.0000000000
11
286.1956105346
21
141.8159544450
31
0.0000000000
11
285.9578263316
21
141.7115147978
31
0.0000000000
11
285.7747708577
21
141.5371904111
31
0.0000000000
11
285.6627142742
21
141.3188120040
31
0.0000000000
11
285.6272290160
21
141.0936723522
31
0.0000000000
0
SPLINE
5
408
100
AcDbEntity
8
0
100
AcDbSpline
62
7
6
CONTINUOUS
70
0
71
3
72
11
73
7
74
5
42
0.0000001000
43
0.0000001000
44
0.0000000001
40
0.0000000000
40
0.0000000000
40
0.0000000000
40
0.0000000000
40
0.3115539817
40
0.6195127537
40
0.9129535829
40
1.0000000000
40
1.0000000000
40
1.0000000000
40
1.0000000000
10
287.0886802236
20
135.4194100953
30
0.0000000000
10
287.0906071926
20
135.4989908185
30
0.0000000000
10
287.0656992659
20
135.6594656214
30
0.0000000000
10
286.9479755857
20
135.8664502556
30
0.0000000000
10
286.8121093054
20
135.9832078069
30
0.0000000000
10
286.7264400599
20
136.0301475657
30
0.0000000000
10
286.7063830185
20
136.0399433689
30
0.0000000000
11
287.0886802236
21
135.4194100953
31
0.0000000000
11
287.0516504563
21
135.6553338939
31
0.0000000000
11
286.9353164590
21
135.8607335091
31
0.0000000000
11
286.7650845205
21
136.0077495715
31
0.0000000000
11
286.7063830185
21
136.0399433689
31
0.0000000000
0
SPLINE
5
409
100
AcDbEntity
8
0
100
AcDbSpline
62
7
6
CONTINUOUS
70
0
71
3
72
17
73
13
74
11
42
0.0000001000
43
0.0000001000
44
0.0000000001
40
0.0000000000
40
0.0000000000
40
0.0000000000
40
0.0000000000
40
0.0823374505
40
0.1635387220
40
0.2492696860
40
0.3433228021
40
0.4495273442
40
0.5616817326
40
0.6728989700
40
0.7837762937
40
0.8930506108
40
1.0000000000
40
1.0000000000
40
1.0000000000
40
1.0000000000
10
285.6327277820
20
135.3866582916
30
0.0000000000
10
285.6332951087
20
135.3259776609
30
0.0000000000
10
285.6510157960
20
135.2049325406
30
0.0000000000
10
285.7268664296
20
135.0352298573
30
0.0000000000
10
285.8521710107
20
134.8858873057
30
0.0000000000
10
286.0309663640
20
134.7684393926
30
0.0000000000
10
286.2567486168
20
134.7058616996
30
0.0000000000
10
286.5036767975
20
134.7190702542
30
0.0000000000
10
286.7367850408
20
134.8109411323
30
0.0000000000
10
286.9273493999
20
134.9706311656
30
0.0000000000
10
287.0542841145
20
135.1807277135
30
0.0000000000
10
287.0867721745
20
135.3406107373
30
0.0000000000
10
287.0886802236
20
135.4194100953
30
0.0000000000
11
285.6327277820
21
135.3866582916
31
0.0000000000
11
285.6592612911
21
135.2065524336
31
0.0000000000
11
285.7324331690
21
135.0426022169
31
0.0000000000
11
285.8541056990
21
134.8972539211
31
0.0000000000
11
286.0276773879
21
134.7827222698
31
0.0000000000
11
286.2538186710
21
134.7194705175
31
0.0000000000
11
286.5014608027
21
134.7323288671
31
0.0000000000
11
286.7302092639
21
134.8225660873
31
0.0000000000
11
286.9178274832
21
134.9803601369
31
0.0000000000
11
287.0420534868
21
135.1875852419
31
0.0000000000
11
287.0886802236
21
135.4194100953
31
0.0000000000
0
SPLINE
5
40A
100
AcDbEntity
8
0
100
AcDbSpline
62
7
6
CONTINUOUS
70
0
71
3
72
10
73
6
74
4
42
0.0000001000
43
0.0000001000
44
0.0000000001
40
0.0000000000
40
0.0000000000
40
0.0000000000
40
0.0000000000
40
0.4247822945
40
0.8458603926
40
1.0000000000
40
1.0000000000
40
1.0000000000
40
1.0000000000
10
290.0845064086
20
134.1990176170
30
0.0000000000
10
290.0883722388
20
134.2743603491
30
0.0000000000
10
290.0705497954
20
134.4272212970
30
0.0000000000
10
289.9862780486
20
134.5881247436
30
0.0000000000
10
289.9170007365
20
134.6642444936
30
0.0000000000
10
289.8971560514
20
134.6833205205
30
0.0000000000
11
290.0845064086
21
134.1990176170
31
0.0000000000
11
290.0569895131
21
134.4236641565
31
0.0000000000
11
289.9526350916
21
134.6222691434
31
0.0000000000
11
289.8971560514
21
134.6833205205
31
0.0000000000
0
SPLINE
5
40B
100
AcDbEntity
8
0
100
AcDbSpline
62
7
6
CONTINUOUS
70
0
71
3
72
13
73
9
74
7
42
0.0000001000
43
0.0000001000
44
0.0000000001
40
0.0000000000
40
0.0000000000
40
0.0000000000
40
0.0000000000
40
0.1737947029
40
0.3497257864
40
0.5239930536
40
0.6928617931
40
0.8526714480
40
1.0000000000
40
1.0000000000
40
1.0000000000
40
1.0000000000
10
284.8145733105
20
147.9371494702
30
0.0000000000
10
284.8145733105
20
148.9087497747
30
0.0000000000
10
284.8276211207
20
150.8639142179
30
0.0000000000
10
284.8839144516
20
153.7928313980
30
0.0000000000
10
284.9760129503
20
156.6932957470
30
0.0000000000
10
285.1019024018
20
159.5022854430
30
0.0000000000
10
285.2588108541
20
162.1588656867
30
0.0000000000
10
285.3878281550
20
163.8711822096
30
0.0000000000
10
285.4582239341
20
164.6918095001
30
0.0000000000
11
284.8145733105
21
147.9371494702
31
0.0000000000
11
284.8335976736
21
150.8518882988
31
0.0000000000
11
284.8902799855
21
153.8019750682
31
0.0000000000
11
284.9834204447
21
156.7232171409
31
0.0000000000
11
285.1110527690
21
159.5525248386
31
0.0000000000
11
285.2704443112
21
162.2280316582
31
0.0000000000
11
285.4582239341
21
164.6918095001
31
0.0000000000
0
SPLINE
5
40C
100
AcDbEntity
8
0
100
AcDbSpline
62
7
6
CONTINUOUS
70
0
71
3
72
9
73
5
74
3
42
0.0000001000
43
0.0000001000
44
0.0000000001
40
0.0000000000
40
0.0000000000
40
0.0000000000
40
0.0000000000
40
0.7149391028
40
1.0000000000
40
1.0000000000
40
1.0000000000
40
1.0000000000
10
287.1089443074
20
132.7093009840
30
0.0000000000
10
287.1130519943
20
132.7875745789
30
0.0000000000
10
287.0972026520
20
132.8994673399
30
0.0000000000
10
287.0522269412
20
133.0005744056
30
0.0000000000
10
287.0372907096
20
133.0282474908
30
0.0000000000
11
287.1089443074
21
132.7093009840
31
0.0000000000
11
287.0755017737
21
132.9420546213
31
0.0000000000
11
287.0372907096
21
133.0282474908
31
0.0000000000
0
SPLINE
5
40D
100
AcDbEntity
8
0
100
AcDbSpline
62
7
6
CONTINUOUS
70
0
71
3
72
8
73
4
74
2
42
0.0000001000
43
0.0000001000
44
0.0000000001
40
0.0000000000
40
0.0000000000
40
0.0000000000
40
0.0000000000
40
1.0000000000
40
1.0000000000
40
1.0000000000
40
1.0000000000
10
285.6272290160
20
132.6751149925
30
0.0000000000
10
285.6273616007
20
132.6411283664
30
0.0000000000
10
285.6304059954
20
132.6070103396
30
0.0000000000
10
285.6362946829
20
132.5733394686
30
0.0000000000
11
285.6272290160
21
132.6751149925
31
0.0000000000
11
285.6362946829
21
132.5733394686
31
0.0000000000
0
SPLINE
5
40E
100
AcDbEntity
8
0
100
AcDbSpline
62
7
6
CONTINUOUS
70
0
71
3
72
16
73
12
74
10
42
0.0000001000
43
0.0000001000
44
0.0000000001
40
0.0000000000
40
0.0000000000
40
0.0000000000
40
0.0000000000
40
0.0495290566
40
0.1567130819
40
0.2705202414
40
0.3919853808
40
0.5173184744
40
0.6426174099
40
0.7663165300
40
0.8857249745
40
1.0000000000
40
1.0000000000
40
1.0000000000
40
1.0000000000
10
285.6362946829
20
132.5733394686
30
0.0000000000
10
285.6422324166
20
132.5393881574
30
0.0000000000
10
285.6701698421
20
132.4334025468
30
0.0000000000
10
285.7671758408
20
132.2685559100
30
0.0000000000
10
285.9556547871
20
132.1168090652
30
0.0000000000
10
286.1959549071
20
132.0337132232
30
0.0000000000
10
286.4578128796
20
132.0318017374
30
0.0000000000
10
286.7088200638
20
132.1111679232
30
0.0000000000
10
286.9194559333
20
132.2627443045
30
0.0000000000
10
287.0642151753
20
132.4691924473
30
0.0000000000
10
287.1048005944
20
132.6303408953
30
0.0000000000
10
287.1089443074
20
132.7093009840
30
0.0000000000
11
285.6362946829
21
132.5733394686
31
0.0000000000
11
285.6627142742
21
132.4734425742
31
0.0000000000
11
285.7747708577
21
132.2812348007
31
0.0000000000
11
285.9578263316
21
132.1319106765
31
0.0000000000
11
286.1956105346
21
132.0480729658
31
0.0000000000
11
286.4557569211
21
132.0454119827
31
0.0000000000
11
286.7036632829
21
132.1240807278
31
0.0000000000
11
286.9114171734
21
132.2749723085
31
0.0000000000
11
287.0521768360
21
132.4789876153
31
0.0000000000
11
287.1089443074
21
132.7093009840
31
0.0000000000
0
SPLINE
5
40F
100
AcDbEntity
8
0
100
AcDbSpline
62
7
6
CONTINUOUS
70
0
71
3
72
10
73
6
74
4
42
0.0000001000
43
0.0000001000
44
0.0000000001
40
0.0000000000
40
0.0000000000
40
0.0000000000
40
0.0000000000
40
0.1356198528
40
0.5687080888
40
1.0000000000
40
1.0000000000
40
1.0000000000
40
1.0000000000
10
285.7059057747
20
135.7006778701
30
0.0000000000
10
285.6993422486
20
135.6875126167
30
0.0000000000
10
285.6735273668
20
135.6314568791
30
0.0000000000
10
285.6412634217
20
135.5273389895
30
0.0000000000
10
285.6322911208
20
135.4333631004
30
0.0000000000
10
285.6327277820
20
135.3866582916
30
0.0000000000
11
285.7059057747
21
135.7006778701
31
0.0000000000
11
285.6874546785
21
135.6605978571
31
0.0000000000
11
285.6459541441
21
135.5261532087
31
0.0000000000
11
285.6327277820
21
135.3866582916
31
0.0000000000
0
SPLINE
5
410
100
AcDbEntity
8
0
100
AcDbSpline
62
7
6
CONTINUOUS
70
0
71
3
72
16
73
12
74
10
42
0.0000001000
43
0.0000001000
44
0.0000000001
40
0.0000000000
40
0.0000000000
40
0.0000000000
40
0.0000000000
40
0.0583006913
40
0.1620069859
40
0.2712660838
40
0.3890469090
40
0.5109362021
40
0.6357070212
40
0.7605354833
40
0.8824264595
40
1.0000000000
40
1.0000000000
40
1.0000000000
40
1.0000000000
10
302.0619957743
20
133.8372801435
30
0.0000000000
10
302.0466851624
20
133.8029930410
30
0.0000000000
10
301.9954430470
20
133.7116468736
30
0.0000000000
10
301.8720022602
20
133.5845486160
30
0.0000000000
10
301.6793518794
20
133.4870037078
30
0.0000000000
10
301.4540280853
20
133.4544696669
30
0.0000000000
10
301.2200475952
20
133.4938194760
30
0.0000000000
10
301.0036458390
20
133.6012789795
30
0.0000000000
10
300.8268434444
20
133.7660150022
30
0.0000000000
10
300.7075377921
20
133.9707622897
30
0.0000000000
10
300.6736172688
20
134.1237165655
30
0.0000000000
10
300.6697535772
20
134.1990176170
30
0.0000000000
11
302.0619957743
21
133.8372801435
31
0.0000000000
11
302.0068934357
21
133.7392479198
31
0.0000000000
11
301.8680943502
21
133.5959179907
31
0.0000000000
11
301.6809880275
21
133.5001213305
31
0.0000000000
11
301.4568971767
21
133.4664991137
31
0.0000000000
11
301.2254814422
21
133.5044281869
31
0.0000000000
11
301.0103280792
21
133.6108786100
31
0.0000000000
11
300.8348197471
21
133.7748076866
31
0.0000000000
11
300.7176546221
21
133.9779473157
31
0.0000000000
11
300.6697535772
21
134.1990176170
31
0.0000000000
0
SPLINE
5
411
100
AcDbEntity
8
0
100
AcDbSpline
62
7
6
CONTINUOUS
70
0
71
3
72
10
73
6
74
4
42
0.0000001000
43
0.0000001000
44
0.0000000001
40
0.0000000000
40
0.0000000000
40
0.0000000000
40
0.0000000000
40
0.3224724489
40
0.6561204270
40
1.0000000000
40
1.0000000000
40
1.0000000000
40
1.0000000000
10
284.7444683539
20
130.4033677392
30
0.0000000000
10
284.7508838619
20
130.2229381280
30
0.0000000000
10
284.7773002825
20
129.8561489659
30
0.0000000000
10
284.8597154562
20
129.3018596929
30
0.0000000000
10
284.9453630203
20
128.9318025017
30
0.0000000000
10
284.9964698557
20
128.7461806537
30
0.0000000000
11
284.7444683539
21
130.4033677392
31
0.0000000000
11
284.7835312645
21
129.8631473036
31
0.0000000000
11
284.8661010919
21
129.3088620886
31
0.0000000000
11
284.9964698557
21
128.7461806537
31
0.0000000000
0
SPLINE
5
412
100
AcDbEntity
8
0
100
AcDbSpline
62
7
6
CONTINUOUS
70
0
71
3
72
10
73
6
74
4
42
0.0000001000
43
0.0000001000
44
0.0000000001
40
0.0000000000
40
0.0000000000
40
0.0000000000
40
0.0000000000
40
0.3332313863
40
0.6665607576
40
1.0000000000
40
1.0000000000
40
1.0000000000
40
1.0000000000
10
284.9964698557
20
128.7461806537
30
0.0000000000
10
285.0112960021
20
128.6716257631
30
0.0000000000
10
285.0427469010
20
128.5228441600
30
0.0000000000
10
285.0952783993
20
128.3008407973
30
0.0000000000
10
285.1338502194
20
128.1536954559
30
0.0000000000
10
285.1540184225
20
128.0803558306
30
0.0000000000
11
284.9964698557
21
128.7461806537
31
0.0000000000
11
285.0436331498
21
128.5230666904
31
0.0000000000
11
285.0961587020
21
128.3010849998
31
0.0000000000
11
285.1540184225
21
128.0803558306
31
0.0000000000
0
SPLINE
5
413
100
AcDbEntity
8
0
100
AcDbSpline
62
7
6
CONTINUOUS
70
0
71
3
72
12
73
8
74
6
42
0.0000001000
43
0.0000001000
44
0.0000000001
40
0.0000000000
40
0.0000000000
40
0.0000000000
40
0.0000000000
40
0.1950745014
40
0.3959567179
40
0.5955531943
40
0.7993605422
40
1.0000000000
40
1.0000000000
40
1.0000000000
40
1.0000000000
10
286.9499920438
20
120.4408446922
30
0.0000000000
10
286.9723376004
20
120.3595873415
30
0.0000000000
10
287.0400990293
20
120.1999573349
30
0.0000000000
10
287.2013197480
20
119.9956717433
30
0.0000000000
10
287.4131071769
20
119.8380057294
30
0.0000000000
10
287.6579422275
20
119.7398623310
30
0.0000000000
10
287.8334584024
20
119.7177005151
30
0.0000000000
10
287.9201363559
20
119.7177005151
30
0.0000000000
11
286.9499920438
21
120.4408446922
31
0.0000000000
11
287.0486748632
21
120.2080777924
31
0.0000000000
11
287.2097055121
21
120.0035039374
31
0.0000000000
11
287.4170483161
21
119.8488255422
31
0.0000000000
11
287.6621675405
21
119.7504067659
31
0.0000000000
11
287.9201363559
21
119.7177005151
31
0.0000000000
0
SPLINE
5
414
100
AcDbEntity
8
0
100
AcDbSpline
62
7
6
CONTINUOUS
70
0
71
3
72
14
73
10
74
8
42
0.0000001000
43
0.0000001000
44
0.0000000001
40
0.0000000000
40
0.0000000000
40
0.0000000000
40
0.0000000000
40
0.1291856677
40
0.2643569615
40
0.4038407643
40
0.5490770163
40
0.6981807817
40
0.8499587050
40
1.0000000000
40
1.0000000000
40
1.0000000000
40
1.0000000000
10
288.9424209305
20
139.1441542450
30
0.0000000000
10
289.0001102893
20
139.1031281231
30
0.0000000000
10
289.1309531122
20
139.0371097339
30
0.0000000000
10
289.3524295034
20
139.0025458117
30
0.0000000000
10
289.5823591969
20
139.0412946880
30
0.0000000000
10
289.7947973483
20
139.1550488304
30
0.0000000000
10
289.9645570886
20
139.3355285996
30
0.0000000000
10
290.0695991106
20
139.5626250247
30
0.0000000000
10
290.0884449215
20
139.7296008194
30
0.0000000000
10
290.0845064086
20
139.8113891902
30
0.0000000000
11
288.9424209305
21
139.1441542450
31
0.0000000000
11
289.1313665943
21
139.0489669971
31
0.0000000000
11
289.3500090845
21
139.0147476874
31
0.0000000000
11
289.5752523332
21
139.0523756112
31
0.0000000000
11
289.7850805647
21
139.1642356107
31
0.0000000000
11
289.9526350916
21
139.3417669322
31
0.0000000000
11
290.0569895131
21
139.5672857986
31
0.0000000000
11
290.0845064086
21
139.8113891902
31
0.0000000000
0
SPLINE
5
415
100
AcDbEntity
8
0
100
AcDbSpline
62
7
6
CONTINUOUS
70
0
71
3
72
14
73
10
74
8
42
0.0000001000
43
0.0000001000
44
0.0000000001
40
0.0000000000
40
0.0000000000
40
0.0000000000
40
0.0000000000
40
0.1291856677
40
0.2643569615
40
0.4038407643
40
0.5490770163
40
0.6981807817
40
0.8499587050
40
1.0000000000
40
1.0000000000
40
1.0000000000
40
1.0000000000
10
301.8118390553
20
139.1441542450
30
0.0000000000
10
301.7541496965
20
139.1031281231
30
0.0000000000
10
301.6233068737
20
139.0371097339
30
0.0000000000
10
301.4018304825
20
139.0025458117
30
0.0000000000
10
301.1719007889
20
139.0412946880
30
0.0000000000
10
300.9594626375
20
139.1550488304
30
0.0000000000
10
300.7897028972
20
139.3355285996
30
0.0000000000
10
300.6846608752
20
139.5626250247
30
0.0000000000
10
300.6658150643
20
139.7296008194
30
0.0000000000
10
300.6697535772
20
139.8113891902
30
0.0000000000
11
301.8118390553
21
139.1441542450
31
0.0000000000
11
301.6228933916
21
139.0489669971
31
0.0000000000
11
301.4042509014
21
139.0147476874
31
0.0000000000
11
301.1790076526
21
139.0523756112
31
0.0000000000
11
300.9691794211
21
139.1642356107
31
0.0000000000
11
300.8016248942
21
139.3417669322
31
0.0000000000
11
300.6972704727
21
139.5672857986
31
0.0000000000
11
300.6697535772
21
139.8113891902
31
0.0000000000
0
SPLINE
5
416
100
AcDbEntity
8
0
100
AcDbSpline
62
7
6
CONTINUOUS
70
0
71
3
72
13
73
9
74
7
42
0.0000001000
43
0.0000001000
44
0.0000000001
40
0.0000000000
40
0.0000000000
40
0.0000000000
40
0.0000000000
40
0.2889952452
40
0.5456254648
40
0.7533482881
40
0.9027107093
40
0.9843533908
40
1.0000000000
40
1.0000000000
40
1.0000000000
40
1.0000000000
10
306.6395959835
20
158.8043518776
30
0.0000000000
10
306.6395959835
20
158.5782425215
30
0.0000000000
10
306.6367056981
20
158.1498448912
30
0.0000000000
10
306.6104378926
20
157.5663895540
30
0.0000000000
10
306.5927088421
20
157.0720866845
30
0.0000000000
10
306.5175256805
20
156.7651592753
30
0.0000000000
10
306.5272967538
20
156.5229808201
30
0.0000000000
10
306.4467536544
20
156.4970646652
30
0.0000000000
10
306.4341331346
20
156.4954574188
30
0.0000000000
11
306.6395959835
21
158.8043518776
31
0.0000000000
11
306.6320078742
21
158.1260662529
31
0.0000000000
11
306.6095807296
21
157.5241228461
31
0.0000000000
11
306.5738064208
21
157.0378711750
31
0.0000000000
11
306.5262961347
21
156.6905226810
31
0.0000000000
11
306.4704775170
21
156.5072010484
31
0.0000000000
11
306.4341331346
21
156.4954574188
31
0.0000000000
0
SPLINE
5
417
100
AcDbEntity
8
0
100
AcDbSpline
62
7
6
CONTINUOUS
70
0
71
3
72
37
73
33
74
31
42
0.0000001000
43
0.0000001000
44
0.0000000001
40
0.0000000000
40
0.0000000000
40
0.0000000000
40
0.0000000000
40
0.0100802842
40
0.0202394116
40
0.0303714037
40
0.0404177882
40
0.0504474757
40
0.0608877027
40
0.0722268407
40
0.0849638653
40
0.0993393687
40
0.1153134032
40
0.1328202227
40
0.1519512533
40
0.1728926049
40
0.1958476419
40
0.2210283946
40
0.2487133050
40
0.2792529583
40
0.3129870612
40
0.3500652552
40
0.3904144639
40
0.4339569241
40
0.4807309136
40
0.5308944288
40
0.5846669966
40
0.6423732852
40
0.7043091248
40
0.7707310016
40
0.8419341217
40
0.9182742101
40
1.0000000000
40
1.0000000000
40
1.0000000000
40
1.0000000000
10
306.1145131487
20
136.7695645240
30
0.0000000000
10
306.1145131487
20
136.7481695058
30
0.0000000000
10
306.1145067888
20
136.7052121276
30
0.0000000000
10
306.1144780389
20
136.6407499888
30
0.0000000000
10
306.1144300418
20
136.5763598123
30
0.0000000000
10
306.1143631135
20
136.5122443843
30
0.0000000000
10
306.1142762230
20
136.4474747629
30
0.0000000000
10
306.1141651111
20
136.3799613544
30
0.0000000000
10
306.1140207667
20
136.3067017768
30
0.0000000000
10
306.1138306028
20
136.2250898040
30
0.0000000000
10
306.1135803450
20
136.1336405608
30
0.0000000000
10
306.1132559939
20
136.0320677843
30
0.0000000000
10
306.1128429121
20
135.9204018277
30
0.0000000000
10
306.1123228422
20
135.7981932713
30
0.0000000000
10
306.1116717311
20
135.6644215570
30
0.0000000000
10
306.1108592873
20
135.5178102022
30
0.0000000000
10
306.1098477613
20
135.3568868252
30
0.0000000000
10
306.1085892412
20
135.1798666789
30
0.0000000000
10
306.1070230533
20
134.9846941756
30
0.0000000000
10
306.1050774088
20
134.7695872905
30
0.0000000000
10
306.1026751917
20
134.5336634142
30
0.0000000000
10
306.0997375943
20
134.2769262320
30
0.0000000000
10
306.0961803323
20
133.9996160813
30
0.0000000000
10
306.0919035729
20
133.7014832712
30
0.0000000000
10
306.0867844642
20
133.3816477033
30
0.0000000000
10
306.0806700988
20
133.0386222266
30
0.0000000000
10
306.0733745793
20
132.6706281995
30
0.0000000000
10
306.0646754328
20
132.2758099255
30
0.0000000000
10
306.0543097313
20
131.8523760668
30
0.0000000000
10
306.0419606602
20
131.3984106420
30
0.0000000000
10
306.0272477614
20
130.9120176433
30
0.0000000000
10
306.0159554225
20
130.5767180584
30
0.0000000000
10
306.0097916319
20
130.4033677392
30
0.0000000000
11
306.1145131487
21
136.7695645240
31
0.0000000000
11
306.1145036387
21
136.7053794703
31
0.0000000000
11
306.1144747808
21
136.6406923972
31
0.0000000000
11
306.1144266835
21
136.5761781163
31
0.0000000000
11
306.1143599004
21
136.5122089492
31
0.0000000000
11
306.1142742186
21
136.4483461214
31
0.0000000000
11
306.1141648038
21
136.3818692625
31
0.0000000000
11
306.1140225345
21
136.3096687404
31
0.0000000000
11
306.1138335437
21
136.2285674167
31
0.0000000000
11
306.1135830292
21
136.1370333886
31
0.0000000000
11
306.1132581979
21
136.0353210736
31
0.0000000000
11
306.1128457871
21
135.9238491696
31
0.0000000000
11
306.1123273352
21
135.8020356275
31
0.0000000000
11
306.1116782395
21
135.6686955513
31
0.0000000000
11
306.1108681730
21
135.5225342283
31
0.0000000000
11
306.1098602017
21
135.3622018397
31
0.0000000000
11
306.1086067500
21
135.1859258018
31
0.0000000000
11
306.1070460363
21
134.9914743229
31
0.0000000000
11
306.1051028230
21
134.7766850783
31
0.0000000000
11
306.1026984074
21
134.5406061711
31
0.0000000000
11
306.0997580741
21
134.2837040346
31
0.0000000000
11
306.0962007180
21
134.0064752322
31
0.0000000000
11
306.0919272589
21
133.7086778756
31
0.0000000000
11
306.0868136001
21
133.3893083778
31
0.0000000000
11
306.0807088372
21
133.0469721426
31
0.0000000000
11
306.0734221528
21
132.6796062215
31
0.0000000000
11
306.0647300930
21
132.2853326603
31
0.0000000000
11
306.0543730221
21
131.8625258061
31
0.0000000000
11
306.0420352415
21
131.4093160039
31
0.0000000000
11
306.0273254247
21
130.9234518626
31
0.0000000000
11
306.0097916319
21
130.4033677392
31
0.0000000000
0
SPLINE
5
418
100
AcDbEntity
8
0
100
AcDbSpline
62
7
6
CONTINUOUS
70
0
71
3
72
39
73
35
74
33
42
0.0000001000
43
0.0000001000
44
0.0000000001
40
0.0000000000
40
0.0000000000
40
0.0000000000
40
0.0000000000
40
0.0079756052
40
0.0160298457
40
0.0240691460
40
0.0320530691
40
0.0400721435
40
0.0485188265
40
0.0578169410
40
0.0683816247
40
0.0803564281
40
0.0936782794
40
0.1083305736
40
0.1244488412
40
0.1422129677
40
0.1618134241
40
0.1834727256
40
0.2075363903
40
0.2343940181
40
0.2643262872
40
0.2972406247
40
0.3329709979
40
0.3717696594
40
0.4146060563
40
0.4619406877
40
0.5121469708
40
0.5634606921
40
0.6156162763
40
0.6689899886
40
0.7248086553
40
0.7844699546
40
0.8493371139
40
0.9207714833
40
1.0000000000
40
1.0000000000
40
1.0000000000
40
1.0000000000
10
306.1145131487
20
136.7695645240
30
0.0000000000
10
306.1145131487
20
136.7933197108
30
0.0000000000
10
306.1145053003
20
136.8410642988
30
0.0000000000
10
306.1144698899
20
136.9127537804
30
0.0000000000
10
306.1144107983
20
136.9844680211
30
0.0000000000
10
306.1143283195
20
137.0560774970
30
0.0000000000
10
306.1142206587
20
137.1289003225
30
0.0000000000
10
306.1140814840
20
137.2056373954
30
0.0000000000
10
306.1138981671
20
137.2899564439
30
0.0000000000
10
306.1136538458
20
137.3847838167
30
0.0000000000
10
306.1133300154
20
137.4915956374
30
0.0000000000
10
306.1129086666
20
137.6105820740
30
0.0000000000
10
306.1123698974
20
137.7419093818
30
0.0000000000
10
306.1116879162
20
137.8864674200
30
0.0000000000
10
306.1108289136
20
138.0457627601
30
0.0000000000
10
306.1097506236
20
138.2215609766
30
0.0000000000
10
306.1083986937
20
138.4161208626
30
0.0000000000
10
306.1067021999
20
138.6322941430
30
0.0000000000
10
306.1045722845
20
138.8731055482
30
0.0000000000
10
306.1019135704
20
139.1402747189
30
0.0000000000
10
306.0986340036
20
139.4338661223
30
0.0000000000
10
306.0946353023
20
139.7538592603
30
0.0000000000
10
306.0897663390
20
140.1033961629
30
0.0000000000
10
306.0838150872
20
140.4874839752
30
0.0000000000
10
306.0766170910
20
140.9055333659
30
0.0000000000
10
306.0681596902
20
141.3488136383
30
0.0000000000
10
306.0585426772
20
141.8064326780
30
0.0000000000
10
306.0478051795
20
142.2734634865
30
0.0000000000
10
306.0357890407
20
142.7538853821
30
0.0000000000
10
306.0221586547
20
143.2566284679
30
0.0000000000
10
306.0064007366
20
143.7935582097
30
0.0000000000
10
305.9878598552
20
144.3769358139
30
0.0000000000
10
305.9657387360
20
145.0185074684
30
0.0000000000
10
305.9489169080
20
145.4669395143
30
0.0000000000
10
305.9396866753
20
145.7027395428
30
0.0000000000
11
306.1145131487
21
136.7695645240
31
0.0000000000
11
306.1145014436
21
136.8408300836
31
0.0000000000
11
306.1144659054
21
136.9127982770
31
0.0000000000
11
306.1144067243
21
136.9846329571
31
0.0000000000
11
306.1143245653
21
137.0559727946
31
0.0000000000
11
306.1142186418
21
137.1276266933
31
0.0000000000
11
306.1140817671
21
137.2031014187
31
0.0000000000
11
306.1139011520
21
137.2861839887
31
0.0000000000
11
306.1136579519
21
137.3805837970
31
0.0000000000
11
306.1133335795
21
137.4875834714
31
0.0000000000
11
306.1129120922
21
137.6066193598
31
0.0000000000
11
306.1123750259
21
137.7375429883
31
0.0000000000
11
306.1116956320
21
137.8815652376
31
0.0000000000
11
306.1108397644
21
138.0402932590
31
0.0000000000
11
306.1097656356
21
138.2154287136
31
0.0000000000
11
306.1084209777
21
138.4089594823
31
0.0000000000
11
306.1067337439
21
138.6239723519
31
0.0000000000
11
306.1046114170
21
138.8639477530
31
0.0000000000
11
306.1019501996
21
139.1313925785
31
0.0000000000
11
306.0986653873
21
139.4254783998
31
0.0000000000
11
306.0946763732
21
139.7447201697
31
0.0000000000
11
306.0898479338
21
140.0913697481
31
0.0000000000
11
306.0839182319
21
140.4740859702
31
0.0000000000
11
306.0766370710
21
140.8969791641
31
0.0000000000
11
306.0680795084
21
141.3455128862
31
0.0000000000
11
306.0584457212
21
141.8039224665
31
0.0000000000
11
306.0477335696
21
142.2698325539
31
0.0000000000
11
306.0358080767
21
142.7466011607
31
0.0000000000
11
306.0222893570
21
143.2451823982
31
0.0000000000
11
306.0066486905
21
143.7780530093
31
0.0000000000
11
305.9882335726
21
144.3573771642
31
0.0000000000
11
305.9662333213
21
144.9952956006
31
0.0000000000
11
305.9396866753
21
145.7027395428
31
0.0000000000
0
SPLINE
5
419
100
AcDbEntity
8
0
100
AcDbSpline
62
7
6
CONTINUOUS
70
0
71
3
72
13
73
9
74
7
42
0.0000001000
43
0.0000001000
44
0.0000000001
40
0.0000000000
40
0.0000000000
40
0.0000000000
40
0.0000000000
40
0.1737947029
40
0.3497257864
40
0.5239930536
40
0.6928617931
40
0.8526714480
40
1.0000000000
40
1.0000000000
40
1.0000000000
40
1.0000000000
10
305.9396866753
20
147.9371494702
30
0.0000000000
10
305.9396866753
20
148.9087497747
30
0.0000000000
10
305.9266388651
20
150.8639142179
30
0.0000000000
10
305.8703455342
20
153.7928313980
30
0.0000000000
10
305.7782470355
20
156.6932957470
30
0.0000000000
10
305.6523575840
20
159.5022854430
30
0.0000000000
10
305.4954491317
20
162.1588656867
30
0.0000000000
10
305.3664318308
20
163.8711822096
30
0.0000000000
10
305.2960360517
20
164.6918095001
30
0.0000000000
11
305.9396866753
21
147.9371494702
31
0.0000000000
11
305.9206623122
21
150.8518882988
31
0.0000000000
11
305.8639800003
21
153.8019750682
31
0.0000000000
11
305.7708395412
21
156.7232171409
31
0.0000000000
11
305.6432072168
21
159.5525248386
31
0.0000000000
11
305.4838156746
21
162.2280316582
31
0.0000000000
11
305.2960360517
21
164.6918095001
31
0.0000000000
0
SPLINE
5
41A
100
AcDbEntity
8
0
100
AcDbSpline
62
7
6
CONTINUOUS
70
0
71
3
72
10
73
6
74
4
42
0.0000001000
43
0.0000001000
44
0.0000000001
40
0.0000000000
40
0.0000000000
40
0.0000000000
40
0.0000000000
40
0.3411884809
40
0.6746790640
40
1.0000000000
40
1.0000000000
40
1.0000000000
40
1.0000000000
10
305.2443152029
20
166.6713435973
30
0.0000000000
10
305.2485725594
20
166.8242296473
30
0.0000000000
10
305.2576237254
20
167.1265351843
30
0.0000000000
10
305.2730189377
20
167.5745443267
30
0.0000000000
10
305.2845293838
20
167.8696481707
30
0.0000000000
10
305.2905736904
20
168.0153551933
30
0.0000000000
11
305.2443152029
21
166.6713435973
31
0.0000000000
11
305.2580685752
21
167.1299733706
31
0.0000000000
11
305.2734952208
21
167.5781916581
31
0.0000000000
11
305.2905736904
21
168.0153551933
31
0.0000000000
0
SPLINE
5
41B
100
AcDbEntity
8
0
100
AcDbSpline
62
7
6
CONTINUOUS
70
0
71
3
72
18
73
14
74
12
42
0.0000001000
43
0.0000001000
44
0.0000000001
40
0.0000000000
40
0.0000000000
40
0.0000000000
40
0.0000000000
40
0.0053768637
40
0.0903658064
40
0.1749187544
40
0.2538795794
40
0.3332166643
40
0.4227307874
40
0.5243727620
40
0.6363794722
40
0.7558108650
40
0.8794201019
40
1.0000000000
40
1.0000000000
40
1.0000000000
40
1.0000000000
10
288.6463786981
20
136.7128322185
30
0.0000000000
10
288.6472192680
20
136.7091886005
30
0.0000000000
10
288.6618427063
20
136.6480683221
30
0.0000000000
10
288.7063148714
20
136.5338333090
30
0.0000000000
10
288.8098943599
20
136.3935766382
30
0.0000000000
10
288.9427671176
20
136.2873707143
30
0.0000000000
10
289.1009705295
20
136.2160378144
30
0.0000000000
10
289.2883152694
20
136.1854007416
30
0.0000000000
10
289.4999426660
20
136.2113809261
30
0.0000000000
10
289.7137677058
20
136.3078579661
30
0.0000000000
10
289.8991070207
20
136.4761803998
30
0.0000000000
10
290.0242507744
20
136.7001406332
30
0.0000000000
10
290.0541839849
20
136.8706495880
30
0.0000000000
10
290.0541839849
20
136.9542308452
30
0.0000000000
11
288.6463786981
21
136.7128322185
31
0.0000000000
11
288.6489890567
21
136.7019226058
31
0.0000000000
11
288.7133517962
21
136.5373261486
31
0.0000000000
11
288.8179232589
21
136.3959765130
31
0.0000000000
11
288.9461558107
21
136.2934227292
31
0.0000000000
11
289.0964940758
21
136.2254754761
31
0.0000000000
11
289.2801443734
21
136.1951143228
31
0.0000000000
11
289.4899945494
21
136.2203550000
31
0.0000000000
11
289.7024992435
21
136.3157049240
31
0.0000000000
11
289.8864881037
21
136.4825238117
31
0.0000000000
11
290.0114289035
21
136.7071591108
31
0.0000000000
11
290.0541839849
21
136.9542308452
31
0.0000000000
0
SPLINE
5
41C
100
AcDbEntity
8
0
100
AcDbSpline
62
7
6
CONTINUOUS
70
0
71
3
72
12
73
8
74
6
42
0.0000001000
43
0.0000001000
44
0.0000000001
40
0.0000000000
40
0.0000000000
40
0.0000000000
40
0.0000000000
40
0.4063034674
40
0.7161926409
40
0.9150930359
40
0.9976098577
40
1.0000000000
40
1.0000000000
40
1.0000000000
40
1.0000000000
10
305.2905736904
20
168.0153551933
30
0.0000000000
10
305.2948832150
20
168.1192427111
30
0.0000000000
10
305.3028962346
20
168.2982398273
30
0.0000000000
10
305.3317806639
20
168.5445104982
30
0.0000000000
10
305.3455592104
20
168.6690829162
30
0.0000000000
10
305.3849719272
20
168.7678589157
30
0.0000000000
10
305.3999912258
20
168.7658730884
30
0.0000000000
10
305.4004162274
20
168.7657932300
30
0.0000000000
11
305.2905736904
21
168.0153551933
31
0.0000000000
11
305.3086716497
21
168.3267603299
31
0.0000000000
11
305.3337244449
21
168.5633482105
31
0.0000000000
11
305.3645178166
21
168.7129125555
31
0.0000000000
11
305.3991481934
21
168.7659599003
31
0.0000000000
11
305.4004162274
21
168.7657932300
31
0.0000000000
0
SPLINE
5
41D
100
AcDbEntity
8
0
100
AcDbSpline
62
7
6
CONTINUOUS
70
0
71
3
72
12
73
8
74
6
42
0.0000001000
43
0.0000001000
44
0.0000000001
40
0.0000000000
40
0.0000000000
40
0.0000000000
40
0.0000000000
40
0.4063034674
40
0.7161926409
40
0.9150930359
40
0.9976098577
40
1.0000000000
40
1.0000000000
40
1.0000000000
40
1.0000000000
10
285.4636862954
20
168.0153551933
30
0.0000000000
10
285.4593767708
20
168.1192427111
30
0.0000000000
10
285.4513637512
20
168.2982398273
30
0.0000000000
10
285.4224793219
20
168.5445104982
30
0.0000000000
10
285.4087007754
20
168.6690829162
30
0.0000000000
10
285.3692880586
20
168.7678589157
30
0.0000000000
10
285.3542687600
20
168.7658730884
30
0.0000000000
10
285.3538437585
20
168.7657932300
30
0.0000000000
11
285.4636862954
21
168.0153551933
31
0.0000000000
11
285.4455883361
21
168.3267603299
31
0.0000000000
11
285.4205355410
21
168.5633482105
31
0.0000000000
11
285.3897421692
21
168.7129125555
31
0.0000000000
11
285.3551117924
21
168.7659599003
31
0.0000000000
11
285.3538437585
21
168.7657932300
31
0.0000000000
0
SPLINE
5
41E
100
AcDbEntity
8
0
100
AcDbSpline
62
7
6
CONTINUOUS
70
0
71
3
72
12
73
8
74
6
42
0.0000001000
43
0.0000001000
44
0.0000000001
40
0.0000000000
40
0.0000000000
40
0.0000000000
40
0.0000000000
40
0.1821848511
40
0.3839256251
40
0.5955587335
40
0.8042542812
40
1.0000000000
40
1.0000000000
40
1.0000000000
40
1.0000000000
10
305.2960360517
20
164.6918095001
30
0.0000000000
10
305.2857534946
20
164.8116767292
30
0.0000000000
10
305.2682444397
20
165.0646379140
30
0.0000000000
10
305.2501220790
20
165.4575278018
30
0.0000000000
10
305.2394731489
20
165.8682076691
30
0.0000000000
10
305.2368614488
20
166.2750533964
30
0.0000000000
10
305.2407170767
20
166.5421311863
30
0.0000000000
10
305.2443152029
20
166.6713435973
30
0.0000000000
11
305.2960360517
21
164.6918095001
31
0.0000000000
11
305.2704483102
21
165.0518236940
31
0.0000000000
11
305.2517336114
21
165.4510494536
31
0.0000000000
11
305.2407952292
21
165.8701683921
31
0.0000000000
11
305.2382896944
21
166.2836029156
31
0.0000000000
11
305.2443152029
21
166.6713435973
31
0.0000000000
0
SPLINE
5
41F
100
AcDbEntity
8
0
100
AcDbSpline
62
7
6
CONTINUOUS
70
0
71
3
72
15
73
11
74
9
42
0.0000001000
43
0.0000001000
44
0.0000000001
40
0.0000000000
40
0.0000000000
40
0.0000000000
40
0.0000000000
40
0.0070257768
40
0.0539660004
40
0.1441996702
40
0.2719380160
40
0.4320127895
40
0.6130152843
40
0.8065449261
40
1.0000000000
40
1.0000000000
40
1.0000000000
40
1.0000000000
10
284.4341331346
20
162.4629526625
30
0.0000000000
10
284.4251804898
20
162.4640927982
30
0.0000000000
10
284.3577005662
20
162.4629525431
30
0.0000000000
10
284.3453755734
20
162.2139725872
30
0.0000000000
10
284.2651464666
20
161.9427706081
30
0.0000000000
10
284.2243090288
20
161.4546682705
30
0.0000000000
10
284.1750042813
20
160.8857279709
30
0.0000000000
10
284.1418958439
20
160.2228833871
30
0.0000000000
10
284.1197558956
20
159.5220021845
30
0.0000000000
10
284.1146640023
20
159.0434675069
30
0.0000000000
10
284.1146640023
20
158.8043518776
30
0.0000000000
11
284.4341331346
21
162.4629526625
31
0.0000000000
11
284.4086757584
21
162.4622359130
31
0.0000000000
11
284.3455842274
21
162.3000148224
31
0.0000000000
11
284.2837824688
21
161.9711782927
31
0.0000000000
11
284.2279638511
21
161.5008147416
31
0.0000000000
11
284.1804535650
21
160.9091491323
31
0.0000000000
11
284.1446792563
21
160.2389314901
31
0.0000000000
11
284.1222521116
21
159.5216586307
31
0.0000000000
11
284.1146640023
21
158.8043518776
31
0.0000000000
0
SPLINE
5
420
100
AcDbEntity
8
0
100
AcDbSpline
62
7
6
CONTINUOUS
70
0
71
3
72
12
73
8
74
6
42
0.0000001000
43
0.0000001000
44
0.0000000001
40
0.0000000000
40
0.0000000000
40
0.0000000000
40
0.0000000000
40
0.1821848511
40
0.3839256251
40
0.5955587335
40
0.8042542812
40
1.0000000000
40
1.0000000000
40
1.0000000000
40
1.0000000000
10
285.4582239341
20
164.6918095001
30
0.0000000000
10
285.4685064912
20
164.8116767292
30
0.0000000000
10
285.4860155461
20
165.0646379140
30
0.0000000000
10
285.5041379068
20
165.4575278018
30
0.0000000000
10
285.5147868369
20
165.8682076691
30
0.0000000000
10
285.5173985370
20
166.2750533964
30
0.0000000000
10
285.5135429092
20
166.5421311863
30
0.0000000000
10
285.5099447830
20
166.6713435973
30
0.0000000000
11
285.4582239341
21
164.6918095001
31
0.0000000000
11
285.4838116756
21
165.0518236940
31
0.0000000000
11
285.5025263745
21
165.4510494536
31
0.0000000000
11
285.5134647566
21
165.8701683921
31
0.0000000000
11
285.5159702914
21
166.2836029156
31
0.0000000000
11
285.5099447830
21
166.6713435973
31
0.0000000000
0
SPLINE
5
421
100
AcDbEntity
8
0
100
AcDbSpline
62
7
6
CONTINUOUS
70
0
71
3
72
12
73
8
74
6
42
0.0000001000
43
0.0000001000
44
0.0000000001
40
0.0000000000
40
0.0000000000
40
0.0000000000
40
0.0000000000
40
0.2471244312
40
0.4965704844
40
0.7352252753
40
0.9616632690
40
1.0000000000
40
1.0000000000
40
1.0000000000
40
1.0000000000
10
300.7000760009
20
136.9542308452
30
0.0000000000
10
300.7000760009
20
137.0356681853
30
0.0000000000
10
300.7283259828
20
137.2008589487
30
0.0000000000
10
300.8543643269
20
137.4142548338
30
0.0000000000
10
301.0434781823
20
137.5632326288
30
0.0000000000
10
301.2041201730
20
137.6158480163
30
0.0000000000
10
301.2910589553
20
137.6268052518
30
0.0000000000
10
301.3036796766
20
137.6280448010
30
0.0000000000
11
300.7000760009
21
136.9542308452
31
0.0000000000
11
300.7422803095
21
137.1948699101
31
0.0000000000
11
300.8681002039
21
137.4069653500
31
0.0000000000
11
301.0533771073
21
137.5530460534
31
0.0000000000
11
301.2659345945
21
137.6232818315
31
0.0000000000
11
301.3036796766
21
137.6280448010
31
0.0000000000
0
SPLINE
5
422
100
AcDbEntity
8
0
100
AcDbSpline
62
7
6
CONTINUOUS
70
0
71
3
72
20
73
16
74
14
42
0.0000001000
43
0.0000001000
44
0.0000000001
40
0.0000000000
40
0.0000000000
40
0.0000000000
40
0.0000000000
40
0.0628285863
40
0.1251902824
40
0.1874333624
40
0.2499962887
40
0.3121054135
40
0.3736238573
40
0.4377616592
40
0.5085808508
40
0.5902365309
40
0.6829694716
40
0.7846505121
40
0.8920383912
40
1.0000000000
40
1.0000000000
40
1.0000000000
40
1.0000000000
10
305.1215322038
20
138.1928440782
30
0.0000000000
10
305.1219668708
20
138.1447609508
30
0.0000000000
10
305.1131447760
20
138.0485785371
30
0.0000000000
10
305.0713199164
20
137.9103850187
30
0.0000000000
10
305.0026623487
20
137.7835352120
30
0.0000000000
10
304.9099598073
20
137.6732885121
30
0.0000000000
10
304.7974541328
20
137.5842709836
30
0.0000000000
10
304.6685045281
20
137.5187597135
30
0.0000000000
10
304.5225484851
20
137.4784809734
30
0.0000000000
10
304.3556564151
20
137.4691570949
30
0.0000000000
10
304.1691149918
20
137.5036520151
30
0.0000000000
10
303.9765486063
20
137.5974780773
30
0.0000000000
10
303.8053975293
20
137.7583399093
30
0.0000000000
10
303.6888047726
20
137.9761833205
30
0.0000000000
10
303.6636429114
20
138.1429914856
30
0.0000000000
10
303.6655797622
20
138.2255958819
30
0.0000000000
11
305.1215322038
21
138.1928440782
31
0.0000000000
11
305.1082977869
21
138.0491971676
31
0.0000000000
11
305.0668091633
21
137.9121564852
31
0.0000000000
11
304.9987710392
21
137.7864809024
31
0.0000000000
11
304.9063349473
21
137.6765284307
31
0.0000000000
11
304.7945226940
21
137.5880199857
31
0.0000000000
11
304.6686133997
21
137.5240073851
31
0.0000000000
11
304.5266708806
21
137.4847875202
31
0.0000000000
11
304.3643250786
21
137.4756666544
31
0.0000000000
11
304.1799591814
21
137.5097095268
31
0.0000000000
11
303.9885594247
21
137.6029800364
31
0.0000000000
11
303.8184914000
21
137.7629204011
31
0.0000000000
11
303.7024529251
21
137.9804724252
31
0.0000000000
11
303.6655797622
21
138.2255958819
31
0.0000000000
0
SPLINE
5
423
100
AcDbEntity
8
0
100
AcDbSpline
62
7
6
CONTINUOUS
70
0
71
3
72
17
73
13
74
11
42
0.0000001000
43
0.0000001000
44
0.0000000001
40
0.0000000000
40
0.0000000000
40
0.0000000000
40
0.0000000000
40
0.1077359711
40
0.2157744585
40
0.3239688913
40
0.4322284534
40
0.5423834060
40
0.6485557031
40
0.7441643385
40
0.8321928705
40
0.9157477596
40
1.0000000000
40
1.0000000000
40
1.0000000000
40
1.0000000000
10
303.6655797622
20
138.2255958819
30
0.0000000000
10
303.6674710150
20
138.3062555709
30
0.0000000000
10
303.6991075137
20
138.4685188665
30
0.0000000000
10
303.8257279890
20
138.6809346876
30
0.0000000000
10
304.0171320221
20
138.8384705149
30
0.0000000000
10
304.2516295725
20
138.9231259276
30
0.0000000000
10
304.4994341427
20
138.9249224442
30
0.0000000000
10
304.7248223461
20
138.8493523358
30
0.0000000000
10
304.9027597397
20
138.7198723342
30
0.0000000000
10
305.0274488543
20
138.5602827198
30
0.0000000000
10
305.1030601562
20
138.3820627483
30
0.0000000000
10
305.1209618519
20
138.2559367438
30
0.0000000000
10
305.1215322038
20
138.1928440782
30
0.0000000000
11
303.6655797622
21
138.2255958819
31
0.0000000000
11
303.7122005210
21
138.4631091768
31
0.0000000000
11
303.8364099332
21
138.6716458806
31
0.0000000000
11
304.0240224498
21
138.8262009887
31
0.0000000000
11
304.2527086329
21
138.9090232318
31
0.0000000000
11
304.5001805652
21
138.9110452200
31
0.0000000000
11
304.7263900117
21
138.8353678897
31
0.0000000000
11
304.9000807511
21
138.7089938032
31
0.0000000000
11
305.0218085255
21
138.5531245467
31
0.0000000000
11
305.0949964996
21
138.3802605774
31
0.0000000000
11
305.1215322038
21
138.1928440782
31
0.0000000000
0
SPLINE
5
424
100
AcDbEntity
8
0
100
AcDbSpline
62
7
6
CONTINUOUS
70
0
71
3
72
12
73
8
74
6
42
0.0000001000
43
0.0000001000
44
0.0000000001
40
0.0000000000
40
0.0000000000
40
0.0000000000
40
0.0000000000
40
0.2122072486
40
0.4233217569
40
0.6334803167
40
0.8424650862
40
1.0000000000
40
1.0000000000
40
1.0000000000
40
1.0000000000
10
300.6697535772
20
139.8113891902
30
0.0000000000
10
300.6735378489
20
139.8899745406
30
0.0000000000
10
300.7056987673
20
140.0467027451
30
0.0000000000
10
300.8245289974
20
140.2538419373
30
0.0000000000
10
301.0029910556
20
140.4113538274
30
0.0000000000
10
301.2046160756
20
140.4938705041
30
0.0000000000
10
301.3416117969
20
140.5067406556
30
0.0000000000
10
301.4002609081
20
140.5049506109
30
0.0000000000
11
300.6697535772
21
139.8113891902
31
0.0000000000
11
300.7176546221
21
140.0425066754
31
0.0000000000
11
300.8348197471
21
140.2460008239
31
0.0000000000
11
301.0103280792
21
140.4003904411
31
0.0000000000
11
301.2254814422
21
140.4883660834
31
0.0000000000
11
301.4002609081
21
140.5049506109
31
0.0000000000
0
SPLINE
5
425
100
AcDbEntity
8
0
100
AcDbSpline
62
7
6
CONTINUOUS
70
0
71
3
72
17
73
13
74
11
42
0.0000001000
43
0.0000001000
44
0.0000000001
40
0.0000000000
40
0.0000000000
40
0.0000000000
40
0.0000000000
40
0.0998586971
40
0.1967912679
40
0.2915350046
40
0.3853448681
40
0.4796935253
40
0.5753640369
40
0.6747627621
40
0.7789695219
40
0.8892652950
40
1.0000000000
40
1.0000000000
40
1.0000000000
40
1.0000000000
10
305.1270309698
20
141.0936723522
30
0.0000000000
10
305.1273078512
20
141.0150317673
30
0.0000000000
10
305.1030251389
20
140.8588399715
30
0.0000000000
10
304.9979848562
20
140.6507640774
30
0.0000000000
10
304.8386379845
20
140.4872463830
30
0.0000000000
10
304.6397489690
20
140.3795615714
30
0.0000000000
10
304.4170291200
20
140.3357949703
30
0.0000000000
10
304.1869329681
20
140.3615723163
30
0.0000000000
10
303.9685201917
20
140.4603326689
30
0.0000000000
10
303.7843463387
20
140.6320864002
30
0.0000000000
10
303.6638493982
20
140.8638836173
30
0.0000000000
10
303.6411797007
20
141.0407502942
30
0.0000000000
10
303.6453156784
20
141.1278583437
30
0.0000000000
11
305.1270309698
21
141.0936723522
31
0.0000000000
11
305.0906595545
21
140.8605696183
31
0.0000000000
11
304.9874972238
21
140.6561114792
31
0.0000000000
11
304.8312199259
21
140.4958579372
31
0.0000000000
11
304.6363081717
21
140.3903575197
31
0.0000000000
11
304.4175822842
21
140.3473949154
31
0.0000000000
11
304.1929575294
21
140.3725450044
31
0.0000000000
11
303.9789720998
21
140.4692839221
31
0.0000000000
11
303.7988657254
21
140.6371352748
31
0.0000000000
11
303.6787582121
21
140.8683860633
31
0.0000000000
11
303.6453156784
21
141.1278583437
31
0.0000000000
0
SPLINE
5
426
100
AcDbEntity
8
0
100
AcDbSpline
62
7
6
CONTINUOUS
70
0
71
3
72
16
73
12
74
10
42
0.0000001000
43
0.0000001000
44
0.0000000001
40
0.0000000000
40
0.0000000000
40
0.0000000000
40
0.0000000000
40
0.1132060609
40
0.2271935362
40
0.3411657697
40
0.4545218318
40
0.5685708429
40
0.6822241354
40
0.7928455012
40
0.9002587325
40
1.0000000000
40
1.0000000000
40
1.0000000000
40
1.0000000000
10
303.6453156784
20
141.1278583437
30
0.0000000000
10
303.6494053172
20
141.2139904482
30
0.0000000000
10
303.6881471452
20
141.3868916402
30
0.0000000000
10
303.8314167761
20
141.6098974235
30
0.0000000000
10
304.0431330724
20
141.7701067170
30
0.0000000000
10
304.2971943749
20
141.8470852571
30
0.0000000000
10
304.5620301378
20
141.8311874867
30
0.0000000000
10
304.8028998071
20
141.7253063182
30
0.0000000000
10
304.9893754345
20
141.5475412482
30
0.0000000000
10
305.1018415697
20
141.3283610115
30
0.0000000000
10
305.1267634822
20
141.1696448782
30
0.0000000000
10
305.1270309698
20
141.0936723522
30
0.0000000000
11
303.6453156784
21
141.1278583437
31
0.0000000000
11
303.7020831498
21
141.3802402673
31
0.0000000000
11
303.8428428124
21
141.5994044011
31
0.0000000000
11
304.0505967029
21
141.7564597362
31
0.0000000000
11
304.2985030647
21
141.8315535039
31
0.0000000000
11
304.5586494512
21
141.8159544450
31
0.0000000000
11
304.7964336542
21
141.7115147978
31
0.0000000000
11
304.9794891281
21
141.5371904111
31
0.0000000000
11
305.0915457116
21
141.3188120040
31
0.0000000000
11
305.1270309698
21
141.0936723522
31
0.0000000000
0
SPLINE
5
427
100
AcDbEntity
8
0
100
AcDbSpline
62
7
6
CONTINUOUS
70
0
71
3
72
11
73
7
74
5
42
0.0000001000
43
0.0000001000
44
0.0000000001
40
0.0000000000
40
0.0000000000
40
0.0000000000
40
0.0000000000
40
0.3115539817
40
0.6195127537
40
0.9129535829
40
1.0000000000
40
1.0000000000
40
1.0000000000
40
1.0000000000
10
303.6655797622
20
135.4194100953
30
0.0000000000
10
303.6636527932
20
135.4989908185
30
0.0000000000
10
303.6885607199
20
135.6594656214
30
0.0000000000
10
303.8062844001
20
135.8664502556
30
0.0000000000
10
303.9421506804
20
135.9832078069
30
0.0000000000
10
304.0278199259
20
136.0301475657
30
0.0000000000
10
304.0478769674
20
136.0399433689
30
0.0000000000
11
303.6655797622
21
135.4194100953
31
0.0000000000
11
303.7026095295
21
135.6553338939
31
0.0000000000
11
303.8189435269
21
135.8607335091
31
0.0000000000
11
303.9891754653
21
136.0077495715
31
0.0000000000
11
304.0478769674
21
136.0399433689
31
0.0000000000
0
SPLINE
5
428
100
AcDbEntity
8
0
100
AcDbSpline
62
7
6
CONTINUOUS
70
0
71
3
72
17
73
13
74
11
42
0.0000001000
43
0.0000001000
44
0.0000000001
40
0.0000000000
40
0.0000000000
40
0.0000000000
40
0.0000000000
40
0.0823374505
40
0.1635387220
40
0.2492696860
40
0.3433228021
40
0.4495273442
40
0.5616817326
40
0.6728989700
40
0.7837762937
40
0.8930506108
40
1.0000000000
40
1.0000000000
40
1.0000000000
40
1.0000000000
10
305.1215322038
20
135.3866582916
30
0.0000000000
10
305.1209648771
20
135.3259776609
30
0.0000000000
10
305.1032441898
20
135.2049325406
30
0.0000000000
10
305.0273935562
20
135.0352298573
30
0.0000000000
10
304.9020889751
20
134.8858873057
30
0.0000000000
10
304.7232936219
20
134.7684393926
30
0.0000000000
10
304.4975113690
20
134.7058616996
30
0.0000000000
10
304.2505831883
20
134.7190702542
30
0.0000000000
10
304.0174749451
20
134.8109411323
30
0.0000000000
10
303.8269105859
20
134.9706311656
30
0.0000000000
10
303.6999758713
20
135.1807277135
30
0.0000000000
10
303.6674878113
20
135.3406107373
30
0.0000000000
10
303.6655797622
20
135.4194100953
30
0.0000000000
11
305.1215322038
21
135.3866582916
31
0.0000000000
11
305.0949986947
21
135.2065524336
31
0.0000000000
11
305.0218268168
21
135.0426022169
31
0.0000000000
11
304.9001542868
21
134.8972539211
31
0.0000000000
11
304.7265825979
21
134.7827222698
31
0.0000000000
11
304.5004413148
21
134.7194705175
31
0.0000000000
11
304.2527991831
21
134.7323288671
31
0.0000000000
11
304.0240507219
21
134.8225660873
31
0.0000000000
11
303.8364325026
21
134.9803601369
31
0.0000000000
11
303.7122064990
21
135.1875852419
31
0.0000000000
11
303.6655797622
21
135.4194100953
31
0.0000000000
0
SPLINE
5
429
100
AcDbEntity
8
0
100
AcDbSpline
62
7
6
CONTINUOUS
70
0
71
3
72
10
73
6
74
4
42
0.0000001000
43
0.0000001000
44
0.0000000001
40
0.0000000000
40
0.0000000000
40
0.0000000000
40
0.0000000000
40
0.4247822945
40
0.8458603926
40
1.0000000000
40
1.0000000000
40
1.0000000000
40
1.0000000000
10
300.6697535772
20
134.1990176170
30
0.0000000000
10
300.6658877470
20
134.2743603491
30
0.0000000000
10
300.6837101904
20
134.4272212970
30
0.0000000000
10
300.7679819372
20
134.5881247436
30
0.0000000000
10
300.8372592493
20
134.6642444936
30
0.0000000000
10
300.8571039344
20
134.6833205205
30
0.0000000000
11
300.6697535772
21
134.1990176170
31
0.0000000000
11
300.6972704727
21
134.4236641565
31
0.0000000000
11
300.8016248942
21
134.6222691434
31
0.0000000000
11
300.8571039344
21
134.6833205205
31
0.0000000000
0
SPLINE
5
42A
100
AcDbEntity
8
0
100
AcDbSpline
62
7
6
CONTINUOUS
70
0
71
3
72
9
73
5
74
3
42
0.0000001000
43
0.0000001000
44
0.0000000001
40
0.0000000000
40
0.0000000000
40
0.0000000000
40
0.0000000000
40
0.7149391028
40
1.0000000000
40
1.0000000000
40
1.0000000000
40
1.0000000000
10
303.6453156784
20
132.7093009840
30
0.0000000000
10
303.6412079915
20
132.7875745789
30
0.0000000000
10
303.6570573339
20
132.8994673399
30
0.0000000000
10
303.7020330446
20
133.0005744056
30
0.0000000000
10
303.7169692762
20
133.0282474908
30
0.0000000000
11
303.6453156784
21
132.7093009840
31
0.0000000000
11
303.6787582121
21
132.9420546213
31
0.0000000000
11
303.7169692762
21
133.0282474908
31
0.0000000000
0
SPLINE
5
42B
100
AcDbEntity
8
0
100
AcDbSpline
62
7
6
CONTINUOUS
70
0
71
3
72
8
73
4
74
2
42
0.0000001000
43
0.0000001000
44
0.0000000001
40
0.0000000000
40
0.0000000000
40
0.0000000000
40
0.0000000000
40
1.0000000000
40
1.0000000000
40
1.0000000000
40
1.0000000000
10
305.1270309698
20
132.6751149925
30
0.0000000000
10
305.1268983851
20
132.6411283664
30
0.0000000000
10
305.1238539904
20
132.6070103396
30
0.0000000000
10
305.1179653029
20
132.5733394686
30
0.0000000000
11
305.1270309698
21
132.6751149925
31
0.0000000000
11
305.1179653029
21
132.5733394686
31
0.0000000000
0
SPLINE
5
42C
100
AcDbEntity
8
0
100
AcDbSpline
62
7
6
CONTINUOUS
70
0
71
3
72
16
73
12
74
10
42
0.0000001000
43
0.0000001000
44
0.0000000001
40
0.0000000000
40
0.0000000000
40
0.0000000000
40
0.0000000000
40
0.0495290566
40
0.1567130819
40
0.2705202414
40
0.3919853808
40
0.5173184744
40
0.6426174099
40
0.7663165300
40
0.8857249745
40
1.0000000000
40
1.0000000000
40
1.0000000000
40
1.0000000000
10
305.1179653029
20
132.5733394686
30
0.0000000000
10
305.1120275693
20
132.5393881574
30
0.0000000000
10
305.0840901437
20
132.4334025468
30
0.0000000000
10
304.9870841450
20
132.2685559100
30
0.0000000000
10
304.7986051988
20
132.1168090652
30
0.0000000000
10
304.5583050787
20
132.0337132232
30
0.0000000000
10
304.2964471062
20
132.0318017374
30
0.0000000000
10
304.0454399220
20
132.1111679232
30
0.0000000000
10
303.8348040525
20
132.2627443045
30
0.0000000000
10
303.6900448105
20
132.4691924473
30
0.0000000000
10
303.6494593915
20
132.6303408953
30
0.0000000000
10
303.6453156784
20
132.7093009840
30
0.0000000000
11
305.1179653029
21
132.5733394686
31
0.0000000000
11
305.0915457116
21
132.4734425742
31
0.0000000000
11
304.9794891281
21
132.2812348007
31
0.0000000000
11
304.7964336542
21
132.1319106765
31
0.0000000000
11
304.5586494512
21
132.0480729658
31
0.0000000000
11
304.2985030647
21
132.0454119827
31
0.0000000000
11
304.0505967029
21
132.1240807278
31
0.0000000000
11
303.8428428124
21
132.2749723085
31
0.0000000000
11
303.7020831498
21
132.4789876153
31
0.0000000000
11
303.6453156784
21
132.7093009840
31
0.0000000000
0
SPLINE
5
42D
100
AcDbEntity
8
0
100
AcDbSpline
62
7
6
CONTINUOUS
70
0
71
3
72
10
73
6
74
4
42
0.0000001000
43
0.0000001000
44
0.0000000001
40
0.0000000000
40
0.0000000000
40
0.0000000000
40
0.0000000000
40
0.3332313863
40
0.6665607576
40
1.0000000000
40
1.0000000000
40
1.0000000000
40
1.0000000000
10
305.7577901302
20
128.7461806537
30
0.0000000000
10
305.7429639837
20
128.6716257631
30
0.0000000000
10
305.7115130848
20
128.5228441600
30
0.0000000000
10
305.6589815865
20
128.3008407973
30
0.0000000000
10
305.6204097664
20
128.1536954559
30
0.0000000000
10
305.6002415634
20
128.0803558306
30
0.0000000000
11
305.7577901302
21
128.7461806537
31
0.0000000000
11
305.7106268360
21
128.5230666904
31
0.0000000000
11
305.6581012839
21
128.3010849998
31
0.0000000000
11
305.6002415634
21
128.0803558306
31
0.0000000000
0
SPLINE
5
42E
100
AcDbEntity
8
0
100
AcDbSpline
62
7
6
CONTINUOUS
70
0
71
3
72
10
73
6
74
4
42
0.0000001000
43
0.0000001000
44
0.0000000001
40
0.0000000000
40
0.0000000000
40
0.0000000000
40
0.0000000000
40
0.3224724489
40
0.6561204270
40
1.0000000000
40
1.0000000000
40
1.0000000000
40
1.0000000000
10
306.0097916319
20
130.4033677392
30
0.0000000000
10
306.0033761240
20
130.2229381280
30
0.0000000000
10
305.9769597033
20
129.8561489659
30
0.0000000000
10
305.8945445296
20
129.3018596929
30
0.0000000000
10
305.8088969655
20
128.9318025017
30
0.0000000000
10
305.7577901302
20
128.7461806537
30
0.0000000000
11
306.0097916319
21
130.4033677392
31
0.0000000000
11
305.9707287214
21
129.8631473036
31
0.0000000000
11
305.8881588940
21
129.3088620886
31
0.0000000000
11
305.7577901302
21
128.7461806537
31
0.0000000000
0
SPLINE
5
42F
100
AcDbEntity
8
0
100
AcDbSpline
62
7
6
CONTINUOUS
70
0
71
3
72
12
73
8
74
6
42
0.0000001000
43
0.0000001000
44
0.0000000001
40
0.0000000000
40
0.0000000000
40
0.0000000000
40
0.0000000000
40
0.1950745014
40
0.3959567179
40
0.5955531943
40
0.7993605422
40
1.0000000000
40
1.0000000000
40
1.0000000000
40
1.0000000000
10
303.8042679420
20
120.4408446922
30
0.0000000000
10
303.7819223854
20
120.3595873415
30
0.0000000000
10
303.7141609565
20
120.1999573349
30
0.0000000000
10
303.5529402378
20
119.9956717433
30
0.0000000000
10
303.3411528089
20
119.8380057294
30
0.0000000000
10
303.0963177583
20
119.7398623310
30
0.0000000000
10
302.9208015834
20
119.7177005151
30
0.0000000000
10
302.8341236299
20
119.7177005151
30
0.0000000000
11
303.8042679420
21
120.4408446922
31
0.0000000000
11
303.7055851226
21
120.2080777924
31
0.0000000000
11
303.5445544738
21
120.0035039374
31
0.0000000000
11
303.3372116697
21
119.8488255422
31
0.0000000000
11
303.0920924453
21
119.7504067659
31
0.0000000000
11
302.8341236299
21
119.7177005151
31
0.0000000000
0
SPLINE
5
430
100
AcDbEntity
8
0
100
AcDbSpline
62
7
6
CONTINUOUS
70
0
71
3
72
10
73
6
74
4
42
0.0000001000
43
0.0000001000
44
0.0000000001
40
0.0000000000
40
0.0000000000
40
0.0000000000
40
0.0000000000
40
0.3153309088
40
0.7357478007
40
1.0000000000
40
1.0000000000
40
1.0000000000
40
1.0000000000
10
289.2089026470
20
110.3249979434
30
0.0000000000
10
289.2444235514
20
110.1976227808
30
0.0000000000
10
289.3146479086
20
109.8967386740
30
0.0000000000
10
289.3683070430
20
109.4801428338
30
0.0000000000
10
289.3775955579
20
109.1928334367
30
0.0000000000
10
289.3770644443
20
109.0820016534
30
0.0000000000
11
289.2089026470
21
110.3249979434
31
0.0000000000
11
289.2989704759
21
109.9386802941
31
0.0000000000
11
289.3663365956
21
109.4143013473
31
0.0000000000
11
289.3770644443
21
109.0820016534
31
0.0000000000
0
SPLINE
5
431
100
AcDbEntity
8
0
100
AcDbSpline
62
7
6
CONTINUOUS
70
0
71
3
72
10
73
6
74
4
42
0.0000001000
43
0.0000001000
44
0.0000000001
40
0.0000000000
40
0.0000000000
40
0.0000000000
40
0.0000000000
40
0.3125440338
40
0.7008515175
40
1.0000000000
40
1.0000000000
40
1.0000000000
40
1.0000000000
10
287.5275480455
20
116.3984309567
30
0.0000000000
10
287.5744943319
20
116.2208334314
30
0.0000000000
10
287.6805790624
20
115.8228013063
30
0.0000000000
10
287.8345817878
20
115.2555842024
30
0.0000000000
10
287.9422972951
20
114.8661530489
30
0.0000000000
10
287.9895352078
20
114.6967930232
30
0.0000000000
11
287.5275480455
21
116.3984309567
31
0.0000000000
11
287.6694786660
21
115.8659282444
31
0.0000000000
11
287.8489013007
21
115.2051730140
31
0.0000000000
11
287.9895352078
21
114.6967930232
31
0.0000000000
0
SPLINE
5
432
100
AcDbEntity
8
0
100
AcDbSpline
62
7
6
CONTINUOUS
70
0
71
3
72
9
73
5
74
3
42
0.0000001000
43
0.0000001000
44
0.0000000001
40
0.0000000000
40
0.0000000000
40
0.0000000000
40
0.0000000000
40
0.5759855636
40
1.0000000000
40
1.0000000000
40
1.0000000000
40
1.0000000000
10
287.4771322950
20
116.7876363843
30
0.0000000000
10
287.4770692064
20
116.7121196566
30
0.0000000000
10
287.4867380778
20
116.5809755669
30
0.0000000000
10
287.5133590725
20
116.4522289466
30
0.0000000000
10
287.5275781910
20
116.3984476327
30
0.0000000000
11
287.4771322950
21
116.7876363843
31
0.0000000000
11
287.4938314928
21
116.5618408347
31
0.0000000000
11
287.5275781910
21
116.3984476327
31
0.0000000000
0
SPLINE
5
433
100
AcDbEntity
8
0
100
AcDbSpline
62
7
6
CONTINUOUS
70
0
71
3
72
12
73
8
74
6
42
0.0000001000
43
0.0000001000
44
0.0000000001
40
0.0000000000
40
0.0000000000
40
0.0000000000
40
0.0000000000
40
0.2320067957
40
0.4664619552
40
0.6680075497
40
0.8388130983
40
1.0000000000
40
1.0000000000
40
1.0000000000
40
1.0000000000
10
291.5031650922
20
126.5556167154
30
0.0000000000
10
291.4360848483
20
126.5485703595
30
0.0000000000
10
291.3032146629
20
126.5177015141
30
0.0000000000
10
291.1292190238
20
126.4289850961
30
0.0000000000
10
290.9926174362
20
126.3169143111
30
0.0000000000
10
290.8895342208
20
126.2013873945
30
0.0000000000
10
290.8325873196
20
126.1238580219
30
0.0000000000
10
290.8060177587
20
126.0854835566
30
0.0000000000
11
291.5031650922
21
126.5556167154
31
0.0000000000
11
291.3067250678
21
126.5101746916
31
0.0000000000
11
291.1251043652
21
126.4180733791
31
0.0000000000
11
290.9891783707
21
126.3077634151
31
0.0000000000
11
290.8895806701
21
126.1978109651
31
0.0000000000
11
290.8060177587
21
126.0854835566
31
0.0000000000
0
SPLINE
5
434
100
AcDbEntity
8
0
100
AcDbSpline
62
7
6
CONTINUOUS
70
0
71
3
72
9
73
5
74
3
42
0.0000001000
43
0.0000001000
44
0.0000000001
40
0.0000000000
40
0.0000000000
40
0.0000000000
40
0.0000000000
40
0.6394750569
40
1.0000000000
40
1.0000000000
40
1.0000000000
40
1.0000000000
10
290.8060177587
20
126.0854835566
30
0.0000000000
10
290.7771514012
20
126.0437918238
30
0.0000000000
10
290.7340022373
20
125.9772422282
30
0.0000000000
10
290.6928155709
20
125.9094870712
30
0.0000000000
10
290.6781798298
20
125.8849322969
30
0.0000000000
11
290.8060177587
21
126.0854835566
31
0.0000000000
11
290.7227682940
21
125.9581852227
31
0.0000000000
11
290.6781798298
21
125.8849322969
31
0.0000000000
0
SPLINE
5
435
100
AcDbEntity
8
0
100
AcDbSpline
62
7
6
CONTINUOUS
70
0
71
3
72
8
73
4
74
2
42
0.0000001000
43
0.0000001000
44
0.0000000001
40
0.0000000000
40
0.0000000000
40
0.0000000000
40
0.0000000000
40
1.0000000000
40
1.0000000000
40
1.0000000000
40
1.0000000000
10
290.6781798298
20
125.8849322969
30
0.0000000000
10
290.6620949362
20
125.8579462407
30
0.0000000000
10
290.6462674070
20
125.8308063667
30
0.0000000000
10
290.6306414868
20
125.8035516304
30
0.0000000000
11
290.6781798298
21
125.8849322969
31
0.0000000000
11
290.6306414868
21
125.8035516304
31
0.0000000000
0
SPLINE
5
436
100
AcDbEntity
8
0
100
AcDbSpline
62
7
6
CONTINUOUS
70
0
71
3
72
8
73
4
74
2
42
0.0000001000
43
0.0000001000
44
0.0000000001
40
0.0000000000
40
0.0000000000
40
0.0000000000
40
0.0000000000
40
1.0000000000
40
1.0000000000
40
1.0000000000
40
1.0000000000
10
290.6306414868
20
125.8035516304
30
0.0000000000
10
290.6107779605
20
125.7689056598
30
0.0000000000
10
290.5912402196
20
125.7340740801
30
0.0000000000
10
290.5719759082
20
125.6990922150
30
0.0000000000
11
290.6306414868
21
125.8035516304
31
0.0000000000
11
290.5719759082
21
125.6990922150
31
0.0000000000
0
SPLINE
5
437
100
AcDbEntity
8
0
100
AcDbSpline
62
7
6
CONTINUOUS
70
0
71
3
72
9
73
5
74
3
42
0.0000001000
43
0.0000001000
44
0.0000000001
40
0.0000000000
40
0.0000000000
40
0.0000000000
40
0.0000000000
40
0.3343025332
40
1.0000000000
40
1.0000000000
40
1.0000000000
40
1.0000000000
10
290.5720259051
20
125.6991760537
30
0.0000000000
10
290.5649783172
20
125.6863787962
30
0.0000000000
10
290.5439021271
20
125.6480954216
30
0.0000000000
10
290.5228416625
20
125.6098033937
30
0.0000000000
10
290.5088286822
20
125.5843086855
30
0.0000000000
11
290.5720259051
21
125.6991760537
31
0.0000000000
11
290.5508884271
21
125.6607813709
31
0.0000000000
11
290.5088286822
21
125.5843086855
31
0.0000000000
0
SPLINE
5
438
100
AcDbEntity
8
0
100
AcDbSpline
62
7
6
CONTINUOUS
70
0
71
3
72
8
73
4
74
2
42
0.0000001000
43
0.0000001000
44
0.0000000001
40
0.0000000000
40
0.0000000000
40
0.0000000000
40
0.0000000000
40
1.0000000000
40
1.0000000000
40
1.0000000000
40
1.0000000000
10
290.5088286822
20
125.5843086855
30
0.0000000000
10
290.4981085699
20
125.5648049020
30
0.0000000000
10
290.4873925061
20
125.5452988933
30
0.0000000000
10
290.4766804677
20
125.5257906739
30
0.0000000000
11
290.5088286822
21
125.5843086855
31
0.0000000000
11
290.4766804677
21
125.5257906739
31
0.0000000000
0
SPLINE
5
439
100
AcDbEntity
8
0
100
AcDbSpline
62
7
6
CONTINUOUS
70
0
71
3
72
19
73
15
74
13
42
0.0000001000
43
0.0000001000
44
0.0000000001
40
0.0000000000
40
0.0000000000
40
0.0000000000
40
0.0000000000
40
0.0694627504
40
0.1389888348
40
0.2078733440
40
0.2773559921
40
0.3487116104
40
0.4234507806
40
0.5020165670
40
0.5845370632
40
0.6731986661
40
0.7824917663
40
0.9264365180
40
1.0000000000
40
1.0000000000
40
1.0000000000
40
1.0000000000
10
287.4539846407
20
94.3006799485
30
0.0000000000
10
287.4519177808
20
94.2902896952
30
0.0000000000
10
287.4478188146
20
94.2694924165
30
0.0000000000
10
287.4418276597
20
94.2383605810
30
0.0000000000
10
287.4360063523
20
94.2071933945
30
0.0000000000
10
287.4303383476
20
94.1757143374
30
0.0000000000
10
287.4247591118
20
94.1433128986
30
0.0000000000
10
287.4192466994
20
94.1094955300
30
0.0000000000
10
287.4138224648
20
94.0739402377
30
0.0000000000
10
287.4085140628
20
94.0362217798
30
0.0000000000
10
287.4030789388
20
93.9937917322
30
0.0000000000
10
287.3972211620
20
93.9419762063
30
0.0000000000
10
287.3925098287
20
93.8923552470
30
0.0000000000
10
287.3898496280
20
93.8592888922
30
0.0000000000
10
287.3890015414
20
93.8481016066
30
0.0000000000
11
287.4539846407
21
94.3006799485
31
0.0000000000
11
287.4478439472
21
94.2694973543
31
0.0000000000
11
287.4418377979
21
94.2382590585
31
0.0000000000
11
287.4360565457
21
94.2072769207
31
0.0000000000
11
287.4304282423
21
94.1759885334
31
0.0000000000
11
287.4248935130
21
94.1438135795
31
0.0000000000
11
287.4193965429
21
94.1100626817
31
0.0000000000
11
287.4139803319
21
94.0745266547
31
0.0000000000
11
287.4087192504
21
94.0371391828
31
0.0000000000
11
287.4035679007
21
93.9969020145
31
0.0000000000
11
287.3979429863
21
93.9472142240
31
0.0000000000
11
287.3917034330
21
93.8816510359
31
0.0000000000
11
287.3890015414
21
93.8481016066
31
0.0000000000
0
SPLINE
5
43A
100
AcDbEntity
8
0
100
AcDbSpline
62
7
6
CONTINUOUS
70
0
71
3
72
13
73
9
74
7
42
0.0000001000
43
0.0000001000
44
0.0000000001
40
0.0000000000
40
0.0000000000
40
0.0000000000
40
0.0000000000
40
0.1428361980
40
0.3803201419
40
0.5869937907
40
0.7696816786
40
0.9276464958
40
1.0000000000
40
1.0000000000
40
1.0000000000
40
1.0000000000
10
287.3890015414
20
93.8481016066
30
0.0000000000
10
287.3881926629
20
93.8374315242
30
0.0000000000
10
287.3861639484
20
93.8090115566
30
0.0000000000
10
287.3835202995
20
93.7651152922
30
0.0000000000
10
287.3812633096
20
93.7182085954
30
0.0000000000
10
287.3797033218
20
93.6772348341
30
0.0000000000
10
287.3787884874
20
93.6463077559
30
0.0000000000
10
287.3783755663
20
93.6290583740
30
0.0000000000
10
287.3782554252
20
93.6236393435
30
0.0000000000
11
287.3890015414
21
93.8481016066
31
0.0000000000
11
287.3867133742
21
93.8160812921
31
0.0000000000
11
287.3834962206
21
93.7628051222
31
0.0000000000
11
287.3812592636
21
93.7164102468
31
0.0000000000
11
287.3796950824
21
93.6753819491
31
0.0000000000
11
287.3786445982
21
93.6398957655
31
0.0000000000
11
287.3782554252
21
93.6236393435
31
0.0000000000
0
SPLINE
5
43B
100
AcDbEntity
8
0
100
AcDbSpline
62
7
6
CONTINUOUS
70
0
71
3
72
11
73
7
74
5
42
0.0000001000
43
0.0000001000
44
0.0000000001
40
0.0000000000
40
0.0000000000
40
0.0000000000
40
0.0000000000
40
0.1539351268
40
0.4471359352
40
0.7283881110
40
1.0000000000
40
1.0000000000
40
1.0000000000
40
1.0000000000
10
287.3782554252
20
93.6236393435
30
0.0000000000
10
287.3781407667
20
93.6184676068
30
0.0000000000
10
287.3778330532
20
93.6034446837
30
0.0000000000
10
287.3774514179
20
93.5789699738
30
0.0000000000
10
287.3771876910
20
93.5505389631
30
0.0000000000
10
287.3771299982
20
93.5319599121
30
0.0000000000
10
287.3771299929
20
93.5228323663
30
0.0000000000
11
287.3782554252
21
93.6236393435
31
0.0000000000
11
287.3779375982
21
93.6081235843
31
0.0000000000
11
287.3774769184
21
93.5785680926
31
0.0000000000
11
287.3772143543
21
93.5502148297
31
0.0000000000
11
287.3771299929
21
93.5228323663
31
0.0000000000
0
SPLINE
5
43C
100
AcDbEntity
8
0
100
AcDbSpline
62
7
6
CONTINUOUS
70
0
71
3
72
8
73
4
74
2
42
0.0000001000
43
0.0000001000
44
0.0000000001
40
0.0000000000
40
0.0000000000
40
0.0000000000
40
0.0000000000
40
1.0000000000
40
1.0000000000
40
1.0000000000
40
1.0000000000
10
289.2332821469
20
110.2325289975
30
0.0000000000
10
289.2311234942
20
110.2088364544
30
0.0000000000
10
289.2289637524
20
110.1851440106
30
0.0000000000
10
289.2268029198
20
110.1614516663
30
0.0000000000
11
289.2332821469
21
110.2325289975
31
0.0000000000
11
289.2268029198
21
110.1614516663
31
0.0000000000
0
SPLINE
5
43D
100
AcDbEntity
8
0
100
AcDbSpline
62
7
6
CONTINUOUS
70
0
71
3
72
61
73
57
74
55
42
0.0000001000
43
0.0000001000
44
0.0000000001
40
0.0000000000
40
0.0000000000
40
0.0000000000
40
0.0000000000
40
0.0118600640
40
0.0354480757
40
0.0588584469
40
0.0820894777
40
0.1051395601
40
0.1280071754
40
0.1506908912
40
0.1731893592
40
0.1955014202
40
0.2176265191
40
0.2395643206
40
0.2613145399
40
0.2828769411
40
0.3042513361
40
0.3254375822
40
0.3464355811
40
0.3672452773
40
0.3878666566
40
0.4082997446
40
0.4285446062
40
0.4486013530
40
0.4684701367
40
0.4881509492
40
0.5076431921
40
0.5269469627
40
0.5460624751
40
0.5649899773
40
0.5837297499
40
0.6022821047
40
0.6206473838
40
0.6388259926
40
0.6568184884
40
0.6746254786
40
0.6922475910
40
0.7096854729
40
0.7269397898
40
0.7440112250
40
0.7609004780
40
0.7776082643
40
0.7941353146
40
0.8104824121
40
0.8266504140
40
0.8426401920
40
0.8584526267
40
0.8740886066
40
0.8895490274
40
0.9048347912
40
0.9199468061
40
0.9348859854
40
0.9496532829
40
0.9642497183
40
0.9786763178
40
0.9929341061
40
1.0000000000
40
1.0000000000
40
1.0000000000
40
1.0000000000
10
289.2268029198
20
110.1614516663
30
0.0000000000
10
289.2235158775
20
110.1254110491
30
0.0000000000
10
289.2136838222
20
110.0176913628
30
0.0000000000
10
289.1973210140
20
109.8388356205
30
0.0000000000
10
289.1777373281
20
109.6254318947
30
0.0000000000
10
289.1582444647
20
109.4136681956
30
0.0000000000
10
289.1388447430
20
109.2035591169
30
0.0000000000
10
289.1195403912
20
108.9951184400
30
0.0000000000
10
289.1003335480
20
108.7883591588
30
0.0000000000
10
289.0812262369
20
108.5832931757
30
0.0000000000
10
289.0622202110
20
108.3799297291
30
0.0000000000
10
289.0433170239
20
108.1782749717
30
0.0000000000
10
289.0245179726
20
107.9783323995
30
0.0000000000
10
289.0058242437
20
107.7801045399
30
0.0000000000
10
288.9872369659
20
107.5835934750
30
0.0000000000
10
288.9687572104
20
107.3888008556
30
0.0000000000
10
288.9503859930
20
107.1957279164
30
0.0000000000
10
288.9321242754
20
107.0043754895
30
0.0000000000
10
288.9139729668
20
106.8147440186
30
0.0000000000
10
288.8959329253
20
106.6268335720
30
0.0000000000
10
288.8780049607
20
106.4406438533
30
0.0000000000
10
288.8601898250
20
106.2561741851
30
0.0000000000
10
288.8424882525
20
106.0734235057
30
0.0000000000
10
288.8249010124
20
105.8923909731
30
0.0000000000
10
288.8074290636
20
105.7130779038
30
0.0000000000
10
288.7900733719
20
105.5354857794
30
0.0000000000
10
288.7728348269
20
105.3596154074
30
0.0000000000
10
288.7557140544
20
105.1854650262
30
0.0000000000
10
288.7387116127
20
105.0130323187
30
0.0000000000
10
288.7218280176
20
104.8423146719
30
0.0000000000
10
288.7050637444
20
104.6733091879
30
0.0000000000
10
288.6884192180
20
104.5060125906
30
0.0000000000
10
288.6718947766
20
104.3404208604
30
0.0000000000
10
288.6554907176
20
104.1765291675
30
0.0000000000
10
288.6392072583
20
104.0143320079
30
0.0000000000
10
288.6230445753
20
103.8538236055
30
0.0000000000
10
288.6070028144
20
103.6949980085
30
0.0000000000
10
288.5910820918
20
103.5378490983
30
0.0000000000
10
288.5752824950
20
103.3823705982
30
0.0000000000
10
288.5596040833
20
103.2285560814
30
0.0000000000
10
288.5440468900
20
103.0763989779
30
0.0000000000
10
288.5286109076
20
102.9258924653
30
0.0000000000
10
288.5132960828
20
102.7770292908
30
0.0000000000
10
288.4981023389
20
102.6298017711
30
0.0000000000
10
288.4830295515
20
102.4842019292
30
0.0000000000
10
288.4680775755
20
102.3402216939
30
0.0000000000
10
288.4532462451
20
102.1978529226
30
0.0000000000
10
288.4385353762
20
102.0570874084
30
0.0000000000
10
288.4239447658
20
101.9179168861
30
0.0000000000
10
288.4094741944
20
101.7803330376
30
0.0000000000
10
288.3951234122
20
101.6443273899
30
0.0000000000
10
288.3808921288
20
101.5098911315
30
0.0000000000
10
288.3667800368
20
101.3770151063
30
0.0000000000
10
288.3527867904
20
101.2456899444
30
0.0000000000
10
288.3411904458
20
101.1372184207
30
0.0000000000
10
288.3342565320
20
101.0725211210
30
0.0000000000
10
288.3319569823
20
101.0510829896
30
0.0000000000
11
289.2268029198
21
110.1614516663
31
0.0000000000
11
289.2169342138
21
110.0533305061
31
0.0000000000
11
289.1972615628
21
109.8382967387
31
0.0000000000
11
289.1776773404
21
109.6248878562
31
0.0000000000
11
289.1581839595
21
109.4131192802
31
0.0000000000
11
289.1387837387
21
109.2030055960
31
0.0000000000
11
289.1194789056
21
108.9945605772
31
0.0000000000
11
289.1002715990
21
108.7877972098
31
0.0000000000
11
289.0811638708
21
108.5827277154
31
0.0000000000
11
289.0621576116
21
108.3793625926
31
0.0000000000
11
289.0432542511
21
108.1777068260
31
0.0000000000
11
289.0244550367
21
107.9777633989
31
0.0000000000
11
289.0057611554
21
107.7795348338
31
0.0000000000
11
288.9871737353
21
107.5830232075
31
0.0000000000
11
288.9686938473
21
107.3882301664
31
0.0000000000
11
288.9503225070
21
107.1951569402
31
0.0000000000
11
288.9320606756
21
107.0038043565
31
0.0000000000
11
288.9139092621
21
106.8141728545
31
0.0000000000
11
288.8958691246
21
106.6262624981
31
0.0000000000
11
288.8779410713
21
106.4400729895
31
0.0000000000
11
288.8601258634
21
106.2556036732
31
0.0000000000
11
288.8424242323
21
106.0728534665
31
0.0000000000
11
288.8248368827
21
105.8918209223
31
0.0000000000
11
288.8073646470
21
105.7125060488
31
0.0000000000
11
288.7900088717
21
105.5349142336
31
0.0000000000
11
288.7727702750
21
105.3590445256
31
0.0000000000
11
288.7556494583
21
105.1848949114
31
0.0000000000
11
288.7386469795
21
105.0124630703
31
0.0000000000
11
288.7217633544
21
104.8417463853
31
0.0000000000
11
288.7049990576
21
104.6727419550
31
0.0000000000
11
288.6883545244
21
104.5054466041
31
0.0000000000
11
288.6718301286
21
104.3398565805
31
0.0000000000
11
288.6554261288
21
104.1759667470
31
0.0000000000
11
288.6391427329
21
104.0137715089
31
0.0000000000
11
288.6229801175
21
103.8532650871
31
0.0000000000
11
288.6069384280
21
103.6944415268
31
0.0000000000
11
288.5910177804
21
103.5372947067
31
0.0000000000
11
288.5752182618
21
103.3818183471
31
0.0000000000
11
288.5595399315
21
103.2280060187
31
0.0000000000
11
288.5439828222
21
103.0758511504
31
0.0000000000
11
288.5285469401
21
102.9253470328
31
0.0000000000
11
288.5132322426
21
102.7764864767
31
0.0000000000
11
288.4980386284
21
102.6292616207
31
0.0000000000
11
288.4829659722
21
102.4836644690
31
0.0000000000
11
288.4680141282
21
102.3396869482
31
0.0000000000
11
288.4531829308
21
102.1973209135
31
0.0000000000
11
288.4384721953
21
102.0565581559
31
0.0000000000
11
288.4238817188
21
101.9173904080
31
0.0000000000
11
288.4094112812
21
101.7798093508
31
0.0000000000
11
288.3950606452
21
101.6438066164
31
0.0000000000
11
288.3808295330
21
101.5093734713
31
0.0000000000
11
288.3667176126
21
101.3765005802
31
0.0000000000
11
288.3527245360
21
101.2451785468
31
0.0000000000
11
288.3388499449
21
101.1153979935
31
0.0000000000
11
288.3319569823
21
101.0510829896
31
0.0000000000
0
SPLINE
5
43E
100
AcDbEntity
8
0
100
AcDbSpline
62
7
6
CONTINUOUS
70
0
71
3
72
114
73
110
74
108
42
0.0000001000
43
0.0000001000
44
0.0000000001
40
0.0000000000
40
0.0000000000
40
0.0000000000
40
0.0000000000
40
0.0094433044
40
0.0281617105
40
0.0466568433
40
0.0649299023
40
0.0829821013
40
0.1008147336
40
0.1184291209
40
0.1358265826
40
0.1530084353
40
0.1699759924
40
0.1867305638
40
0.2032734551
40
0.2196059830
40
0.2357295303
40
0.2516454900
40
0.2673552469
40
0.2828601769
40
0.2981616470
40
0.3132610146
40
0.3281596302
40
0.3428588864
40
0.3573602052
40
0.3716649956
40
0.3857746539
40
0.3996905626
40
0.4134140907
40
0.4269465973
40
0.4402894824
40
0.4534441603
40
0.4664120282
40
0.4791944663
40
0.4917928377
40
0.5042084884
40
0.5164427799
40
0.5284970841
40
0.5403724510
40
0.5520696885
40
0.5635896041
40
0.5749330127
40
0.5861007789
40
0.5970938093
40
0.6079130135
40
0.6185593049
40
0.6290336007
40
0.6393368434
40
0.6494700366
40
0.6594341862
40
0.6692302994
40
0.6788593847
40
0.6883224789
40
0.6976206783
40
0.7067550739
40
0.7157267557
40
0.7245368158
40
0.7331864083
40
0.7416767093
40
0.7500088854
40
0.7581840994
40
0.7662035631
40
0.7740685367
40
0.7817802612
40
0.7893399707
40
0.7967489593
40
0.8040085695
40
0.8111201159
40
0.8180849106
40
0.8249043690
40
0.8315799087
40
0.8381129191
40
0.8445048448
40
0.8507572347
40
0.8568715749
40
0.8628493777
40
0.8686923236
40
0.8744020559
40
0.8799800130
40
0.8854275760
40
0.8907460576
40
0.8959368833
40
0.9010017566
40
0.9059422558
40
0.9107602793
40
0.9154578344
40
0.9200369034
40
0.9244999952
40
0.9288493931
40
0.9330879560
40
0.9372185710
40
0.9412443540
40
0.9451690575
40
0.9489961759
40
0.9527304676
40
0.9563760632
40
0.9599388865
40
0.9634240941
40
0.9668390164
40
0.9701902888
40
0.9734874272
40
0.9767375336
40
0.9799503005
40
0.9831343697
40
0.9863027141
40
0.9894689074
40
0.9926483250
40
0.9958607297
40
0.9991284614
40
1.0000000000
40
1.0000000000
40
1.0000000000
40
1.0000000000
10
288.3319569823
20
101.0510829896
30
0.0000000000
10
288.3296710531
20
101.0297718388
30
0.0000000000
10
288.3228483754
20
100.9662185787
30
0.0000000000
10
288.3115169168
20
100.8609298829
30
0.0000000000
10
288.2979959882
20
100.7357202726
30
0.0000000000
10
288.2845924593
20
100.6120188692
30
0.0000000000
10
288.2713060199
20
100.4898172609
30
0.0000000000
10
288.2581363454
20
100.3691067583
30
0.0000000000
10
288.2450830830
20
100.2498784342
30
0.0000000000
10
288.2321458624
20
100.1321233098
30
0.0000000000
10
288.2193243057
20
100.0158324261
30
0.0000000000
10
288.2066180275
20
99.9009968466
30
0.0000000000
10
288.1940266353
20
99.7876076608
30
0.0000000000
10
288.1815497266
20
99.6756559517
30
0.0000000000
10
288.1691868685
20
99.5651326390
30
0.0000000000
10
288.1569376208
20
99.4560284435
30
0.0000000000
10
288.1448015210
20
99.3483339334
30
0.0000000000
10
288.1327780970
20
99.2420396935
30
0.0000000000
10
288.1208668741
20
99.1371363687
30
0.0000000000
10
288.1090673742
20
99.0336146662
30
0.0000000000
10
288.0973791173
20
98.9314653516
30
0.0000000000
10
288.0858016039
20
98.8306791343
30
0.0000000000
10
288.0743343205
20
98.7312465783
30
0.0000000000
10
288.0629767456
20
98.6331581144
30
0.0000000000
10
288.0517283439
20
98.5364041670
30
0.0000000000
10
288.0405885811
20
98.4409752500
30
0.0000000000
10
288.0295569240
20
98.3468619697
30
0.0000000000
10
288.0186328398
20
98.2540550165
30
0.0000000000
10
288.0078157787
20
98.1625450436
30
0.0000000000
10
287.9971051832
20
98.0723226011
30
0.0000000000
10
287.9865004896
20
97.9833781534
30
0.0000000000
10
287.9760011271
20
97.8957022109
30
0.0000000000
10
287.9656065295
20
97.8092854006
30
0.0000000000
10
287.9553161350
20
97.7241184664
30
0.0000000000
10
287.9451293764
20
97.6401921958
30
0.0000000000
10
287.9350456775
20
97.5574973572
30
0.0000000000
10
287.9250645558
20
97.4760253849
30
0.0000000000
10
287.9151856731
20
97.3957689614
30
0.0000000000
10
287.9054088444
20
97.3167220414
30
0.0000000000
10
287.8957339491
20
97.2388791097
30
0.0000000000
10
287.8861608482
20
97.1622345241
30
0.0000000000
10
287.8766893811
20
97.0867824181
30
0.0000000000
10
287.8673193793
20
97.0125167105
30
0.0000000000
10
287.8580506572
20
96.9394312104
30
0.0000000000
10
287.8488830261
20
96.8675197039
30
0.0000000000
10
287.8398162875
20
96.7967759032
30
0.0000000000
10
287.8308502144
20
96.7271933180
30
0.0000000000
10
287.8219845766
20
96.6587652559
30
0.0000000000
10
287.8132191273
20
96.5914848787
30
0.0000000000
10
287.8045536169
20
96.5253453383
30
0.0000000000
10
287.7959877866
20
96.4603397170
30
0.0000000000
10
287.7875213492
20
96.3964608976
30
0.0000000000
10
287.7791540178
20
96.3337015743
30
0.0000000000
10
287.7708854905
20
96.2720543216
30
0.0000000000
10
287.7627154668
20
96.2115117242
30
0.0000000000
10
287.7546436236
20
96.1520662260
30
0.0000000000
10
287.7466696223
20
96.0937100762
30
0.0000000000
10
287.7387931235
20
96.0364353538
30
0.0000000000
10
287.7310137811
20
95.9802341195
30
0.0000000000
10
287.7233312382
20
95.9250983539
30
0.0000000000
10
287.7157451093
20
95.8710198279
30
0.0000000000
10
287.7082550170
20
95.8179901329
30
0.0000000000
10
287.7008605746
20
95.7660008107
30
0.0000000000
10
287.6935613845
20
95.7150433278
30
0.0000000000
10
287.6863570179
20
95.6651089226
30
0.0000000000
10
287.6792470577
20
95.6161886483
30
0.0000000000
10
287.6722310796
20
95.5682735182
30
0.0000000000
10
287.6653086310
20
95.5213543836
30
0.0000000000
10
287.6584792427
20
95.4754218620
30
0.0000000000
10
287.6517424547
20
95.4304663932
30
0.0000000000
10
287.6450977919
20
95.3864783527
30
0.0000000000
10
287.6385447301
20
95.3434478225
30
0.0000000000
10
287.6320827641
20
95.3013646607
30
0.0000000000
10
287.6257113732
20
95.2602185723
30
0.0000000000
10
287.6194299779
20
95.2199989703
30
0.0000000000
10
287.6132379926
20
95.1806949075
30
0.0000000000
10
287.6071348872
20
95.1422955989
30
0.0000000000
10
287.6011202196
20
95.1047909331
30
0.0000000000
10
287.5951937345
20
95.0681715293
30
0.0000000000
10
287.5893552349
20
95.0324280271
30
0.0000000000
10
287.5836043937
20
94.9975503459
30
0.0000000000
10
287.5779408921
20
94.9635277922
30
0.0000000000
10
287.5723642645
20
94.9303486084
30
0.0000000000
10
287.5668739358
20
94.8980003557
30
0.0000000000
10
287.5614693164
20
94.8664696666
30
0.0000000000
10
287.5561495432
20
94.8357418125
30
0.0000000000
10
287.5509137568
20
94.8058014273
30
0.0000000000
10
287.5457608150
20
94.7766311716
30
0.0000000000
10
287.5406894136
20
94.7482128605
30
0.0000000000
10
287.5356981054
20
94.7205264113
30
0.0000000000
10
287.5307849830
20
94.6935497595
30
0.0000000000
10
287.5259481357
20
94.6672594351
30
0.0000000000
10
287.5211848890
20
94.6416283125
30
0.0000000000
10
287.5164926148
20
94.6166283780
30
0.0000000000
10
287.5118676886
20
94.5922261866
30
0.0000000000
10
287.5073064101
20
94.5683873793
30
0.0000000000
10
287.5028039183
20
94.5450704150
30
0.0000000000
10
287.4983550243
20
94.5222321594
30
0.0000000000
10
287.4939530445
20
94.4998196769
30
0.0000000000
10
287.4895913727
20
94.4777805314
30
0.0000000000
10
287.4852626131
20
94.4560553551
30
0.0000000000
10
287.4809600414
20
94.4345866537
30
0.0000000000
10
287.4766749368
20
94.4133037269
30
0.0000000000
10
287.4723977229
20
94.3921270460
30
0.0000000000
10
287.4681165073
20
94.3709619459
30
0.0000000000
10
287.4638179216
20
94.3496983305
30
0.0000000000
10
287.4594862966
20
94.3282062728
30
0.0000000000
10
287.4562082220
20
94.3118453907
30
0.0000000000
10
287.4543728562
20
94.3026315376
30
0.0000000000
10
287.4539869153
20
94.3006914270
30
0.0000000000
11
288.3319569823
21
101.0510829896
31
0.0000000000
11
288.3250935339
21
100.9871501447
31
0.0000000000
11
288.3114550542
21
100.8604268540
31
0.0000000000
11
288.2979342466
21
100.7352199716
31
0.0000000000
11
288.2845308400
21
100.6115213287
31
0.0000000000
11
288.2712445451
21
100.4893226605
31
0.0000000000
11
288.2580750219
21
100.3686151618
31
0.0000000000
11
288.2450219086
21
100.2493898365
31
0.0000000000
11
288.2320848350
21
100.1316377053
31
0.0000000000
11
288.2192634231
21
100.0153498078
31
0.0000000000
11
288.2065572872
21
99.9005172065
31
0.0000000000
11
288.1939660347
21
99.7871309898
31
0.0000000000
11
288.1814892665
21
99.6751822751
31
0.0000000000
11
288.1691265681
21
99.5646621057
31
0.0000000000
11
288.1568774820
21
99.4555610768
31
0.0000000000
11
288.1447415399
21
99.3478697147
31
0.0000000000
11
288.1327182700
21
99.2415786036
31
0.0000000000
11
288.1208071970
21
99.1366783875
31
0.0000000000
11
288.1090078432
21
99.0331597727
31
0.0000000000
11
288.0973197282
21
98.9310135304
31
0.0000000000
11
288.0857423679
21
98.8302304804
31
0.0000000000
11
288.0742752464
21
98.7308011577
31
0.0000000000
11
288.0629178279
21
98.6327158992
31
0.0000000000
11
288.0516695774
21
98.5359651278
31
0.0000000000
11
288.0405299604
21
98.4405393568
31
0.0000000000
11
288.0294984436
21
98.3464291919
31
0.0000000000
11
288.0185744947
21
98.2536253329
31
0.0000000000
11
288.0077575800
21
98.1621185459
31
0.0000000000
11
287.9970471350
21
98.0718993222
31
0.0000000000
11
287.9864425848
21
97.9829580549
31
0.0000000000
11
287.9759433591
21
97.8952852552
31
0.0000000000
11
287.9655488914
21
97.8088715495
31
0.0000000000
11
287.9552586196
21
97.7237076817
31
0.0000000000
11
287.9450719861
21
97.6397845130
31
0.0000000000
11
287.9349884162
21
97.5570928000
31
0.0000000000
11
287.9250073319
21
97.4756232286
31
0.0000000000
11
287.9151284167
21
97.3953686610
31
0.0000000000
11
287.9053515521
21
97.3163235969
31
0.0000000000
11
287.8956766191
21
97.2384825385
31
0.0000000000
11
287.8861034922
21
97.1618399383
31
0.0000000000
11
287.8766320108
21
97.0863899134
31
0.0000000000
11
287.8672619918
21
97.0121262936
31
0.0000000000
11
287.8579932502
21
96.9390428910
31
0.0000000000
11
287.8488255972
21
96.8671334913
31
0.0000000000
11
287.8397588400
21
96.7963918548
31
0.0000000000
11
287.8307927663
21
96.7268115724
31
0.0000000000
11
287.8219271256
21
96.6583858184
31
0.0000000000
11
287.8131616700
21
96.5911077531
31
0.0000000000
11
287.8044961502
21
96.5249705285
31
0.0000000000
11
287.7959303148
21
96.4599672877
31
0.0000000000
11
287.7874638905
21
96.3960909826
31
0.0000000000
11
287.7790965673
21
96.3333341632
31
0.0000000000
11
287.7708280444
21
96.2716894126
31
0.0000000000
11
287.7626580213
21
96.2111493230
31
0.0000000000
11
287.7545861957
21
96.1517064729
31
0.0000000000
11
287.7466122189
21
96.0933530212
31
0.0000000000
11
287.7387357374
21
96.0360809766
31
0.0000000000
11
287.7309564074
21
95.9798824124
31
0.0000000000
11
287.7232738885
21
95.9247494284
31
0.0000000000
11
287.7156878008
21
95.8706737929
31
0.0000000000
11
287.7081977396
21
95.8176469461
31
0.0000000000
11
287.7008033226
21
95.7656604583
31
0.0000000000
11
287.6935041737
21
95.7147059451
31
0.0000000000
11
287.6862998669
21
95.6647746192
31
0.0000000000
11
287.6791899539
21
95.6158573622
31
0.0000000000
11
287.6721740181
21
95.5679452451
31
0.0000000000
11
287.6652516456
21
95.5210293564
31
0.0000000000
11
287.6584223373
21
95.4751000860
31
0.0000000000
11
287.6516856162
21
95.4301478059
31
0.0000000000
11
287.6450410355
21
95.3861630796
31
0.0000000000
11
287.6384880980
21
95.3431360979
31
0.0000000000
11
287.6320262342
21
95.3010563436
31
0.0000000000
11
287.6256549510
21
95.2599137239
31
0.0000000000
11
287.6193737291
21
95.2196979667
31
0.0000000000
11
287.6131819090
21
95.1803976661
31
0.0000000000
11
287.6070788923
21
95.1420016615
31
0.0000000000
11
287.6010643026
21
95.1045001709
31
0.0000000000
11
287.5951378780
21
95.0678837886
31
0.0000000000
11
287.5892994768
21
95.0321435620
31
0.0000000000
11
287.5835488547
21
94.9972697773
31
0.0000000000
11
287.5778855333
21
94.9632508392
31
0.0000000000
11
287.5723092107
21
94.9300759873
31
0.0000000000
11
287.5668192587
21
94.8977323065
31
0.0000000000
11
287.5614150092
21
94.8662061335
31
0.0000000000
11
287.5560958400
21
94.8354839692
31
0.0000000000
11
287.5508605961
21
94.8055487648
31
0.0000000000
11
287.5457084410
21
94.7763849750
31
0.0000000000
11
287.5406378940
21
94.7479731827
31
0.0000000000
11
287.5356475445
21
94.7202937617
31
0.0000000000
11
287.5307357153
21
94.6933255467
31
0.0000000000
11
287.5259000825
21
94.6670430777
31
0.0000000000
11
287.5211386555
21
94.6414226161
31
0.0000000000
11
287.5164479998
21
94.6164319306
31
0.0000000000
11
287.5118255278
21
94.5920429716
31
0.0000000000
11
287.5072664864
21
94.5682156649
31
0.0000000000
11
287.5027672438
21
94.5449150293
31
0.0000000000
11
287.4983214579
21
94.5220915218
31
0.0000000000
11
287.4939239400
21
94.4997001826
31
0.0000000000
11
287.4895658649
21
94.4776767643
31
0.0000000000
11
287.4852419927
21
94.4559730511
31
0.0000000000
11
287.4809440371
21
94.4345234328
31
0.0000000000
11
287.4766657170
21
94.4132691776
31
0.0000000000
11
287.4723957415
21
94.3921224653
31
0.0000000000
11
287.4681228642
21
94.3709912832
31
0.0000000000
11
287.4638348243
21
94.3497712989
31
0.0000000000
11
287.4595151425
21
94.3283285610
31
0.0000000000
11
287.4551461995
21
94.3065114678
31
0.0000000000
11
287.4539869153
21
94.3006914270
31
0.0000000000
0
SPLINE
5
43F
100
AcDbEntity
8
0
100
AcDbSpline
62
7
6
CONTINUOUS
70
0
71
3
72
8
73
4
74
2
42
0.0000001000
43
0.0000001000
44
0.0000000001
40
0.0000000000
40
0.0000000000
40
0.0000000000
40
0.0000000000
40
1.0000000000
40
1.0000000000
40
1.0000000000
40
1.0000000000
10
288.5109471874
20
101.1206798803
30
0.0000000000
10
288.5539704211
20
100.8837989430
30
0.0000000000
10
288.6028833287
20
100.6479815238
30
0.0000000000
10
288.6543893577
20
100.4127669907
30
0.0000000000
11
288.5109471874
21
101.1206798803
31
0.0000000000
11
288.6543893577
21
100.4127669907
31
0.0000000000
0
SPLINE
5
440
100
AcDbEntity
8
0
100
AcDbSpline
62
7
6
CONTINUOUS
70
0
71
3
72
8
73
4
74
2
42
0.0000001000
43
0.0000001000
44
0.0000000001
40
0.0000000000
40
0.0000000000
40
0.0000000000
40
0.0000000000
40
1.0000000000
40
1.0000000000
40
1.0000000000
40
1.0000000000
10
288.6543893577
20
100.4127669907
30
0.0000000000
10
288.6586439344
20
100.3933374541
30
0.0000000000
10
288.6629162048
20
100.3739120313
30
0.0000000000
10
288.6672058025
20
100.3544906456
30
0.0000000000
11
288.6543893577
21
100.4127669907
31
0.0000000000
11
288.6672058025
21
100.3544906456
31
0.0000000000
0
SPLINE
5
441
100
AcDbEntity
8
0
100
AcDbSpline
62
7
6
CONTINUOUS
70
0
71
3
72
12
73
8
74
6
42
0.0000001000
43
0.0000001000
44
0.0000000001
40
0.0000000000
40
0.0000000000
40
0.0000000000
40
0.0000000000
40
0.1789135889
40
0.3912325474
40
0.6247943757
40
0.8810761338
40
1.0000000000
40
1.0000000000
40
1.0000000000
40
1.0000000000
10
288.6672058025
20
100.3544906456
30
0.0000000000
10
288.7361916790
20
100.0421533569
30
0.0000000000
10
288.8968435614
20
99.3614448035
30
0.0000000000
10
289.1759851075
20
98.2799018243
30
0.0000000000
10
289.5088970136
20
97.0696066610
30
0.0000000000
10
289.8110657810
20
96.0241150372
30
0.0000000000
10
290.0022880009
20
95.3812147286
30
0.0000000000
10
290.0633596049
20
95.1775820215
30
0.0000000000
11
288.6672058025
21
100.3544906456
31
0.0000000000
11
288.8860835013
21
99.4202927558
31
0.0000000000
11
289.1692595150
21
98.3174191855
31
0.0000000000
11
289.5006014624
21
97.1094673432
31
0.0000000000
11
289.8815705017
21
95.7889057266
31
0.0000000000
11
290.0633596049
21
95.1775820215
31
0.0000000000
0
SPLINE
5
442
100
AcDbEntity
8
0
100
AcDbSpline
62
7
6
CONTINUOUS
70
0
71
3
72
31
73
27
74
25
42
0.0000001000
43
0.0000001000
44
0.0000000001
40
0.0000000000
40
0.0000000000
40
0.0000000000
40
0.0000000000
40
0.0245560934
40
0.0591184261
40
0.0947819204
40
0.1314558502
40
0.1689520264
40
0.2069771879
40
0.2451176942
40
0.2825508500
40
0.3175437435
40
0.3486858437
40
0.3756956093
40
0.3988693357
40
0.4183368128
40
0.4342373449
40
0.4473083243
40
0.4602189771
40
0.4777274538
40
0.5043131261
40
0.5438087216
40
0.6001236284
40
0.6776519130
40
0.7814730166
40
0.9175236924
40
1.0000000000
40
1.0000000000
40
1.0000000000
40
1.0000000000
10
287.3781738789
20
93.4289612866
30
0.0000000000
10
287.3783414195
20
93.4216274862
30
0.0000000000
10
287.3787964139
20
93.4039726501
30
0.0000000000
10
287.3797361396
20
93.3756734574
30
0.0000000000
10
287.3811045389
20
93.3437678295
30
0.0000000000
10
287.3828756162
20
93.3110040499
30
0.0000000000
10
287.3851229817
20
93.2775620117
30
0.0000000000
10
287.3879329491
20
93.2437223339
30
0.0000000000
10
287.3913980295
20
93.2099614102
30
0.0000000000
10
287.3955791024
20
93.1771930379
30
0.0000000000
10
287.4004704386
20
93.1466360866
30
0.0000000000
10
287.4060028689
20
93.1193561354
30
0.0000000000
10
287.4121389129
20
93.0958313724
30
0.0000000000
10
287.4189109937
20
93.0761314330
30
0.0000000000
10
287.4264954973
20
93.0602959298
30
0.0000000000
10
287.4350673798
20
93.0485270184
30
0.0000000000
10
287.4459264139
20
93.0412060072
30
0.0000000000
10
287.4597586197
20
93.0419929249
30
0.0000000000
10
287.4739693817
20
93.0523224479
30
0.0000000000
10
287.4895707829
20
93.0719035427
30
0.0000000000
10
287.5076296682
20
93.1038467499
30
0.0000000000
10
287.5286346981
20
93.1512102817
30
0.0000000000
10
287.5531357020
20
93.2178925263
30
0.0000000000
10
287.5816808663
20
93.3083329503
30
0.0000000000
10
287.6074867856
20
93.4011224027
30
0.0000000000
10
287.6238046000
20
93.4643334892
30
0.0000000000
10
287.6298253746
20
93.4882253924
30
0.0000000000
11
287.3781738789
21
93.4289612866
31
0.0000000000
11
287.3787420290
21
93.4069615114
31
0.0000000000
11
287.3797743162
21
93.3760040799
31
0.0000000000
11
287.3811500550
21
93.3440722074
31
0.0000000000
11
287.3829331829
21
93.3112535695
31
0.0000000000
11
287.3851997231
21
93.2777261565
31
0.0000000000
11
287.3880398355
21
93.2437667000
31
0.0000000000
11
287.3915603564
21
93.2097670979
31
0.0000000000
11
287.3958535000
21
93.1764954746
31
0.0000000000
11
287.4008775949
21
93.1455400271
31
0.0000000000
11
287.4065160596
21
93.1182060844
31
0.0000000000
11
287.4127449412
21
93.0948151867
31
0.0000000000
11
287.4196784904
21
93.0752385567
31
0.0000000000
11
287.4274655874
21
93.0596261304
31
0.0000000000
11
287.4362864322
21
93.0484343844
31
0.0000000000
11
287.4463544975
21
93.0424464206
31
0.0000000000
11
287.4579194663
21
93.0428035116
31
0.0000000000
11
287.4712709866
21
93.0510464140
31
0.0000000000
11
287.4867430543
21
93.0691652608
31
0.0000000000
11
287.5047188116
21
93.0996568254
31
0.0000000000
11
287.5256354863
21
93.1455875829
31
0.0000000000
11
287.5499890967
21
93.2106602427
31
0.0000000000
11
287.5783384334
21
93.2992803266
31
0.0000000000
11
287.6113196822
21
93.4166630538
31
0.0000000000
11
287.6298253746
21
93.4882253924
31
0.0000000000
0
SPLINE
5
443
100
AcDbEntity
8
0
100
AcDbSpline
62
7
6
CONTINUOUS
70
0
71
3
72
9
73
5
74
3
42
0.0000001000
43
0.0000001000
44
0.0000000001
40
0.0000000000
40
0.0000000000
40
0.0000000000
40
0.0000000000
40
0.2921504289
40
1.0000000000
40
1.0000000000
40
1.0000000000
40
1.0000000000
10
287.6298253746
20
93.4882253924
30
0.0000000000
10
287.6366689715
20
93.5153824551
30
0.0000000000
10
287.6594841019
20
93.6084921825
30
0.0000000000
10
287.6807233371
20
93.7019754900
30
0.0000000000
10
287.6952523099
20
93.7682571647
30
0.0000000000
11
287.6298253746
21
93.4882253924
31
0.0000000000
11
287.6498653661
21
93.5698184345
31
0.0000000000
11
287.6952523099
21
93.7682571647
31
0.0000000000
0
SPLINE
5
444
100
AcDbEntity
8
0
100
AcDbSpline
62
7
6
CONTINUOUS
70
0
71
3
72
16
73
12
74
10
42
0.0000001000
43
0.0000001000
44
0.0000000001
40
0.0000000000
40
0.0000000000
40
0.0000000000
40
0.0000000000
40
0.0391260495
40
0.0890546238
40
0.1523819164
40
0.2318483299
40
0.3290436970
40
0.4480984162
40
0.5948497596
40
0.7761006722
40
1.0000000000
40
1.0000000000
40
1.0000000000
40
1.0000000000
10
287.6952523099
20
93.7682571647
30
0.0000000000
10
287.7138908872
20
93.8532869972
30
0.0000000000
10
287.7544216429
20
94.0472333883
30
0.0000000000
10
287.8189468344
20
94.3800645161
30
0.0000000000
10
287.8953654747
20
94.8019759288
30
0.0000000000
10
287.9849832935
20
95.3283356047
30
0.0000000000
10
288.0895504693
20
95.9778880740
30
0.0000000000
10
288.2116566416
20
96.7762138498
30
0.0000000000
10
288.3551904748
20
97.7604188029
30
0.0000000000
10
288.5247285083
20
98.9765315749
30
0.0000000000
10
288.6440135090
20
99.8699845703
30
0.0000000000
10
288.7087407242
20
100.3638908395
30
0.0000000000
11
287.6952523099
21
93.7682571647
31
0.0000000000
11
287.7489606182
21
94.0238164860
31
0.0000000000
11
287.8126806561
21
94.3509098615
31
0.0000000000
11
287.8883172659
21
94.7667574640
31
0.0000000000
11
287.9776544418
21
95.2895682905
31
0.0000000000
11
288.0810683088
21
95.9299910485
31
0.0000000000
11
288.2015233776
21
96.7154242480
31
0.0000000000
11
288.3432029087
21
97.6845970141
31
0.0000000000
11
288.5105921483
21
98.8826973078
31
0.0000000000
11
288.7087407242
21
100.3638908395
31
0.0000000000
0
SPLINE
5
445
100
AcDbEntity
8
0
100
AcDbSpline
62
7
6
CONTINUOUS
70
0
71
3
72
12
73
8
74
6
42
0.0000001000
43
0.0000001000
44
0.0000000001
40
0.0000000000
40
0.0000000000
40
0.0000000000
40
0.0000000000
40
0.0052602932
40
0.3027838079
40
0.6050397131
40
0.9149574002
40
1.0000000000
40
1.0000000000
40
1.0000000000
40
1.0000000000
10
287.3771299929
20
93.5228323663
30
0.0000000000
10
287.3771299928
20
93.5226677562
30
0.0000000000
10
287.3771305179
20
93.5131927544
30
0.0000000000
10
287.3771926132
20
93.4942592736
30
0.0000000000
10
287.3774741314
20
93.4657933784
30
0.0000000000
10
287.3778439314
20
93.4439783946
30
0.0000000000
10
287.3781130988
20
93.4316218299
30
0.0000000000
10
287.3781738789
20
93.4289612866
30
0.0000000000
11
287.3771299929
21
93.5228323663
31
0.0000000000
11
287.3771300203
21
93.5223385359
31
0.0000000000
11
287.3772226536
21
93.4944075613
31
0.0000000000
11
287.3775047314
21
93.4660335645
31
0.0000000000
11
287.3779999519
21
93.4369431022
31
0.0000000000
11
287.3781738789
21
93.4289612866
31
0.0000000000
0
SPLINE
5
446
100
AcDbEntity
8
0
100
AcDbSpline
62
7
6
CONTINUOUS
70
0
71
3
72
8
73
4
74
2
42
0.0000001000
43
0.0000001000
44
0.0000000001
40
0.0000000000
40
0.0000000000
40
0.0000000000
40
0.0000000000
40
1.0000000000
40
1.0000000000
40
1.0000000000
40
1.0000000000
10
300.3377866416
20
125.4009880284
30
0.0000000000
10
300.3199732108
20
125.4435957360
30
0.0000000000
10
300.2998267560
20
125.4852731700
30
0.0000000000
10
300.2775791409
20
125.5257902372
30
0.0000000000
11
300.3377866416
21
125.4009880284
31
0.0000000000
11
300.2775791409
21
125.5257902372
31
0.0000000000
0
SPLINE
5
447
100
AcDbEntity
8
0
100
AcDbSpline
62
7
6
CONTINUOUS
70
0
71
3
72
8
73
4
74
2
42
0.0000001000
43
0.0000001000
44
0.0000000001
40
0.0000000000
40
0.0000000000
40
0.0000000000
40
0.0000000000
40
1.0000000000
40
1.0000000000
40
1.0000000000
40
1.0000000000
10
301.3972632590
20
108.6775757464
30
0.0000000000
10
301.3845263812
20
108.8118311886
30
0.0000000000
10
301.3778409746
20
108.9467710389
30
0.0000000000
10
301.3771894109
20
109.0817433670
30
0.0000000000
11
301.3972632590
21
108.6775757464
31
0.0000000000
11
301.3771894109
21
109.0817433670
31
0.0000000000
0
SPLINE
5
448
100
AcDbEntity
8
0
100
AcDbSpline
62
7
6
CONTINUOUS
70
0
71
3
72
9
73
5
74
3
42
0.0000001000
43
0.0000001000
44
0.0000000001
40
0.0000000000
40
0.0000000000
40
0.0000000000
40
0.0000000000
40
0.5423394785
40
1.0000000000
40
1.0000000000
40
1.0000000000
40
1.0000000000
10
303.1365916735
20
119.0969163238
30
0.0000000000
10
303.1805054927
20
119.0481685386
30
0.0000000000
10
303.2506535475
20
118.9462322033
30
0.0000000000
10
303.2769725465
20
118.8245047347
30
0.0000000000
10
303.2771027202
20
118.7687741574
30
0.0000000000
11
303.1365916735
21
119.0969163238
31
0.0000000000
11
303.2437020790
21
118.9317791330
31
0.0000000000
11
303.2771027202
21
118.7687741574
31
0.0000000000
0
SPLINE
5
449
100
AcDbEntity
8
0
100
AcDbSpline
62
7
6
CONTINUOUS
70
0
71
3
72
8
73
4
74
2
42
0.0000001000
43
0.0000001000
44
0.0000000001
40
0.0000000000
40
0.0000000000
40
0.0000000000
40
0.0000000000
40
1.0000000000
40
1.0000000000
40
1.0000000000
40
1.0000000000
10
301.3771944984
20
109.0820535074
30
0.0000000000
10
301.3771360135
20
109.0942953835
30
0.0000000000
10
301.3771277571
20
109.1065379844
30
0.0000000000
10
301.3771696902
20
109.1187808161
30
0.0000000000
11
301.3771944984
21
109.0820535074
31
0.0000000000
11
301.3771696902
21
109.1187808161
31
0.0000000000
0
SPLINE
5
44A
100
AcDbEntity
8
0
100
AcDbSpline
62
7
6
CONTINUOUS
70
0
71
3
72
8
73
4
74
2
42
0.0000001000
43
0.0000001000
44
0.0000000001
40
0.0000000000
40
0.0000000000
40
0.0000000000
40
0.0000000000
40
1.0000000000
40
1.0000000000
40
1.0000000000
40
1.0000000000
10
301.3771696902
20
109.1187808161
30
0.0000000000
10
301.3772229555
20
109.1343322165
30
0.0000000000
10
301.3773572027
20
109.1498839894
30
0.0000000000
10
301.3775723517
20
109.1654351226
30
0.0000000000
11
301.3771696902
21
109.1187808161
31
0.0000000000
11
301.3775723517
21
109.1654351226
31
0.0000000000
0
SPLINE
5
44B
100
AcDbEntity
8
0
100
AcDbSpline
62
7
6
CONTINUOUS
70
0
71
3
72
8
73
4
74
2
42
0.0000001000
43
0.0000001000
44
0.0000000001
40
0.0000000000
40
0.0000000000
40
0.0000000000
40
0.0000000000
40
1.0000000000
40
1.0000000000
40
1.0000000000
40
1.0000000000
10
301.3775723517
20
109.1654351226
30
0.0000000000
10
301.3776469507
20
109.1708272031
30
0.0000000000
10
301.3777312761
20
109.1762192067
30
0.0000000000
10
301.3778253244
20
109.1816110912
30
0.0000000000
11
301.3775723517
21
109.1654351226
31
0.0000000000
11
301.3778253244
21
109.1816110912
31
0.0000000000
0
SPLINE
5
44C
100
AcDbEntity
8
0
100
AcDbSpline
62
7
6
CONTINUOUS
70
0
71
3
72
8
73
4
74
2
42
0.0000001000
43
0.0000001000
44
0.0000000001
40
0.0000000000
40
0.0000000000
40
0.0000000000
40
0.0000000000
40
1.0000000000
40
1.0000000000
40
1.0000000000
40
1.0000000000
10
301.3778253244
20
109.1816110912
30
0.0000000000
10
301.3786516464
20
109.2289849746
30
0.0000000000
10
301.3802285432
20
109.2763496640
30
0.0000000000
10
301.3825537484
20
109.3236765414
30
0.0000000000
11
301.3778253244
21
109.1816110912
31
0.0000000000
11
301.3825537484
21
109.3236765414
31
0.0000000000
0
SPLINE
5
44D
100
AcDbEntity
8
0
100
AcDbSpline
62
7
6
CONTINUOUS
70
0
71
3
72
9
73
5
74
3
42
0.0000001000
43
0.0000001000
44
0.0000000001
40
0.0000000000
40
0.0000000000
40
0.0000000000
40
0.0000000000
40
0.7138869486
40
1.0000000000
40
1.0000000000
40
1.0000000000
40
1.0000000000
10
301.3825537484
20
109.3236765414
30
0.0000000000
10
301.3842348186
20
109.3578927909
30
0.0000000000
10
301.3871375303
20
109.4057946127
30
0.0000000000
10
301.3908060482
20
109.4536364332
30
0.0000000000
10
301.3919182002
20
109.4673191947
30
0.0000000000
11
301.3825537484
21
109.3236765414
31
0.0000000000
11
301.3887695159
21
109.4262551829
31
0.0000000000
11
301.3919182002
21
109.4673191947
31
0.0000000000
0
SPLINE
5
44E
100
AcDbEntity
8
0
100
AcDbSpline
62
7
6
CONTINUOUS
70
0
71
3
72
8
73
4
74
2
42
0.0000001000
43
0.0000001000
44
0.0000000001
40
0.0000000000
40
0.0000000000
40
0.0000000000
40
0.0000000000
40
1.0000000000
40
1.0000000000
40
1.0000000000
40
1.0000000000
10
301.3919182002
20
109.4673191947
30
0.0000000000
10
301.3957291583
20
109.5142052571
30
0.0000000000
10
301.4002744719
20
109.5610278221
30
0.0000000000
10
301.4055481779
20
109.6077669323
30
0.0000000000
11
301.3919182002
21
109.4673191947
31
0.0000000000
11
301.4055481779
21
109.6077669323
31
0.0000000000
0
SPLINE
5
44F
100
AcDbEntity
8
0
100
AcDbSpline
62
7
6
CONTINUOUS
70
0
71
3
72
8
73
4
74
2
42
0.0000001000
43
0.0000001000
44
0.0000000001
40
0.0000000000
40
0.0000000000
40
0.0000000000
40
0.0000000000
40
1.0000000000
40
1.0000000000
40
1.0000000000
40
1.0000000000
10
301.4055481779
20
109.6077669323
30
0.0000000000
10
301.4100560337
20
109.6477185660
30
0.0000000000
10
301.4150960880
20
109.6876092236
30
0.0000000000
10
301.4206646167
20
109.7274264411
30
0.0000000000
11
301.4055481779
21
109.6077669323
31
0.0000000000
11
301.4206646167
21
109.7274264411
31
0.0000000000
0
SPLINE
5
450
100
AcDbEntity
8
0
100
AcDbSpline
62
7
6
CONTINUOUS
70
0
71
3
72
8
73
4
74
2
42
0.0000001000
43
0.0000001000
44
0.0000000001
40
0.0000000000
40
0.0000000000
40
0.0000000000
40
0.0000000000
40
1.0000000000
40
1.0000000000
40
1.0000000000
40
1.0000000000
10
301.4206646167
20
109.7274264411
30
0.0000000000
10
301.4284743919
20
109.7832694719
30
0.0000000000
10
301.4373236564
20
109.8389680487
30
0.0000000000
10
301.4472021368
20
109.8944877877
30
0.0000000000
11
301.4206646167
21
109.7274264411
31
0.0000000000
11
301.4472021368
21
109.8944877877
31
0.0000000000
0
SPLINE
5
451
100
AcDbEntity
8
0
100
AcDbSpline
62
7
6
CONTINUOUS
70
0
71
3
72
9
73
5
74
3
42
0.0000001000
43
0.0000001000
44
0.0000000001
40
0.0000000000
40
0.0000000000
40
0.0000000000
40
0.0000000000
40
0.5957821325
40
1.0000000000
40
1.0000000000
40
1.0000000000
40
1.0000000000
10
301.4472021368
20
109.8944877877
30
0.0000000000
10
301.4501763701
20
109.9112037856
30
0.0000000000
10
301.4553251182
20
109.9392338073
30
0.0000000000
10
301.4607359223
20
109.9672155127
30
0.0000000000
10
301.4629657360
20
109.9785179628
30
0.0000000000
11
301.4472021368
21
109.8944877877
31
0.0000000000
11
301.4564044528
21
109.9445862076
31
0.0000000000
11
301.4629657360
21
109.9785179628
31
0.0000000000
0
SPLINE
5
452
100
AcDbEntity
8
0
100
AcDbSpline
62
7
6
CONTINUOUS
70
0
71
3
72
8
73
4
74
2
42
0.0000001000
43
0.0000001000
44
0.0000000001
40
0.0000000000
40
0.0000000000
40
0.0000000000
40
0.0000000000
40
1.0000000000
40
1.0000000000
40
1.0000000000
40
1.0000000000
10
301.4629657360
20
109.9785179628
30
0.0000000000
10
301.4763011009
20
110.0461120836
30
0.0000000000
10
301.4911626087
20
110.1134109481
30
0.0000000000
10
301.5075186269
20
110.1803374076
30
0.0000000000
11
301.4629657360
21
109.9785179628
31
0.0000000000
11
301.5075186269
21
110.1803374076
31
0.0000000000
0
SPLINE
5
453
100
AcDbEntity
8
0
100
AcDbSpline
62
7
6
CONTINUOUS
70
0
71
3
72
8
73
4
74
2
42
0.0000001000
43
0.0000001000
44
0.0000000001
40
0.0000000000
40
0.0000000000
40
0.0000000000
40
0.0000000000
40
1.0000000000
40
1.0000000000
40
1.0000000000
40
1.0000000000
10
301.5075186269
20
110.1803374076
30
0.0000000000
10
301.5091721373
20
110.1871033327
30
0.0000000000
10
301.5108409219
20
110.1938654518
30
0.0000000000
10
301.5125249479
20
110.2006236851
30
0.0000000000
11
301.5075186269
21
110.1803374076
31
0.0000000000
11
301.5125249479
21
110.2006236851
31
0.0000000000
0
SPLINE
5
454
100
AcDbEntity
8
0
100
AcDbSpline
62
7
6
CONTINUOUS
70
0
71
3
72
8
73
4
74
2
42
0.0000001000
43
0.0000001000
44
0.0000000001
40
0.0000000000
40
0.0000000000
40
0.0000000000
40
0.0000000000
40
1.0000000000
40
1.0000000000
40
1.0000000000
40
1.0000000000
10
301.5125249479
20
110.2006236851
30
0.0000000000
10
301.5153129807
20
110.2118124531
30
0.0000000000
10
301.5181427895
20
110.2229905705
30
0.0000000000
10
301.5210142258
20
110.2341576756
30
0.0000000000
11
301.5125249479
21
110.2006236851
31
0.0000000000
11
301.5210142258
21
110.2341576756
31
0.0000000000
0
SPLINE
5
455
100
AcDbEntity
8
0
100
AcDbSpline
62
7
6
CONTINUOUS
70
0
71
3
72
8
73
4
74
2
42
0.0000001000
43
0.0000001000
44
0.0000000001
40
0.0000000000
40
0.0000000000
40
0.0000000000
40
0.0000000000
40
1.0000000000
40
1.0000000000
40
1.0000000000
40
1.0000000000
10
301.5210142258
20
110.2341576756
30
0.0000000000
10
301.5288217955
20
110.2645215572
30
0.0000000000
10
301.5369371268
20
110.2948040223
30
0.0000000000
10
301.5453572383
20
110.3249977997
30
0.0000000000
11
301.5210142258
21
110.2341576756
31
0.0000000000
11
301.5453572383
21
110.3249977997
31
0.0000000000
0
SPLINE
5
456
100
AcDbEntity
8
0
100
AcDbSpline
62
7
6
CONTINUOUS
70
0
71
3
72
10
73
6
74
4
42
0.0000001000
43
0.0000001000
44
0.0000000001
40
0.0000000000
40
0.0000000000
40
0.0000000000
40
0.0000000000
40
0.2991484825
40
0.6874559662
40
1.0000000000
40
1.0000000000
40
1.0000000000
40
1.0000000000
10
302.7647247780
20
114.6967930232
30
0.0000000000
10
302.8119626907
20
114.8661530489
30
0.0000000000
10
302.9196781980
20
115.2555842024
30
0.0000000000
10
303.0736809235
20
115.8228013063
30
0.0000000000
10
303.1797656539
20
116.2208334314
30
0.0000000000
10
303.2267119403
20
116.3984309567
30
0.0000000000
11
302.7647247780
21
114.6967930232
31
0.0000000000
11
302.9053586851
21
115.2051730140
31
0.0000000000
11
303.0847813198
21
115.8659282444
31
0.0000000000
11
303.2267119403
21
116.3984309567
31
0.0000000000
0
SPLINE
5
457
100
AcDbEntity
8
0
100
AcDbSpline
62
7
6
CONTINUOUS
70
0
71
3
72
9
73
5
74
3
42
0.0000001000
43
0.0000001000
44
0.0000000001
40
0.0000000000
40
0.0000000000
40
0.0000000000
40
0.0000000000
40
0.4240144364
40
1.0000000000
40
1.0000000000
40
1.0000000000
40
1.0000000000
10
303.2266817948
20
116.3984476327
30
0.0000000000
10
303.2409009133
20
116.4522289466
30
0.0000000000
10
303.2675219080
20
116.5809755669
30
0.0000000000
10
303.2771907794
20
116.7121196566
30
0.0000000000
10
303.2771276908
20
116.7876363843
30
0.0000000000
11
303.2266817948
21
116.3984476327
31
0.0000000000
11
303.2604284930
21
116.5618408347
31
0.0000000000
11
303.2771276908
21
116.7876363843
31
0.0000000000
0
SPLINE
5
458
100
AcDbEntity
8
0
100
AcDbSpline
62
7
6
CONTINUOUS
70
0
71
3
72
8
73
4
74
2
42
0.0000001000
43
0.0000001000
44
0.0000000001
40
0.0000000000
40
0.0000000000
40
0.0000000000
40
0.0000000000
40
1.0000000000
40
1.0000000000
40
1.0000000000
40
1.0000000000
10
300.1822856610
20
125.6990895517
30
0.0000000000
10
300.1797211683
20
125.7037464051
30
0.0000000000
10
300.1771518294
20
125.7084005950
30
0.0000000000
10
300.1745775206
20
125.7130520379
30
0.0000000000
11
300.1822856610
21
125.6990895517
31
0.0000000000
11
300.1745775206
21
125.7130520379
31
0.0000000000
0
SPLINE
5
459
100
AcDbEntity
8
0
100
AcDbSpline
62
7
6
CONTINUOUS
70
0
71
3
72
8
73
4
74
2
42
0.0000001000
43
0.0000001000
44
0.0000000001
40
0.0000000000
40
0.0000000000
40
0.0000000000
40
0.0000000000
40
1.0000000000
40
1.0000000000
40
1.0000000000
40
1.0000000000
10
300.1745775206
20
125.7130520379
30
0.0000000000
10
300.1575991360
20
125.7437297821
30
0.0000000000
10
300.1404045678
20
125.7742880367
30
0.0000000000
10
300.1229582954
20
125.8047028379
30
0.0000000000
11
300.1745775206
21
125.7130520379
31
0.0000000000
11
300.1229582954
21
125.8047028379
31
0.0000000000
0
SPLINE
5
45A
100
AcDbEntity
8
0
100
AcDbSpline
62
7
6
CONTINUOUS
70
0
71
3
72
8
73
4
74
2
42
0.0000001000
43
0.0000001000
44
0.0000000001
40
0.0000000000
40
0.0000000000
40
0.0000000000
40
0.0000000000
40
1.0000000000
40
1.0000000000
40
1.0000000000
40
1.0000000000
10
300.1229582954
20
125.8047028379
30
0.0000000000
10
300.1072378261
20
125.8321089759
30
0.0000000000
10
300.0913129873
20
125.8593986379
30
0.0000000000
10
300.0751266364
20
125.8865318661
30
0.0000000000
11
300.1229582954
21
125.8047028379
31
0.0000000000
11
300.0751266364
21
125.8865318661
31
0.0000000000
0
SPLINE
5
45B
100
AcDbEntity
8
0
100
AcDbSpline
62
7
6
CONTINUOUS
70
0
71
3
72
9
73
5
74
3
42
0.0000001000
43
0.0000001000
44
0.0000000001
40
0.0000000000
40
0.0000000000
40
0.0000000000
40
0.0000000000
40
0.3604932879
40
1.0000000000
40
1.0000000000
40
1.0000000000
40
1.0000000000
10
300.0751266364
20
125.8865318661
30
0.0000000000
10
300.0604009586
20
125.9112165638
30
0.0000000000
10
300.0189518617
20
125.9793321827
30
0.0000000000
10
299.9755061560
20
126.0462199857
30
0.0000000000
10
299.9464213376
20
126.0881094313
30
0.0000000000
11
300.0751266364
21
125.8865318661
31
0.0000000000
11
300.0302572461
21
125.9601674493
31
0.0000000000
11
299.9464213376
21
126.0881094313
31
0.0000000000
0
SPLINE
5
45C
100
AcDbEntity
8
0
100
AcDbSpline
62
7
6
CONTINUOUS
70
0
71
3
72
12
73
8
74
6
42
0.0000001000
43
0.0000001000
44
0.0000000001
40
0.0000000000
40
0.0000000000
40
0.0000000000
40
0.0000000000
40
0.1629220406
40
0.3364484542
40
0.5415168348
40
0.7792018833
40
1.0000000000
40
1.0000000000
40
1.0000000000
40
1.0000000000
10
299.9464213376
20
126.0881094313
30
0.0000000000
10
299.9196137282
20
126.1267191238
30
0.0000000000
10
299.8619712018
20
126.2048976183
30
0.0000000000
10
299.7572422623
20
126.3213067679
30
0.0000000000
10
299.6181170976
20
126.4336703556
30
0.0000000000
10
299.4449099688
20
126.5195696417
30
0.0000000000
10
299.3146893695
20
126.5489325978
30
0.0000000000
10
299.2510946825
20
126.5556179280
30
0.0000000000
11
299.9464213376
21
126.0881094313
31
0.0000000000
11
299.8620466146
21
126.2010611687
31
0.0000000000
11
299.7607694476
21
126.3119299774
31
0.0000000000
11
299.6221293500
21
126.4227017036
31
0.0000000000
11
299.4376685998
21
126.5136958995
31
0.0000000000
11
299.2510946825
21
126.5556179280
31
0.0000000000
0
SPLINE
5
45D
100
AcDbEntity
8
0
100
AcDbSpline
62
7
6
CONTINUOUS
70
0
71
3
72
8
73
4
74
2
42
0.0000001000
43
0.0000001000
44
0.0000000001
40
0.0000000000
40
0.0000000000
40
0.0000000000
40
0.0000000000
40
1.0000000000
40
1.0000000000
40
1.0000000000
40
1.0000000000
10
300.2775795181
20
125.5257906739
30
0.0000000000
10
300.2528650535
20
125.5707993998
30
0.0000000000
10
300.2281291610
20
125.6157963585
30
0.0000000000
10
300.2033715587
20
125.6607813709
30
0.0000000000
11
300.2775795181
21
125.5257906739
31
0.0000000000
11
300.2033715587
21
125.6607813709
31
0.0000000000
0
SPLINE
5
45E
100
AcDbEntity
8
0
100
AcDbSpline
62
7
6
CONTINUOUS
70
0
71
3
72
8
73
4
74
2
42
0.0000001000
43
0.0000001000
44
0.0000000001
40
0.0000000000
40
0.0000000000
40
0.0000000000
40
0.0000000000
40
1.0000000000
40
1.0000000000
40
1.0000000000
40
1.0000000000
10
300.2033715587
20
125.6607813709
30
0.0000000000
10
300.1963274924
20
125.6735805671
30
0.0000000000
10
300.1892816686
20
125.6863787962
30
0.0000000000
10
300.1822340808
20
125.6991760537
30
0.0000000000
11
300.2033715587
21
125.6607813709
31
0.0000000000
11
300.1822340808
21
125.6991760537
31
0.0000000000
0
SPLINE
5
45F
100
AcDbEntity
8
0
100
AcDbSpline
62
7
6
CONTINUOUS
70
0
71
3
72
19
73
15
74
13
42
0.0000001000
43
0.0000001000
44
0.0000000001
40
0.0000000000
40
0.0000000000
40
0.0000000000
40
0.0000000000
40
0.0695545595
40
0.1390737843
40
0.2079514972
40
0.2774272900
40
0.3487758681
40
0.4235076644
40
0.5020656993
40
0.5845780538
40
0.6732309091
40
0.7825132262
40
0.9264437759
40
1.0000000000
40
1.0000000000
40
1.0000000000
40
1.0000000000
10
303.3002665371
20
94.3007242268
30
0.0000000000
10
303.3023363851
20
94.2903192244
30
0.0000000000
10
303.3064383274
20
94.2695071940
30
0.0000000000
10
303.3124323261
20
94.2383605810
30
0.0000000000
10
303.3182536335
20
94.2071933945
30
0.0000000000
10
303.3239216382
20
94.1757143374
30
0.0000000000
10
303.3295008740
20
94.1433128986
30
0.0000000000
10
303.3350132864
20
94.1094955300
30
0.0000000000
10
303.3404375210
20
94.0739402377
30
0.0000000000
10
303.3457459230
20
94.0362217798
30
0.0000000000
10
303.3511810470
20
93.9937917322
30
0.0000000000
10
303.3570388239
20
93.9419762063
30
0.0000000000
10
303.3617501572
20
93.8923552470
30
0.0000000000
10
303.3644103578
20
93.8592888922
30
0.0000000000
10
303.3652584444
20
93.8481016066
30
0.0000000000
11
303.3002665371
21
94.3007242268
31
0.0000000000
11
303.3064160386
21
94.2694973543
31
0.0000000000
11
303.3124221879
21
94.2382590585
31
0.0000000000
11
303.3182034401
21
94.2072769207
31
0.0000000000
11
303.3238317435
21
94.1759885334
31
0.0000000000
11
303.3293664728
21
94.1438135795
31
0.0000000000
11
303.3348634429
21
94.1100626817
31
0.0000000000
11
303.3402796539
21
94.0745266547
31
0.0000000000
11
303.3455407354
21
94.0371391828
31
0.0000000000
11
303.3506920851
21
93.9969020145
31
0.0000000000
11
303.3563169995
21
93.9472142240
31
0.0000000000
11
303.3625565528
21
93.8816510359
31
0.0000000000
11
303.3652584444
21
93.8481016066
31
0.0000000000
0
SPLINE
5
460
100
AcDbEntity
8
0
100
AcDbSpline
62
7
6
CONTINUOUS
70
0
71
3
72
13
73
9
74
7
42
0.0000001000
43
0.0000001000
44
0.0000000001
40
0.0000000000
40
0.0000000000
40
0.0000000000
40
0.0000000000
40
0.1428361980
40
0.3803201419
40
0.5869937907
40
0.7696816786
40
0.9276464958
40
1.0000000000
40
1.0000000000
40
1.0000000000
40
1.0000000000
10
303.3652584444
20
93.8481016066
30
0.0000000000
10
303.3660673229
20
93.8374315242
30
0.0000000000
10
303.3680960374
20
93.8090115566
30
0.0000000000
10
303.3707396864
20
93.7651152922
30
0.0000000000
10
303.3729966762
20
93.7182085954
30
0.0000000000
10
303.3745566640
20
93.6772348341
30
0.0000000000
10
303.3754714984
20
93.6463077559
30
0.0000000000
10
303.3758844195
20
93.6290583740
30
0.0000000000
10
303.3760045606
20
93.6236393435
30
0.0000000000
11
303.3652584444
21
93.8481016066
31
0.0000000000
11
303.3675466117
21
93.8160812921
31
0.0000000000
11
303.3707637652
21
93.7628051222
31
0.0000000000
11
303.3730007222
21
93.7164102468
31
0.0000000000
11
303.3745649034
21
93.6753819491
31
0.0000000000
11
303.3756153876
21
93.6398957655
31
0.0000000000
11
303.3760045606
21
93.6236393435
31
0.0000000000
0
SPLINE
5
461
100
AcDbEntity
8
0
100
AcDbSpline
62
7
6
CONTINUOUS
70
0
71
3
72
11
73
7
74
5
42
0.0000001000
43
0.0000001000
44
0.0000000001
40
0.0000000000
40
0.0000000000
40
0.0000000000
40
0.0000000000
40
0.1539351268
40
0.4471359352
40
0.7283881110
40
1.0000000000
40
1.0000000000
40
1.0000000000
40
1.0000000000
10
303.3760045606
20
93.6236393435
30
0.0000000000
10
303.3761192191
20
93.6184676068
30
0.0000000000
10
303.3764269326
20
93.6034446837
30
0.0000000000
10
303.3768085679
20
93.5789699738
30
0.0000000000
10
303.3770722948
20
93.5505389631
30
0.0000000000
10
303.3771299876
20
93.5319599121
30
0.0000000000
10
303.3771299929
20
93.5228323663
30
0.0000000000
11
303.3760045606
21
93.6236393435
31
0.0000000000
11
303.3763223876
21
93.6081235843
31
0.0000000000
11
303.3767830674
21
93.5785680926
31
0.0000000000
11
303.3770456315
21
93.5502148297
31
0.0000000000
11
303.3771299929
21
93.5228323663
31
0.0000000000
0
SPLINE
5
462
100
AcDbEntity
8
0
100
AcDbSpline
62
7
6
CONTINUOUS
70
0
71
3
72
108
73
104
74
102
42
0.0000001000
43
0.0000001000
44
0.0000000001
40
0.0000000000
40
0.0000000000
40
0.0000000000
40
0.0000000000
40
0.0023314014
40
0.0057394537
40
0.0090996573
40
0.0124350578
40
0.0157650890
40
0.0191079091
40
0.0224777801
40
0.0258863388
40
0.0293449852
40
0.0328618193
40
0.0364480398
40
0.0401113953
40
0.0438603733
40
0.0477010337
40
0.0516400747
40
0.0556823253
40
0.0598331553
40
0.0640965154
40
0.0684767464
40
0.0729771720
40
0.0776013029
40
0.0823520474
40
0.0872321822
40
0.0922443490
40
0.0973907559
40
0.1026737486
40
0.1080952061
40
0.1136570405
40
0.1193610114
40
0.1252086152
40
0.1312014318
40
0.1373410813
40
0.1436294579
40
0.1500684993
40
0.1566599564
40
0.1634055530
40
0.1703070780
40
0.1773661789
40
0.1845844670
40
0.1919635987
40
0.1995051660
40
0.2072106833
40
0.2150816822
40
0.2231197121
40
0.2313262187
40
0.2397026355
40
0.2482504115
40
0.2569709833
40
0.2658657034
40
0.2749359222
40
0.2841829993
40
0.2936082817
40
0.3032130391
40
0.3129985351
40
0.3229660349
40
0.3331168067
40
0.3434520469
40
0.3539729251
40
0.3646806094
40
0.3755762679
40
0.3866610496
40
0.3979360312
40
0.4094022760
40
0.4210608428
40
0.4329127863
40
0.4449591437
40
0.4572008770
40
0.4696389277
40
0.4822742302
40
0.4951078852
40
0.5081414346
40
0.5213764639
40
0.5348145299
40
0.5484572087
40
0.5623060971
40
0.5763628127
40
0.5906289929
40
0.6051062497
40
0.6197961564
40
0.6347003004
40
0.6498202857
40
0.6651577326
40
0.6807142771
40
0.6964915605
40
0.7124911625
40
0.7287146480
40
0.7451635937
40
0.7618395874
40
0.7787442272
40
0.7958791218
40
0.8132458793
40
0.8308460365
40
0.8486811026
40
0.8667525920
40
0.8850620235
40
0.9036109198
40
0.9224008066
40
0.9414332122
40
0.9607096170
40
0.9802314177
40
1.0000000000
40
1.0000000000
40
1.0000000000
40
1.0000000000
10
303.3002643185
20
94.3007355311
30
0.0000000000
10
303.2992354617
20
94.3059074795
30
0.0000000000
10
303.2966938302
20
94.3186380555
30
0.0000000000
10
303.2926379191
20
94.3388165727
30
0.0000000000
10
303.2881143873
20
94.3612174038
30
0.0000000000
10
303.2836183711
20
94.3834437541
30
0.0000000000
10
303.2791331454
20
94.4056321722
30
0.0000000000
10
303.2746441729
20
94.4278993753
30
0.0000000000
10
303.2701392724
20
94.4503445519
30
0.0000000000
10
303.2656079986
20
94.4730516296
30
0.0000000000
10
303.2610421544
20
94.4960907530
30
0.0000000000
10
303.2564330356
20
94.5195309354
30
0.0000000000
10
303.2517731287
20
94.5434329891
30
0.0000000000
10
303.2470545566
20
94.5678585310
30
0.0000000000
10
303.2422713206
20
94.5928576875
30
0.0000000000
10
303.2374178303
20
94.6184782303
30
0.0000000000
10
303.2324898081
20
94.6447597450
30
0.0000000000
10
303.2274832081
20
94.6717402622
30
0.0000000000
10
303.2223950110
20
94.6994516727
30
0.0000000000
10
303.2172222756
20
94.7279247512
30
0.0000000000
10
303.2119628780
20
94.7571857101
30
0.0000000000
10
303.2066146899
20
94.7872597447
30
0.0000000000
10
303.2011762083
20
94.8181688647
30
0.0000000000
10
303.1956459292
20
94.8499338200
30
0.0000000000
10
303.1900227633
20
94.8825734339
30
0.0000000000
10
303.1843057026
20
94.9161049342
30
0.0000000000
10
303.1784939194
20
94.9505445884
30
0.0000000000
10
303.1725867920
20
94.9859069473
30
0.0000000000
10
303.1665837122
20
95.0222058847
30
0.0000000000
10
303.1604843094
20
95.0594539688
30
0.0000000000
10
303.1542882149
20
95.0976628906
30
0.0000000000
10
303.1479951719
20
95.1368435979
30
0.0000000000
10
303.1416049367
20
95.1770067210
30
0.0000000000
10
303.1351170248
20
95.2181637633
30
0.0000000000
10
303.1285308443
20
95.2603270312
30
0.0000000000
10
303.1218457252
20
95.3035091183
30
0.0000000000
10
303.1150609981
20
95.3477222292
30
0.0000000000
10
303.1081760636
20
95.3929782392
30
0.0000000000
10
303.1011903377
20
95.4392887901
30
0.0000000000
10
303.0941032211
20
95.4866652647
30
0.0000000000
10
303.0869141684
20
95.5351187518
30
0.0000000000
10
303.0796226533
20
95.5846602166
30
0.0000000000
10
303.0722281302
20
95.6353004008
30
0.0000000000
10
303.0647300922
20
95.6870497670
30
0.0000000000
10
303.0571280520
20
95.7399186845
30
0.0000000000
10
303.0494215247
20
95.7939173662
30
0.0000000000
10
303.0416100247
20
95.8490558019
30
0.0000000000
10
303.0336931046
20
95.9053437579
30
0.0000000000
10
303.0256703236
20
95.9627909815
30
0.0000000000
10
303.0175412399
20
96.0214070357
30
0.0000000000
10
303.0093054253
20
96.0812012606
30
0.0000000000
10
303.0009624794
20
96.1421828250
30
0.0000000000
10
302.9925120069
20
96.2043608868
30
0.0000000000
10
302.9839536175
20
96.2677444210
30
0.0000000000
10
302.9752869318
20
96.3323421853
30
0.0000000000
10
302.9665115997
20
96.3981627553
30
0.0000000000
10
302.9576272721
20
96.4652147038
30
0.0000000000
10
302.9486336168
20
96.5335064531
30
0.0000000000
10
302.9395303021
20
96.6030462083
30
0.0000000000
10
302.9303170295
20
96.6738419506
30
0.0000000000
10
302.9209935080
20
96.7459015985
30
0.0000000000
10
302.9115594569
20
96.8192330251
30
0.0000000000
10
302.9020146088
20
96.8938438972
30
0.0000000000
10
302.8923587081
20
96.9697416446
30
0.0000000000
10
302.8825915299
20
97.0469334957
30
0.0000000000
10
302.8727128549
20
97.1254266300
30
0.0000000000
10
302.8627224741
20
97.2052281691
30
0.0000000000
10
302.8526201987
20
97.2863450168
30
0.0000000000
10
302.8424058496
20
97.3687838205
30
0.0000000000
10
302.8320792812
20
97.4525509980
30
0.0000000000
10
302.8216403098
20
97.5376532785
30
0.0000000000
10
302.8110885885
20
97.6240987398
30
0.0000000000
10
302.8004236019
20
97.7118969232
30
0.0000000000
10
302.7896446985
20
97.8010583925
30
0.0000000000
10
302.7787512204
20
97.8915937893
30
0.0000000000
10
302.7677425203
20
97.9835137825
30
0.0000000000
10
302.7566179456
20
98.0768291789
30
0.0000000000
10
302.7453768384
20
98.1715509247
30
0.0000000000
10
302.7340185521
20
98.2676900022
30
0.0000000000
10
302.7225424434
20
98.3652572930
30
0.0000000000
10
302.7109478822
20
98.4642635669
30
0.0000000000
10
302.6992342551
20
98.5647195774
30
0.0000000000
10
302.6874009472
20
98.6666361851
30
0.0000000000
10
302.6754473425
20
98.7700243612
30
0.0000000000
10
302.6633728277
20
98.8748951623
30
0.0000000000
10
302.6511768109
20
98.9812595548
30
0.0000000000
10
302.6388587022
20
99.0891283440
30
0.0000000000
10
302.6264179407
20
99.1985121910
30
0.0000000000
10
302.6138539750
20
99.3094217768
30
0.0000000000
10
302.6011662567
20
99.4218678582
30
0.0000000000
10
302.5883542415
20
99.5358612654
30
0.0000000000
10
302.5754173913
20
99.6514128758
30
0.0000000000
10
302.5623551966
20
99.7685334296
30
0.0000000000
10
302.5491671547
20
99.8872334422
30
0.0000000000
10
302.5358527968
20
100.0075232190
30
0.0000000000
10
302.5224116704
20
100.1294130265
30
0.0000000000
10
302.5088433317
20
100.2529131626
30
0.0000000000
10
302.4951473460
20
100.3780339521
30
0.0000000000
10
302.4813232875
20
100.5047857420
30
0.0000000000
10
302.4673707563
20
100.6331787865
30
0.0000000000
10
302.4532893804
20
100.7632230482
30
0.0000000000
10
302.4390788105
20
100.8949281688
30
0.0000000000
10
302.4295786551
20
100.9832880452
30
0.0000000000
10
302.4248069561
20
101.0277463578
30
0.0000000000
11
303.3002643185
21
94.3007355311
31
0.0000000000
11
303.2971678757
21
94.3162494080
31
0.0000000000
11
303.2926131751
21
94.3389219884
31
0.0000000000
11
303.2881020354
21
94.3612721425
31
0.0000000000
11
303.2836164627
21
94.3834557585
31
0.0000000000
11
303.2791408130
21
94.4056042103
31
0.0000000000
11
303.2746594177
21
94.4278400316
31
0.0000000000
11
303.2701606129
21
94.4502595817
31
0.0000000000
11
303.2656351352
21
94.4729415170
31
0.0000000000
11
303.2610733969
21
94.4959627688
31
0.0000000000
11
303.2564695500
21
94.5193781629
31
0.0000000000
11
303.2518132582
21
94.5432630541
31
0.0000000000
11
303.2470984491
21
94.5676697575
31
0.0000000000
11
303.2423178298
21
94.5926554450
31
0.0000000000
11
303.2374670960
21
94.6182610754
31
0.0000000000
11
303.2325409583
21
94.6445318145
31
0.0000000000
11
303.2275363799
21
94.6715003371
31
0.0000000000
11
303.2224495426
21
94.6992028955
31
0.0000000000
11
303.2172782737
21
94.7276662440
31
0.0000000000
11
303.2120198618
21
94.7569197244
31
0.0000000000
11
303.2066727086
21
94.7869858602
31
0.0000000000
11
303.2012349601
21
94.8178884129
31
0.0000000000
11
303.1957053534
21
94.8496470926
31
0.0000000000
11
303.1900827581
21
94.8822807249
31
0.0000000000
11
303.1843660918
21
94.9158072089
31
0.0000000000
11
303.1785547313
21
94.9502415370
31
0.0000000000
11
303.1726478290
21
94.9855996086
31
0.0000000000
11
303.1666449863
21
95.0218941851
31
0.0000000000
11
303.1605457398
21
95.0591382464
31
0.0000000000
11
303.1543497054
21
95.0973437340
31
0.0000000000
11
303.1480567484
21
95.1365208209
31
0.0000000000
11
303.1416665994
21
95.1766802326
31
0.0000000000
11
303.1351788750
21
95.2178329532
31
0.0000000000
11
303.1285928922
21
95.2599918022
31
0.0000000000
11
303.1219078971
21
95.3031698878
31
0.0000000000
11
303.1151232897
21
95.3473790596
31
0.0000000000
11
303.1082384958
21
95.3926309857
31
0.0000000000
11
303.1012528565
21
95.4389377686
31
0.0000000000
11
303.0941658190
21
95.4863105585
31
0.0000000000
11
303.0869768638
21
95.5347602608
31
0.0000000000
11
303.0796854198
21
95.5842980854
31
0.0000000000
11
303.0722909460
21
95.6349348042
31
0.0000000000
11
303.0647929678
21
95.6866806683
31
0.0000000000
11
303.0571909938
21
95.7395460443
31
0.0000000000
11
303.0494844982
21
95.7935414177
31
0.0000000000
11
303.0416730316
21
95.8486765738
31
0.0000000000
11
303.0337561548
21
95.9049612166
31
0.0000000000
11
303.0257334128
21
95.9624051559
31
0.0000000000
11
303.0176043436
21
96.0210181149
31
0.0000000000
11
303.0093685481
21
96.0808092504
31
0.0000000000
11
303.0010256290
21
96.1417877064
31
0.0000000000
11
302.9925751805
21
96.2039626886
31
0.0000000000
11
302.9840167931
21
96.2673433170
31
0.0000000000
11
302.9753501127
21
96.3319381911
31
0.0000000000
11
302.9665747910
21
96.3977558679
31
0.0000000000
11
302.9576904783
21
96.4648049174
31
0.0000000000
11
302.9486968164
21
96.5330939294
31
0.0000000000
11
302.9395934921
21
96.6026310084
31
0.0000000000
11
302.9303802137
21
96.6734240788
31
0.0000000000
11
302.9210566913
21
96.7454810559
31
0.0000000000
11
302.9116226355
21
96.8188098553
31
0.0000000000
11
302.9020777631
21
96.8934182629
31
0.0000000000
11
302.8924218394
21
96.9693135768
31
0.0000000000
11
302.8826546408
21
97.0465030055
31
0.0000000000
11
302.8727759487
21
97.1249937275
31
0.0000000000
11
302.8627855486
21
97.2047928943
31
0.0000000000
11
302.8526832331
21
97.2859075386
31
0.0000000000
11
302.8424688432
21
97.3683441861
31
0.0000000000
11
302.8321422359
21
97.4521092239
31
0.0000000000
11
302.8217032751
21
97.5372089924
31
0.0000000000
11
302.8111516896
21
97.6236509519
31
0.0000000000
11
302.8004868501
21
97.7114455356
31
0.0000000000
11
302.7897080875
21
97.8006034704
31
0.0000000000
11
302.7788147587
21
97.8911352896
31
0.0000000000
11
302.7678062161
21
97.9830516592
31
0.0000000000
11
302.7566818069
21
98.0763633866
31
0.0000000000
11
302.7454408737
21
98.1710814188
31
0.0000000000
11
302.7340827536
21
98.2672168400
31
0.0000000000
11
302.7226068013
21
98.3647805621
31
0.0000000000
11
302.7110124034
21
98.4637832358
31
0.0000000000
11
302.6992989460
21
98.5642356092
31
0.0000000000
11
302.6874658143
21
98.6661485439
31
0.0000000000
11
302.6755123921
21
98.7695330120
31
0.0000000000
11
302.6634380630
21
98.8744000936
31
0.0000000000
11
302.6512422134
21
98.9807609051
31
0.0000000000
11
302.6389242705
21
99.0886261465
31
0.0000000000
11
302.6264836798
21
99.1980064202
31
0.0000000000
11
302.6139198897
21
99.3089124080
31
0.0000000000
11
302.6012323517
21
99.4213548679
31
0.0000000000
11
302.5884205211
21
99.5353446311
31
0.0000000000
11
302.5754838574
21
99.6508925986
31
0.0000000000
11
302.5624218281
21
99.7680096702
31
0.0000000000
11
302.5492339465
21
99.8867062622
31
0.0000000000
11
302.5359197521
21
100.0069926075
31
0.0000000000
11
302.5224787922
21
100.1288789739
31
0.0000000000
11
302.5089106228
21
100.2523756605
31
0.0000000000
11
302.4952148088
21
100.3774929936
31
0.0000000000
11
302.4813909247
21
100.5042413225
31
0.0000000000
11
302.4674385555
21
100.6326310125
31
0.0000000000
11
302.4533573189
21
100.7626721091
31
0.0000000000
11
302.4391468885
21
100.8943740887
31
0.0000000000
11
302.4248069561
21
101.0277463578
31
0.0000000000
0
SPLINE
5
463
100
AcDbEntity
8
0
100
AcDbSpline
62
7
6
CONTINUOUS
70
0
71
3
72
58
73
54
74
52
42
0.0000001000
43
0.0000001000
44
0.0000000001
40
0.0000000000
40
0.0000000000
40
0.0000000000
40
0.0000000000
40
0.0146930154
40
0.0295692209
40
0.0446297541
40
0.0598757876
40
0.0753084938
40
0.0909290039
40
0.1067383714
40
0.1227376357
40
0.1389278299
40
0.1553099793
40
0.1718851009
40
0.1886542023
40
0.2056182810
40
0.2227783177
40
0.2401352107
40
0.2576897945
40
0.2754428854
40
0.2933952806
40
0.3115477573
40
0.3299010716
40
0.3484559574
40
0.3672131248
40
0.3861732570
40
0.4053369219
40
0.4247045365
40
0.4442764744
40
0.4640530723
40
0.4840346285
40
0.5042214011
40
0.5246135906
40
0.5452106634
40
0.5660124372
40
0.5870190912
40
0.6082307583
40
0.6296475155
40
0.6512693926
40
0.6730963712
40
0.6951283837
40
0.7173653108
40
0.7398069801
40
0.7624531636
40
0.7853035763
40
0.8083578738
40
0.8316156296
40
0.8550758983
40
0.8787372062
40
0.9025979623
40
0.9266564735
40
0.9509109407
40
0.9753594563
40
1.0000000000
40
1.0000000000
40
1.0000000000
40
1.0000000000
10
302.4248069561
20
101.0277463578
30
0.0000000000
10
302.4199753558
20
101.0727627754
30
0.0000000000
10
302.4102688632
20
101.1633586866
30
0.0000000000
10
302.3956688600
20
101.3001033226
30
0.0000000000
10
302.3809383632
20
101.4385477686
30
0.0000000000
10
302.3660769745
20
101.5787027553
30
0.0000000000
10
302.3510843154
20
101.7205789961
30
0.0000000000
10
302.3359600455
20
101.8641868385
30
0.0000000000
10
302.3207038510
20
102.0095362219
30
0.0000000000
10
302.3053154693
20
102.1566367855
30
0.0000000000
10
302.2897946599
20
102.3054980846
30
0.0000000000
10
302.2741412042
20
102.4561296063
30
0.0000000000
10
302.2583549062
20
102.6085407615
30
0.0000000000
10
302.2424355941
20
102.7627408767
30
0.0000000000
10
302.2263831211
20
102.9187391690
30
0.0000000000
10
302.2101973957
20
103.0765445217
30
0.0000000000
10
302.1938783560
20
103.2361653168
30
0.0000000000
10
302.1774259926
20
103.3976094314
30
0.0000000000
10
302.1608403458
20
103.5608844352
30
0.0000000000
10
302.1441214880
20
103.7259977226
30
0.0000000000
10
302.1272695252
20
103.8929565059
30
0.0000000000
10
302.1102845987
20
104.0617678035
30
0.0000000000
10
302.0931668861
20
104.2324384298
30
0.0000000000
10
302.0759166018
20
104.4049749770
30
0.0000000000
10
302.0585340337
20
104.5793835303
30
0.0000000000
10
302.0410195447
20
104.7556692746
30
0.0000000000
10
302.0233735655
20
104.9338364420
30
0.0000000000
10
302.0055966209
20
105.1138885583
30
0.0000000000
10
301.9876892843
20
105.2958287859
30
0.0000000000
10
301.9696521805
20
105.4796599348
30
0.0000000000
10
301.9514859908
20
105.6653843982
30
0.0000000000
10
301.9331916614
20
105.8530020197
30
0.0000000000
10
301.9147702840
20
106.0425112926
30
0.0000000000
10
301.8962229675
20
106.2339106464
30
0.0000000000
10
301.8775506440
20
106.4272005556
30
0.0000000000
10
301.8587541609
20
106.6223822897
30
0.0000000000
10
301.8398343821
20
106.8194566560
30
0.0000000000
10
301.8207922416
20
107.0184240008
30
0.0000000000
10
301.8016287315
20
107.2192842272
30
0.0000000000
10
301.7823449065
20
107.4220367832
30
0.0000000000
10
301.7629418847
20
107.6266806449
30
0.0000000000
10
301.7434208498
20
107.8332142985
30
0.0000000000
10
301.7237830531
20
108.0416357228
30
0.0000000000
10
301.7040298166
20
108.2519423705
30
0.0000000000
10
301.6841625359
20
108.4641310863
30
0.0000000000
10
301.6641828321
20
108.6781966922
30
0.0000000000
10
301.6440925933
20
108.8941305394
30
0.0000000000
10
301.6238939908
20
109.1119204014
30
0.0000000000
10
301.6035894434
20
109.3315517594
30
0.0000000000
10
301.5831814772
20
109.5530090984
30
0.0000000000
10
301.5626727290
20
109.7762759323
30
0.0000000000
10
301.5420659475
20
110.0013347733
30
0.0000000000
10
301.5283180281
20
110.1519714292
30
0.0000000000
10
301.5214282712
20
110.2275854005
30
0.0000000000
11
302.4248069561
21
101.0277463578
31
0.0000000000
11
302.4103372282
21
101.1627982985
31
0.0000000000
11
302.3957374092
21
101.2995394256
31
0.0000000000
11
302.3810071095
21
101.4379802555
31
0.0000000000
11
302.3661459199
21
101.5781316281
31
0.0000000000
11
302.3511534457
21
101.7200043797
31
0.0000000000
11
302.3360293321
21
101.8636089720
31
0.0000000000
11
302.3207732922
21
102.0089551475
31
0.0000000000
11
302.3053850647
21
102.1560525241
31
0.0000000000
11
302.2898644089
21
102.3049106595
31
0.0000000000
11
302.2742111058
21
102.4555390436
31
0.0000000000
11
302.2584249594
21
102.6079470900
31
0.0000000000
11
302.2425057971
21
102.7621441280
31
0.0000000000
11
302.2264534714
21
102.9181393944
31
0.0000000000
11
302.2102678630
21
103.0759419741
31
0.0000000000
11
302.1939489202
21
103.2355601908
31
0.0000000000
11
302.1774966505
21
103.3970017843
31
0.0000000000
11
302.1609110937
21
103.5602743250
31
0.0000000000
11
302.1441923217
21
103.7253852111
31
0.0000000000
11
302.1273404404
21
103.8923416580
31
0.0000000000
11
302.1103555907
21
104.0611506881
31
0.0000000000
11
302.0932379497
21
104.2318191194
31
0.0000000000
11
302.0759877319
21
104.4043535544
31
0.0000000000
11
302.0586051923
21
104.5787603497
31
0.0000000000
11
302.0410906816
21
104.7550447974
31
0.0000000000
11
302.0234446719
21
104.9332108022
31
0.0000000000
11
302.0056676881
21
105.1132618692
31
0.0000000000
11
301.9877603040
21
105.2952011658
31
0.0000000000
11
301.9697231436
21
105.4790315069
31
0.0000000000
11
301.9515568831
21
105.6647553402
31
0.0000000000
11
301.9332622668
21
105.8523745825
31
0.0000000000
11
301.9148407108
21
106.0418843997
31
0.0000000000
11
301.8962933279
21
106.2332831894
31
0.0000000000
11
301.8776209234
21
106.4265726766
31
0.0000000000
11
301.8588243387
21
106.6217541593
31
0.0000000000
11
301.8399044492
21
106.8188284205
31
0.0000000000
11
301.8208621873
21
107.0177958070
31
0.0000000000
11
301.8016985451
21
107.2186562275
31
0.0000000000
11
301.7824145768
21
107.4214091359
31
0.0000000000
11
301.7630114001
21
107.6260535140
31
0.0000000000
11
301.7434901983
21
107.8325878540
31
0.0000000000
11
301.7238522226
21
108.0410101408
31
0.0000000000
11
301.7040987935
21
108.2513178334
31
0.0000000000
11
301.6842313037
21
108.4635078463
31
0.0000000000
11
301.6642512343
21
108.6775763407
31
0.0000000000
11
301.6441604740
21
108.8935146971
31
0.0000000000
11
301.6239613265
21
109.1113094288
31
0.0000000000
11
301.6036562119
21
109.3309459711
31
0.0000000000
11
301.5832476567
21
109.5524088191
31
0.0000000000
11
301.5627382968
21
109.7756814970
31
0.0000000000
11
301.5421308803
21
110.0007465276
31
0.0000000000
11
301.5214282712
21
110.2275854005
31
0.0000000000
0
SPLINE
5
464
100
AcDbEntity
8
0
100
AcDbSpline
62
7
6
CONTINUOUS
70
0
71
3
72
12
73
8
74
6
42
0.0000001000
43
0.0000001000
44
0.0000000001
40
0.0000000000
40
0.0000000000
40
0.0000000000
40
0.0000000000
40
0.1191771112
40
0.3755434897
40
0.6091856394
40
0.8214874235
40
1.0000000000
40
1.0000000000
40
1.0000000000
40
1.0000000000
10
300.6909195494
20
95.1776465447
30
0.0000000000
10
300.7521204304
20
95.3817104027
30
0.0000000000
10
300.9435093548
20
96.0251827323
30
0.0000000000
10
301.2458678701
20
97.0713839077
30
0.0000000000
10
301.5788179317
20
98.2819267609
30
0.0000000000
10
301.8577671263
20
99.3628815573
30
0.0000000000
10
302.0182252848
20
100.0428589828
30
0.0000000000
10
302.0870542205
20
100.3544925275
30
0.0000000000
11
300.6909195494
21
95.1776465447
31
0.0000000000
11
300.8730903410
21
95.7902655292
31
0.0000000000
11
301.2541617565
21
97.1112524863
31
0.0000000000
11
301.5855843969
21
98.3196130221
31
0.0000000000
11
301.8686938061
21
99.4223942710
31
0.0000000000
11
302.0870542205
21
100.3544925275
31
0.0000000000
0
SPLINE
5
465
100
AcDbEntity
8
0
100
AcDbSpline
62
7
6
CONTINUOUS
70
0
71
3
72
8
73
4
74
2
42
0.0000001000
43
0.0000001000
44
0.0000000001
40
0.0000000000
40
0.0000000000
40
0.0000000000
40
0.0000000000
40
1.0000000000
40
1.0000000000
40
1.0000000000
40
1.0000000000
10
302.0870542205
20
100.3544925275
30
0.0000000000
10
302.0914289004
20
100.3742995603
30
0.0000000000
10
302.0957855484
20
100.3941107935
30
0.0000000000
10
302.1001237748
20
100.4139263081
30
0.0000000000
11
302.0870542205
21
100.3544925275
31
0.0000000000
11
302.1001237748
21
100.4139263081
31
0.0000000000
0
SPLINE
5
466
100
AcDbEntity
8
0
100
AcDbSpline
62
7
6
CONTINUOUS
70
0
71
3
72
8
73
4
74
2
42
0.0000001000
43
0.0000001000
44
0.0000000001
40
0.0000000000
40
0.0000000000
40
0.0000000000
40
0.0000000000
40
1.0000000000
40
1.0000000000
40
1.0000000000
40
1.0000000000
10
302.1001237748
20
100.4139263081
30
0.0000000000
10
302.1515349069
20
100.6487545384
30
0.0000000000
10
302.2003589281
20
100.8841840705
30
0.0000000000
10
302.2433116049
20
101.1206737828
30
0.0000000000
11
302.1001237748
21
100.4139263081
31
0.0000000000
11
302.2433116049
21
101.1206737828
31
0.0000000000
0
SPLINE
5
467
100
AcDbEntity
8
0
100
AcDbSpline
62
7
6
CONTINUOUS
70
0
71
3
72
8
73
4
74
2
42
0.0000001000
43
0.0000001000
44
0.0000000001
40
0.0000000000
40
0.0000000000
40
0.0000000000
40
0.0000000000
40
1.0000000000
40
1.0000000000
40
1.0000000000
40
1.0000000000
10
301.3771366476
20
109.1033270296
30
0.0000000000
10
301.3771363284
20
109.1084783111
30
0.0000000000
10
301.3771447965
20
109.1136295892
30
0.0000000000
10
301.3771620509
20
109.1187808279
30
0.0000000000
11
301.3771366476
21
109.1033270296
31
0.0000000000
11
301.3771620509
21
109.1187808279
31
0.0000000000
0
SPLINE
5
468
100
AcDbEntity
8
0
100
AcDbSpline
62
7
6
CONTINUOUS
70
0
71
3
72
8
73
4
74
2
42
0.0000001000
43
0.0000001000
44
0.0000000001
40
0.0000000000
40
0.0000000000
40
0.0000000000
40
0.0000000000
40
1.0000000000
40
1.0000000000
40
1.0000000000
40
1.0000000000
10
301.3771620509
20
109.1187808279
30
0.0000000000
10
301.3772322077
20
109.1397257810
30
0.0000000000
10
301.3774476237
20
109.1606700803
30
0.0000000000
10
301.3778082333
20
109.1816112895
30
0.0000000000
11
301.3771620509
21
109.1187808279
31
0.0000000000
11
301.3778082333
21
109.1816112895
31
0.0000000000
0
SPLINE
5
469
100
AcDbEntity
8
0
100
AcDbSpline
62
7
6
CONTINUOUS
70
0
71
3
72
8
73
4
74
2
42
0.0000001000
43
0.0000001000
44
0.0000000001
40
0.0000000000
40
0.0000000000
40
0.0000000000
40
0.0000000000
40
1.0000000000
40
1.0000000000
40
1.0000000000
40
1.0000000000
10
301.3778082333
20
109.1816112895
30
0.0000000000
10
301.3781080683
20
109.1990232200
30
0.0000000000
10
301.3785082811
20
109.2164330143
30
0.0000000000
10
301.3790088338
20
109.2338392720
30
0.0000000000
11
301.3778082333
21
109.1816112895
31
0.0000000000
11
301.3790088338
21
109.2338392720
31
0.0000000000
0
SPLINE
5
46A
100
AcDbEntity
8
0
100
AcDbSpline
62
7
6
CONTINUOUS
70
0
71
3
72
8
73
4
74
2
42
0.0000001000
43
0.0000001000
44
0.0000000001
40
0.0000000000
40
0.0000000000
40
0.0000000000
40
0.0000000000
40
1.0000000000
40
1.0000000000
40
1.0000000000
40
1.0000000000
10
301.3790088338
20
109.2338392720
30
0.0000000000
10
301.3798703597
20
109.2637980410
30
0.0000000000
10
301.3810291279
20
109.2937463334
30
0.0000000000
10
301.3824839630
20
109.3236789822
30
0.0000000000
11
301.3790088338
21
109.2338392720
31
0.0000000000
11
301.3824839630
21
109.3236789822
31
0.0000000000
0
SPLINE
5
46B
100
AcDbEntity
8
0
100
AcDbSpline
62
7
6
CONTINUOUS
70
0
71
3
72
8
73
4
74
2
42
0.0000001000
43
0.0000001000
44
0.0000000001
40
0.0000000000
40
0.0000000000
40
0.0000000000
40
0.0000000000
40
1.0000000000
40
1.0000000000
40
1.0000000000
40
1.0000000000
10
301.3824839630
20
109.3236789822
30
0.0000000000
10
301.3848136107
20
109.3716105504
30
0.0000000000
10
301.3879024349
20
109.4195020051
30
0.0000000000
10
301.3917456087
20
109.4673321305
30
0.0000000000
11
301.3824839630
21
109.3236789822
31
0.0000000000
11
301.3917456087
21
109.4673321305
31
0.0000000000
0
SPLINE
5
46C
100
AcDbEntity
8
0
100
AcDbSpline
62
7
6
CONTINUOUS
70
0
71
3
72
8
73
4
74
2
42
0.0000001000
43
0.0000001000
44
0.0000000001
40
0.0000000000
40
0.0000000000
40
0.0000000000
40
0.0000000000
40
1.0000000000
40
1.0000000000
40
1.0000000000
40
1.0000000000
10
301.3917456087
20
109.4673321305
30
0.0000000000
10
301.3955131429
20
109.5142208841
30
0.0000000000
10
301.4000056253
20
109.5610506987
30
0.0000000000
10
301.4052185087
20
109.6078015862
30
0.0000000000
11
301.3917456087
21
109.4673321305
31
0.0000000000
11
301.4052185087
21
109.6078015862
31
0.0000000000
0
SPLINE
5
46D
100
AcDbEntity
8
0
100
AcDbSpline
62
7
6
CONTINUOUS
70
0
71
3
72
8
73
4
74
2
42
0.0000001000
43
0.0000001000
44
0.0000000001
40
0.0000000000
40
0.0000000000
40
0.0000000000
40
0.0000000000
40
1.0000000000
40
1.0000000000
40
1.0000000000
40
1.0000000000
10
301.4052185087
20
109.6078015862
30
0.0000000000
10
301.4096741196
20
109.6477610003
30
0.0000000000
10
301.4146560298
20
109.6876627531
30
0.0000000000
10
301.4201613997
20
109.7274943634
30
0.0000000000
11
301.4052185087
21
109.6078015862
31
0.0000000000
11
301.4201613997
21
109.7274943634
31
0.0000000000
0
SPLINE
5
46E
100
AcDbEntity
8
0
100
AcDbSpline
62
7
6
CONTINUOUS
70
0
71
3
72
9
73
5
74
3
42
0.0000001000
43
0.0000001000
44
0.0000000001
40
0.0000000000
40
0.0000000000
40
0.0000000000
40
0.0000000000
40
0.3799577935
40
1.0000000000
40
1.0000000000
40
1.0000000000
40
1.0000000000
10
301.4201613997
20
109.7274943634
30
0.0000000000
10
301.4230949913
20
109.7487190368
30
0.0000000000
10
301.4312070046
20
109.8045272278
30
0.0000000000
10
301.4403455716
20
109.8601843836
30
0.0000000000
10
301.4464028941
20
109.8946259702
30
0.0000000000
11
301.4201613997
21
109.7274943634
31
0.0000000000
11
301.4294076381
21
109.7911067463
31
0.0000000000
11
301.4464028941
21
109.8946259702
31
0.0000000000
0
SPLINE
5
46F
100
AcDbEntity
8
0
100
AcDbSpline
62
7
6
CONTINUOUS
70
0
71
3
72
8
73
4
74
2
42
0.0000001000
43
0.0000001000
44
0.0000000001
40
0.0000000000
40
0.0000000000
40
0.0000000000
40
0.0000000000
40
1.0000000000
40
1.0000000000
40
1.0000000000
40
1.0000000000
10
301.4464028941
20
109.8946259702
30
0.0000000000
10
301.4513402895
20
109.9226997154
30
0.0000000000
10
301.4565374850
20
109.9507281487
30
0.0000000000
10
301.4619925116
20
109.9787057821
30
0.0000000000
11
301.4464028941
21
109.8946259702
31
0.0000000000
11
301.4619925116
21
109.9787057821
31
0.0000000000
0
SPLINE
5
470
100
AcDbEntity
8
0
100
AcDbSpline
62
7
6
CONTINUOUS
70
0
71
3
72
8
73
4
74
2
42
0.0000001000
43
0.0000001000
44
0.0000000001
40
0.0000000000
40
0.0000000000
40
0.0000000000
40
0.0000000000
40
1.0000000000
40
1.0000000000
40
1.0000000000
40
1.0000000000
10
301.4619925116
20
109.9787057821
30
0.0000000000
10
301.4751828778
20
110.0463562735
30
0.0000000000
10
301.4898807371
20
110.1137097470
30
0.0000000000
10
301.5060582528
20
110.1806886162
30
0.0000000000
11
301.4619925116
21
109.9787057821
31
0.0000000000
11
301.5060582528
21
110.1806886162
31
0.0000000000
0
SPLINE
5
471
100
AcDbEntity
8
0
100
AcDbSpline
62
7
6
CONTINUOUS
70
0
71
3
72
8
73
4
74
2
42
0.0000001000
43
0.0000001000
44
0.0000000001
40
0.0000000000
40
0.0000000000
40
0.0000000000
40
0.0000000000
40
1.0000000000
40
1.0000000000
40
1.0000000000
40
1.0000000000
10
301.5060582528
20
110.1806886162
30
0.0000000000
10
301.5104024564
20
110.1986746811
30
0.0000000000
10
301.5148533584
20
110.2166337332
30
0.0000000000
10
301.5194104196
20
110.2345642702
30
0.0000000000
11
301.5060582528
21
110.1806886162
31
0.0000000000
11
301.5194104196
21
110.2345642702
31
0.0000000000
0
SPLINE
5
472
100
AcDbEntity
8
0
100
AcDbSpline
62
7
6
CONTINUOUS
70
0
71
3
72
8
73
4
74
2
42
0.0000001000
43
0.0000001000
44
0.0000000001
40
0.0000000000
40
0.0000000000
40
0.0000000000
40
0.0000000000
40
1.0000000000
40
1.0000000000
40
1.0000000000
40
1.0000000000
10
301.5194104196
20
110.2345642702
30
0.0000000000
10
301.5271331638
20
110.2649507281
30
0.0000000000
10
301.5351607898
20
110.2952552924
30
0.0000000000
10
301.5434906743
20
110.3254706513
30
0.0000000000
11
301.5194104196
21
110.2345642702
31
0.0000000000
11
301.5434906743
21
110.3254706513
31
0.0000000000
0
SPLINE
5
473
100
AcDbEntity
8
0
100
AcDbSpline
62
7
6
CONTINUOUS
70
0
71
3
72
31
73
27
74
25
42
0.0000001000
43
0.0000001000
44
0.0000000001
40
0.0000000000
40
0.0000000000
40
0.0000000000
40
0.0000000000
40
0.0245560934
40
0.0591184261
40
0.0947819204
40
0.1314558502
40
0.1689520264
40
0.2069771879
40
0.2451176942
40
0.2825508500
40
0.3175437435
40
0.3486858437
40
0.3756956093
40
0.3988693357
40
0.4183368128
40
0.4342373449
40
0.4473083243
40
0.4602189771
40
0.4777274538
40
0.5043131261
40
0.5438087216
40
0.6001236284
40
0.6776519130
40
0.7814730166
40
0.9175236924
40
1.0000000000
40
1.0000000000
40
1.0000000000
40
1.0000000000
10
303.3760861069
20
93.4289612866
30
0.0000000000
10
303.3759185664
20
93.4216274862
30
0.0000000000
10
303.3754635719
20
93.4039726501
30
0.0000000000
10
303.3745238463
20
93.3756734574
30
0.0000000000
10
303.3731554469
20
93.3437678295
30
0.0000000000
10
303.3713843697
20
93.3110040499
30
0.0000000000
10
303.3691370041
20
93.2775620117
30
0.0000000000
10
303.3663270368
20
93.2437223339
30
0.0000000000
10
303.3628619563
20
93.2099614102
30
0.0000000000
10
303.3586808834
20
93.1771930379
30
0.0000000000
10
303.3537895472
20
93.1466360866
30
0.0000000000
10
303.3482571169
20
93.1193561354
30
0.0000000000
10
303.3421210729
20
93.0958313724
30
0.0000000000
10
303.3353489922
20
93.0761314330
30
0.0000000000
10
303.3277644885
20
93.0602959298
30
0.0000000000
10
303.3191926060
20
93.0485270184
30
0.0000000000
10
303.3083335719
20
93.0412060072
30
0.0000000000
10
303.2945013661
20
93.0419929249
30
0.0000000000
10
303.2802906041
20
93.0523224479
30
0.0000000000
10
303.2646892029
20
93.0719035427
30
0.0000000000
10
303.2466303176
20
93.1038467499
30
0.0000000000
10
303.2256252877
20
93.1512102817
30
0.0000000000
10
303.2011242838
20
93.2178925263
30
0.0000000000
10
303.1725791195
20
93.3083329503
30
0.0000000000
10
303.1467732003
20
93.4011224027
30
0.0000000000
10
303.1304553858
20
93.4643334892
30
0.0000000000
10
303.1244346112
20
93.4882253924
30
0.0000000000
11
303.3760861069
21
93.4289612866
31
0.0000000000
11
303.3755179568
21
93.4069615114
31
0.0000000000
11
303.3744856697
21
93.3760040799
31
0.0000000000
11
303.3731099308
21
93.3440722074
31
0.0000000000
11
303.3713268029
21
93.3112535695
31
0.0000000000
11
303.3690602628
21
93.2777261565
31
0.0000000000
11
303.3662201503
21
93.2437667000
31
0.0000000000
11
303.3626996294
21
93.2097670979
31
0.0000000000
11
303.3584064858
21
93.1764954746
31
0.0000000000
11
303.3533823910
21
93.1455400271
31
0.0000000000
11
303.3477439263
21
93.1182060844
31
0.0000000000
11
303.3415150446
21
93.0948151867
31
0.0000000000
11
303.3345814954
21
93.0752385567
31
0.0000000000
11
303.3267943984
21
93.0596261304
31
0.0000000000
11
303.3179735536
21
93.0484343844
31
0.0000000000
11
303.3079054883
21
93.0424464206
31
0.0000000000
11
303.2963405195
21
93.0428035116
31
0.0000000000
11
303.2829889993
21
93.0510464140
31
0.0000000000
11
303.2675169315
21
93.0691652608
31
0.0000000000
11
303.2495411742
21
93.0996568254
31
0.0000000000
11
303.2286244995
21
93.1455875829
31
0.0000000000
11
303.2042708891
21
93.2106602427
31
0.0000000000
11
303.1759215524
21
93.2992803266
31
0.0000000000
11
303.1429403036
21
93.4166630538
31
0.0000000000
11
303.1244346112
21
93.4882253924
31
0.0000000000
0
SPLINE
5
474
100
AcDbEntity
8
0
100
AcDbSpline
62
7
6
CONTINUOUS
70
0
71
3
72
9
73
5
74
3
42
0.0000001000
43
0.0000001000
44
0.0000000001
40
0.0000000000
40
0.0000000000
40
0.0000000000
40
0.0000000000
40
0.2921504289
40
1.0000000000
40
1.0000000000
40
1.0000000000
40
1.0000000000
10
303.1244346112
20
93.4882253924
30
0.0000000000
10
303.1175910144
20
93.5153824551
30
0.0000000000
10
303.0947758839
20
93.6084921825
30
0.0000000000
10
303.0735366487
20
93.7019754900
30
0.0000000000
10
303.0590076759
20
93.7682571647
30
0.0000000000
11
303.1244346112
21
93.4882253924
31
0.0000000000
11
303.1043946197
21
93.5698184345
31
0.0000000000
11
303.0590076759
21
93.7682571647
31
0.0000000000
0
SPLINE
5
475
100
AcDbEntity
8
0
100
AcDbSpline
62
7
6
CONTINUOUS
70
0
71
3
72
16
73
12
74
10
42
0.0000001000
43
0.0000001000
44
0.0000000001
40
0.0000000000
40
0.0000000000
40
0.0000000000
40
0.0000000000
40
0.0391260495
40
0.0890546238
40
0.1523819164
40
0.2318483299
40
0.3290436970
40
0.4480984162
40
0.5948497596
40
0.7761006722
40
1.0000000000
40
1.0000000000
40
1.0000000000
40
1.0000000000
10
303.0590076759
20
93.7682571647
30
0.0000000000
10
303.0403690986
20
93.8532869972
30
0.0000000000
10
302.9998383430
20
94.0472333883
30
0.0000000000
10
302.9353131514
20
94.3800645161
30
0.0000000000
10
302.8588945111
20
94.8019759288
30
0.0000000000
10
302.7692766923
20
95.3283356047
30
0.0000000000
10
302.6647095165
20
95.9778880740
30
0.0000000000
10
302.5426033442
20
96.7762138498
30
0.0000000000
10
302.3990695111
20
97.7604188029
30
0.0000000000
10
302.2295314775
20
98.9765315749
30
0.0000000000
10
302.1102464769
20
99.8699845703
30
0.0000000000
10
302.0455192616
20
100.3638908395
30
0.0000000000
11
303.0590076759
21
93.7682571647
31
0.0000000000
11
303.0052993676
21
94.0238164860
31
0.0000000000
11
302.9415793297
21
94.3509098615
31
0.0000000000
11
302.8659427199
21
94.7667574640
31
0.0000000000
11
302.7766055440
21
95.2895682905
31
0.0000000000
11
302.6731916770
21
95.9299910485
31
0.0000000000
11
302.5527366082
21
96.7154242480
31
0.0000000000
11
302.4110570771
21
97.6845970141
31
0.0000000000
11
302.2436678375
21
98.8826973078
31
0.0000000000
11
302.0455192616
21
100.3638908395
31
0.0000000000
0
SPLINE
5
476
100
AcDbEntity
8
0
100
AcDbSpline
62
7
6
CONTINUOUS
70
0
71
3
72
12
73
8
74
6
42
0.0000001000
43
0.0000001000
44
0.0000000001
40
0.0000000000
40
0.0000000000
40
0.0000000000
40
0.0000000000
40
0.0052602932
40
0.3027838079
40
0.6050397131
40
0.9149574002
40
1.0000000000
40
1.0000000000
40
1.0000000000
40
1.0000000000
10
303.3771299929
20
93.5228323663
30
0.0000000000
10
303.3771299930
20
93.5226677562
30
0.0000000000
10
303.3771294680
20
93.5131927544
30
0.0000000000
10
303.3770673726
20
93.4942592736
30
0.0000000000
10
303.3767858544
20
93.4657933784
30
0.0000000000
10
303.3764160544
20
93.4439783946
30
0.0000000000
10
303.3761468870
20
93.4316218299
30
0.0000000000
10
303.3760861069
20
93.4289612866
30
0.0000000000
11
303.3771299929
21
93.5228323663
31
0.0000000000
11
303.3771299655
21
93.5223385359
31
0.0000000000
11
303.3770373322
21
93.4944075613
31
0.0000000000
11
303.3767552544
21
93.4660335645
31
0.0000000000
11
303.3762600339
21
93.4369431022
31
0.0000000000
11
303.3760861069
21
93.4289612866
31
0.0000000000
0
SPLINE
5
477
100
AcDbEntity
8
0
100
AcDbSpline
62
7
6
CONTINUOUS
70
0
71
3
72
9
73
5
74
3
42
0.0000001000
43
0.0000001000
44
0.0000000001
40
0.0000000000
40
0.0000000000
40
0.0000000000
40
0.0000000000
40
0.5423394785
40
1.0000000000
40
1.0000000000
40
1.0000000000
40
1.0000000000
10
287.6176683124
20
119.0969163238
30
0.0000000000
10
287.5737544931
20
119.0481685386
30
0.0000000000
10
287.5036064383
20
118.9462322033
30
0.0000000000
10
287.4772874393
20
118.8245047347
30
0.0000000000
10
287.4771572656
20
118.7687741574
30
0.0000000000
11
287.6176683124
21
119.0969163238
31
0.0000000000
11
287.5105579069
21
118.9317791330
31
0.0000000000
11
287.4771572656
21
118.7687741574
31
0.0000000000
0
SPLINE
5
478
100
AcDbEntity
8
0
100
AcDbSpline
62
7
6
CONTINUOUS
70
0
71
3
72
8
73
4
74
2
42
0.0000001000
43
0.0000001000
44
0.0000000001
40
0.0000000000
40
0.0000000000
40
0.0000000000
40
0.0000000000
40
1.0000000000
40
1.0000000000
40
1.0000000000
40
1.0000000000
10
290.4164733442
20
125.4009880284
30
0.0000000000
10
290.4342867750
20
125.4435957360
30
0.0000000000
10
290.4544332298
20
125.4852731700
30
0.0000000000
10
290.4766808449
20
125.5257902372
30
0.0000000000
11
290.4164733442
21
125.4009880284
31
0.0000000000
11
290.4766808449
21
125.5257902372
31
0.0000000000
0
SPLINE
5
479
100
AcDbEntity
8
0
100
AcDbSpline
62
7
6
CONTINUOUS
70
0
71
3
72
10
73
6
74
4
42
0.0000001000
43
0.0000001000
44
0.0000000001
40
0.0000000000
40
0.0000000000
40
0.0000000000
40
0.0000000000
40
0.3164634441
40
0.6501524312
40
1.0000000000
40
1.0000000000
40
1.0000000000
40
1.0000000000
10
306.2399109874
20
169.7990939772
30
0.0000000000
10
306.2690714156
20
169.8460929082
30
0.0000000000
10
306.3196502493
20
169.9487490448
30
0.0000000000
10
306.3666068754
20
170.1180407261
30
0.0000000000
10
306.3771299929
20
170.2378288786
30
0.0000000000
10
306.3771299929
20
170.2989739394
30
0.0000000000
11
306.2399109874
21
169.7990939772
31
0.0000000000
11
306.3135598032
21
169.9477846721
31
0.0000000000
11
306.3607067404
21
170.1162754366
31
0.0000000000
11
306.3771299929
21
170.2989739394
31
0.0000000000
0
SPLINE
5
47A
100
AcDbEntity
8
0
100
AcDbSpline
62
7
6
CONTINUOUS
70
0
71
3
72
14
73
10
74
8
42
0.0000001000
43
0.0000001000
44
0.0000000001
40
0.0000000000
40
0.0000000000
40
0.0000000000
40
0.0000000000
40
0.2117719380
40
0.4340788138
40
0.6108685822
40
0.7299497870
40
0.7923282976
40
0.8850152860
40
1.0000000000
40
1.0000000000
40
1.0000000000
40
1.0000000000
10
302.2433044854
20
101.1206707589
30
0.0000000000
10
302.2448421899
20
101.1291677273
30
0.0000000000
10
302.2479131635
20
101.1466008217
30
0.0000000000
10
302.2519848264
20
101.1706518662
30
0.0000000000
10
302.2553907374
20
101.1927247632
30
0.0000000000
10
302.2577058641
20
101.2044057709
30
0.0000000000
10
302.2602570748
20
101.2209813272
30
0.0000000000
10
302.2640433300
20
101.2015445846
30
0.0000000000
10
302.2643717085
20
101.1956776272
30
0.0000000000
10
302.2650473054
20
101.1910509264
30
0.0000000000
11
302.2433044854
21
101.1206707589
31
0.0000000000
11
302.2477963422
21
101.1460961848
31
0.0000000000
11
302.2522767596
21
101.1728433466
31
0.0000000000
11
302.2557583718
21
101.1941275367
31
0.0000000000
11
302.2582945172
21
101.2084314837
31
0.0000000000
11
302.2600933269
21
101.2158255487
31
0.0000000000
11
302.2632161187
21
101.2049581865
31
0.0000000000
11
302.2650473054
21
101.1910509264
31
0.0000000000
0
SPLINE
5
47B
100
AcDbEntity
8
0
100
AcDbSpline
62
7
6
CONTINUOUS
70
0
71
3
72
14
73
10
74
8
42
0.0000001000
43
0.0000001000
44
0.0000000001
40
0.0000000000
40
0.0000000000
40
0.0000000000
40
0.0000000000
40
0.1673844743
40
0.3196883127
40
0.4644269711
40
0.6055420166
40
0.7424154474
40
0.8738361670
40
1.0000000000
40
1.0000000000
40
1.0000000000
40
1.0000000000
10
304.4589910697
20
171.3419412977
30
0.0000000000
10
304.1547015986
20
171.5590931232
30
0.0000000000
10
303.5785520508
20
171.9812149565
30
0.0000000000
10
302.7836463974
20
172.6494203902
30
0.0000000000
10
302.1042446263
20
173.3572937164
30
0.0000000000
10
301.5542438928
20
174.1297180625
30
0.0000000000
10
301.1579281722
20
174.9593018421
30
0.0000000000
10
300.9269682439
20
175.8142369724
30
0.0000000000
10
300.8771334636
20
176.3907495478
30
0.0000000000
10
300.8771299929
20
176.6725170779
30
0.0000000000
11
304.4589910697
21
171.3419412977
31
0.0000000000
11
303.5593170102
21
172.0115005290
31
0.0000000000
11
302.7832703484
21
172.6741110688
31
0.0000000000
11
302.1169116969
21
173.3786607241
31
0.0000000000
11
301.5725835945
21
174.1517275664
31
0.0000000000
11
301.1793593560
21
174.9802013514
31
0.0000000000
11
300.9501772736
21
175.8303766122
31
0.0000000000
11
300.8771299929
21
176.6725170779
31
0.0000000000
0
SPLINE
5
47C
100
AcDbEntity
8
0
100
AcDbSpline
62
7
6
CONTINUOUS
70
0
71
3
72
14
73
10
74
8
42
0.0000001000
43
0.0000001000
44
0.0000000001
40
0.0000000000
40
0.0000000000
40
0.0000000000
40
0.0000000000
40
0.1673844743
40
0.3196883127
40
0.4644269711
40
0.6055420166
40
0.7424154474
40
0.8738361670
40
1.0000000000
40
1.0000000000
40
1.0000000000
40
1.0000000000
10
286.2952689162
20
171.3419412977
30
0.0000000000
10
286.5995583872
20
171.5590931232
30
0.0000000000
10
287.1757079350
20
171.9812149565
30
0.0000000000
10
287.9706135885
20
172.6494203902
30
0.0000000000
10
288.6500153595
20
173.3572937164
30
0.0000000000
10
289.2000160930
20
174.1297180625
30
0.0000000000
10
289.5963318136
20
174.9593018421
30
0.0000000000
10
289.8272917419
20
175.8142369724
30
0.0000000000
10
289.8771265223
20
176.3907495478
30
0.0000000000
10
289.8771299929
20
176.6725170779
30
0.0000000000
11
286.2952689162
21
171.3419412977
31
0.0000000000
11
287.1949429756
21
172.0115005290
31
0.0000000000
11
287.9709896374
21
172.6741110688
31
0.0000000000
11
288.6373482889
21
173.3786607241
31
0.0000000000
11
289.1816763913
21
174.1517275664
31
0.0000000000
11
289.5749006298
21
174.9802013514
31
0.0000000000
11
289.8040827122
21
175.8303766122
31
0.0000000000
11
289.8771299929
21
176.6725170779
31
0.0000000000
0
SPLINE
5
47D
100
AcDbEntity
8
0
100
AcDbSpline
62
7
6
CONTINUOUS
70
0
71
3
72
10
73
6
74
4
42
0.0000001000
43
0.0000001000
44
0.0000000001
40
0.0000000000
40
0.0000000000
40
0.0000000000
40
0.0000000000
40
0.3164634441
40
0.6501524312
40
1.0000000000
40
1.0000000000
40
1.0000000000
40
1.0000000000
10
284.5143489984
20
169.7990939772
30
0.0000000000
10
284.4851885702
20
169.8460929082
30
0.0000000000
10
284.4346097365
20
169.9487490448
30
0.0000000000
10
284.3876531104
20
170.1180407261
30
0.0000000000
10
284.3771299929
20
170.2378288786
30
0.0000000000
10
284.3771299929
20
170.2989739394
30
0.0000000000
11
284.5143489984
21
169.7990939772
31
0.0000000000
11
284.4407001826
21
169.9477846721
31
0.0000000000
11
284.3935532454
21
170.1162754366
31
0.0000000000
11
284.3771299929
21
170.2989739394
31
0.0000000000
0
ENDSEC
0
SECTION
2
OBJECTS
0
DICTIONARY
5
47E
100
AcDbDictionary
3
ACAD_GROUP
350
47F
3
ACAD_MLINESTYLE
350
480
0
DICTIONARY
5
47F
102
{ACAD_REACTORS
330
47E
102
}
100
AcDbDictionary
0
DICTIONARY
5
480
102
{ACAD_REACTORS
330
47E
102
}
100
AcDbDictionary
3
STANDARD
350
481
0
MLINESTYLE
5
481
102
{ACAD_REACTORS
330
480
102
}
100
AcDbMlineStyle
2
STANDARD
70
0
3

62
256
51
90.0
52
90.0
71
2
49
0.5
62
256
6
BYLAYER
49
-0.5
62
256
6
BYLAYER
0
ENDSEC
0
EOF
