999
DXF file: C:\Aktuell-Internet\CAD-Daten\2vmvk10.dxf
999
Pro/ENGINEER 2001400 by Parametric Technology Corporation
0
SECTION
2
HEADER
9
$ACADVER
1
AC1014
9
$EXTMAX
10
420.0000000000
20
297.0000000000
9
$EXTMIN
10
0.0000000000
20
0.0000000000
9
$LIMMIN
10
0.0000000000
20
0.0000000000
9
$LIMMAX
10
420.0000000000
20
297.0000000000
9
$VIEWCTR
10
210.0000000000
20
148.5000000000
9
$VIEWSIZE
40
297.0000000000
9
$CLAYER
8
0
9
$LTSCALE
40
23.1000000000
9
$CELTYPE
6
BYLAYER
9
$DIMSCALE
40
1
9
$DIMASZ
40
3.5000000000
9
$DIMEXO
40
2.6250000000
9
$DIMDLI
40
15.9600000000
9
$DIMEXE
40
7.5600000000
9
$DIMCEN
40
3.7800000000
9
$DIMLFAC
40
1.0000000000
9
$DIMTXT
40
3.5000000000
9
$DIMTOL
70
1
9
$DIMTFAC
40
0.6000000000
9
$DIMTP
40
0.0050000000
9
$DIMTM
40
0.0050000000
9
$HANDSEED
5
2E2
0
ENDSEC
0
SECTION
2
CLASSES
0
ENDSEC
0
SECTION
2
TABLES
0
TABLE
2
VPORT
5
8
100
AcDbSymbolTable
70
2
0
VPORT
5
1F4
100
AcDbSymbolTableRecord
100
AcDbViewportTableRecord
2
*ACTIVE
70
0
10
0.0
20
0.0
11
1.0
21
1.0
12
210.0000000000
22
148.5000000000
13
0.0
23
0.0
14
1.0
24
1.0
15
0.0
25
0.0
16
0.0
26
0.0
36
1.0
17
0.0
27
0.0
37
0.0
40
297.0000000000
41
1.4141414141
42
50.0
43
0.0
44
0.0
50
0.0
51
0.0
71
0
72
100
73
1
74
1
75
0
76
0
77
0
78
0
0
ENDTAB
0
TABLE
2
LTYPE
5
5
100
AcDbSymbolTable
70
6
0
LTYPE
5
14
100
AcDbSymbolTableRecord
100
AcDbLinetypeTableRecord
2
BYBLOCK
70
0
3

72
65
73
0
40
0.0
0
LTYPE
5
15
100
AcDbSymbolTableRecord
100
AcDbLinetypeTableRecord
2
BYLAYER
70
0
3

72
65
73
0
40
0.0
0
LTYPE
5
16
100
AcDbSymbolTableRecord
100
AcDbLinetypeTableRecord
2
CONTINUOUS
70
64
3
Solid line
72
65
73
0
40
0
0
LTYPE
5
1F5
100
AcDbSymbolTableRecord
100
AcDbLinetypeTableRecord
2
CENTER
70
64
3
____ _ ____ _ ____ _ ____ _ ____ _ ____ _ ____
72
65
73
4
40
0.6
49
0.375
74
0
49
-0.075
74
0
49
0.075
74
0
49
-0.075
74
0
0
LTYPE
5
1F6
100
AcDbSymbolTableRecord
100
AcDbLinetypeTableRecord
2
HIDDEN
70
64
3
- - - - - - - - - - - - - - - - - - - -
72
65
73
2
40
0.2
49
0.1
74
0
49
-0.1
74
0
0
LTYPE
5
1F7
100
AcDbSymbolTableRecord
100
AcDbLinetypeTableRecord
2
PHANTOM
70
64
3
_____ _ _ _____ _ _ _____ _ _ _____
72
65
73
6
40
0.8
49
0.45
74
0
49
-0.05
74
0
49
0.1
74
0
49
-0.05
74
0
49
0.1
74
0
49
-0.05
74
0
0
LTYPE
5
1F8
100
AcDbSymbolTableRecord
100
AcDbLinetypeTableRecord
2
DOT
70
64
3
. . . . . . . . . . . . . . . . . . . .
72
65
73
2
40
0.2
49
0.1
74
0
49
-0.1
74
0
0
LTYPE
5
1F9
100
AcDbSymbolTableRecord
100
AcDbLinetypeTableRecord
2
DASHED
70
64
3
- - - - - - - - - - - - - - - - - - - -
72
65
73
2
40
0.2
49
0.1
74
0
49
-0.1
74
0
0
ENDTAB
0
TABLE
2
LAYER
5
2
100
AcDbSymbolTable
70
36
0
LAYER
5
10
100
AcDbSymbolTableRecord
100
AcDbLayerTableRecord
2
0
70
0
62
7
6
CONTINUOUS
0
LAYER
5
1FA
100
AcDbSymbolTableRecord
100
AcDbLayerTableRecord
2
DEFAULT_1
70
0
62
7
6
CENTER
0
LAYER
5
1FB
100
AcDbSymbolTableRecord
100
AcDbLayerTableRecord
2
DEFAULT_2
70
0
62
8
6
HIDDEN
0
LAYER
5
1FC
100
AcDbSymbolTableRecord
100
AcDbLayerTableRecord
2
DEFAULT_3
70
0
62
7
6
PHANTOM
0
LAYER
5
1FD
100
AcDbSymbolTableRecord
100
AcDbLayerTableRecord
2
ZEICHNUNGSBEMASSUNGEN
70
0
62
7
6
CONTINUOUS
0
ENDTAB
0
TABLE
2
STYLE
5
3
100
AcDbSymbolTable
70
1
0
STYLE
5
11
100
AcDbSymbolTableRecord
100
AcDbTextStyleTableRecord
2
STANDARD
70
0
40
0.0
41
1.0
50
0.0
71
0
42
0.0
3
txt
4

0
STYLE
5
1FE
100
AcDbSymbolTableRecord
100
AcDbTextStyleTableRecord
2
TEXTSTYLE_0
70
0
40
0.0
41
0.80
50
0.0
71
0
42
0.2
3
txt
4

0
ENDTAB
0
TABLE
2
VIEW
5
6
100
AcDbSymbolTable
70
0
0
ENDTAB
0
TABLE
2
UCS
5
7
100
AcDbSymbolTable
70
0
0
ENDTAB
0
TABLE
2
APPID
5
9
100
AcDbSymbolTable
70
1
0
APPID
5
1FF
100
AcDbSymbolTableRecord
100
AcDbRegAppTableRecord
2
ACAD
70
0
0
ENDTAB
0
TABLE
2
DIMSTYLE
5
A
100
AcDbSymbolTable
70
1
0
DIMSTYLE
105
200
100
AcDbSymbolTableRecord
100
AcDbDimStyleTableRecord
2
STANDARD
70
0
3

4

5

6

7

40
1.0
41
0.18
42
0.0625
43
0.38
44
0.18
45
0.0
46
0.0
47
0.0050000000
48
0.0050000000
140
3.5000000000
141
0.09
142
0.0
143
25.4
144
1.0000000000
145
0.0
146
0.6000000000
147
0.09
71
1
72
0
73
1
74
1
75
0
76
0
77
0
78
0
170
0
171
2
172
0
173
0
174
0
175
0
176
0
177
0
178
0
270
2
271
3
272
4
273
2
274
2
340
11
275
0
280
0
281
0
282
0
283
1
284
0
285
0
286
0
287
3
288
0
0
ENDTAB
0
TABLE
2
BLOCK_RECORD
5
1
100
AcDbSymbolTable
70
0
0
BLOCK_RECORD
5
1B
100
AcDbSymbolTableRecord
100
AcDbBlockTableRecord
2
*MODEL_SPACE
0
BLOCK_RECORD
5
1C
100
AcDbSymbolTableRecord
100
AcDbBlockTableRecord
2
*PAPER_SPACE
0
ENDTAB
0
ENDSEC
0
SECTION
2
BLOCKS
0
BLOCK
5
1E
100
AcDbEntity
8
0
100
AcDbBlockBegin
2
*MODEL_SPACE
70
0
10
0.0
20
0.0
30
0.0
3
*MODEL_SPACE
1

0
ENDBLK
5
1F
100
AcDbEntity
8
0
100
AcDbBlockEnd
0
BLOCK
5
20
100
AcDbEntity
8
0
100
AcDbBlockBegin
2
*PAPER_SPACE
70
0
10
0.0
20
0.0
30
0.0
3
*PAPER_SPACE
1

0
ENDBLK
5
21
100
AcDbEntity
8
0
100
AcDbBlockEnd
0
ENDSEC
0
SECTION
2
ENTITIES
0
TEXT
5
201
100
AcDbEntity
8
0
100
AcDbText
62
2
6
CONTINUOUS
10
135.3977483486
20
105.1482446634
7
TEXTSTYLE_0
40
5.0000000000
1
RUD
50
90.0000000000
72
5
11
135.3977483486
21
117.5291974222
100
AcDbText
0
TEXT
5
202
100
AcDbEntity
8
0
100
AcDbText
62
2
6
CONTINUOUS
10
141.4897586596
20
131.8854010283
7
TEXTSTYLE_0
40
5.0000000000
1
VMVK 10
50
90.0000000000
72
5
11
141.4897586596
21
159.1473066222
100
AcDbText
0
TEXT
5
203
100
AcDbEntity
8
0
100
AcDbText
62
2
6
CONTINUOUS
10
273.4833153976
20
168.4374628943
7
TEXTSTYLE_0
40
5.0000000000
1
RUD
50
90.0000000000
72
5
11
273.4833153976
21
180.8184156530
100
AcDbText
0
TEXT
5
204
100
AcDbEntity
8
0
100
AcDbText
62
2
6
CONTINUOUS
10
322.2193978855
20
163.6992326524
7
TEXTSTYLE_0
40
5.0000000000
1
VMVK 10
50
90.0000000000
72
5
11
322.2193978855
21
190.9611382462
100
AcDbText
0
LINE
5
205
100
AcDbEntity
8
0
100
AcDbLine
62
7
6
CONTINUOUS
10
0.0000000000
20
0.0000000000
11
0.0000000000
21
297.0000000000
0
LINE
5
206
100
AcDbEntity
8
0
100
AcDbLine
62
7
6
CONTINUOUS
10
0.0000000000
20
0.0000000000
11
420.0000000000
21
0.0000000000
0
LINE
5
207
100
AcDbEntity
8
0
100
AcDbLine
62
7
6
CONTINUOUS
10
0.0000000000
20
297.0000000000
11
420.0000000000
21
297.0000000000
0
LINE
5
208
100
AcDbEntity
8
0
100
AcDbLine
62
7
6
CONTINUOUS
10
420.0000000000
20
0.0000000000
11
420.0000000000
21
297.0000000000
0
LINE
5
209
100
AcDbEntity
8
0
100
AcDbLine
62
7
6
CONTINUOUS
10
99.0780991717
20
118.1890200932
11
106.9399434469
21
96.5887804716
0
LINE
5
20A
100
AcDbEntity
8
DEFAULT_2
100
AcDbLine
62
8
6
HIDDEN
10
112.9295315636
20
103.5229575705
11
103.8593933030
21
128.4429576330
0
LINE
5
20B
100
AcDbEntity
8
0
100
AcDbLine
62
7
6
CONTINUOUS
10
145.6594971202
20
138.5430753848
11
146.0724859225
21
138.5430753848
0
LINE
5
20C
100
AcDbEntity
8
DEFAULT_2
100
AcDbLine
62
8
6
HIDDEN
10
145.6270371580
20
138.6707349552
11
146.0397322258
21
138.6707349552
0
LINE
5
20D
100
AcDbEntity
8
DEFAULT_2
100
AcDbLine
62
8
6
HIDDEN
10
145.5319131572
20
139.0537136665
11
145.9437498474
21
139.0537136665
0
LINE
5
20E
100
AcDbEntity
8
DEFAULT_2
100
AcDbLine
62
8
6
HIDDEN
10
145.5009545291
20
139.1813732704
11
145.9125126288
21
139.1813732704
0
LINE
5
20F
100
AcDbEntity
8
DEFAULT_2
100
AcDbLine
62
8
6
HIDDEN
10
145.4703693393
20
139.3090328297
11
145.8816525804
21
139.3090328297
0
LINE
5
210
100
AcDbEntity
8
DEFAULT_2
100
AcDbLine
62
8
6
HIDDEN
10
145.4401568357
20
139.4366923889
11
145.8511689292
21
139.4366923889
0
LINE
5
211
100
AcDbEntity
8
DEFAULT_2
100
AcDbLine
62
8
6
HIDDEN
10
145.4103162883
20
139.5643519482
11
145.8210609248
21
139.5643519482
0
LINE
5
212
100
AcDbEntity
8
DEFAULT_2
100
AcDbLine
62
8
6
HIDDEN
10
145.3230192247
20
139.9473307153
11
145.7329834323
21
139.9473307153
0
LINE
5
213
100
AcDbEntity
8
DEFAULT_2
100
AcDbLine
62
8
6
HIDDEN
10
145.2390445367
20
140.3303093931
11
145.6482608231
21
140.3303093931
0
LINE
5
214
100
AcDbEntity
8
DEFAULT_2
100
AcDbLine
62
8
6
HIDDEN
10
145.1848982448
20
140.5856285116
11
145.5936337287
21
140.5856285116
0
LINE
5
215
100
AcDbEntity
8
DEFAULT_2
100
AcDbLine
62
8
6
HIDDEN
10
145.1064212078
20
140.9686073682
11
145.5144618503
21
140.9686073682
0
LINE
5
216
100
AcDbEntity
8
DEFAULT_2
100
AcDbLine
62
8
6
HIDDEN
10
145.0809910525
20
141.0962669274
11
145.4888070434
21
141.0962669274
0
LINE
5
217
100
AcDbEntity
8
DEFAULT_2
100
AcDbLine
62
8
6
HIDDEN
10
145.0068787805
20
141.4792456052
11
145.4140414736
21
141.4792456052
0
LINE
5
218
100
AcDbEntity
8
DEFAULT_2
100
AcDbLine
62
8
6
HIDDEN
10
144.9828988338
20
141.6069051644
11
145.3898505943
21
141.6069051644
0
LINE
5
219
100
AcDbEntity
8
DEFAULT_2
100
AcDbLine
62
8
6
HIDDEN
10
144.9131236283
20
141.9898838422
11
145.3194628780
21
141.9898838422
0
LINE
5
21A
100
AcDbEntity
8
DEFAULT_2
100
AcDbLine
62
8
6
HIDDEN
10
144.8905849778
20
142.1175434014
11
145.2967267710
21
142.1175434014
0
LINE
5
21B
100
AcDbEntity
8
DEFAULT_2
100
AcDbLine
62
8
6
HIDDEN
10
144.8040153449
20
142.6281816384
11
145.2094005078
21
142.6281816384
0
LINE
5
21C
100
AcDbEntity
8
DEFAULT_2
100
AcDbLine
62
8
6
HIDDEN
10
144.7832666971
20
142.7558411977
11
145.1884709345
21
142.7558411977
0
LINE
5
21D
100
AcDbEntity
8
DEFAULT_2
100
AcDbLine
62
8
6
HIDDEN
10
144.7231581091
20
143.1388202330
11
145.1278391217
21
143.1388202330
0
LINE
5
21E
100
AcDbEntity
8
DEFAULT_2
100
AcDbLine
62
8
6
HIDDEN
10
144.7038328828
20
143.2664797923
11
145.1083459640
21
143.2664797923
0
LINE
5
21F
100
AcDbEntity
8
DEFAULT_2
100
AcDbLine
62
8
6
HIDDEN
10
144.6662462134
20
143.5217989108
11
145.0704330766
21
143.5217989108
0
LINE
5
220
100
AcDbEntity
8
DEFAULT_2
100
AcDbLine
62
8
6
HIDDEN
10
144.6479839203
20
143.6494584700
11
145.0520124741
21
143.6494584700
0
LINE
5
221
100
AcDbEntity
8
DEFAULT_2
100
AcDbLine
62
8
6
HIDDEN
10
144.6300751025
20
143.7771180293
11
145.0339485319
21
143.7771180293
0
LINE
5
222
100
AcDbEntity
8
DEFAULT_2
100
AcDbLine
62
8
6
HIDDEN
10
144.6125193565
20
143.9047775885
11
145.0162408359
21
143.9047775885
0
LINE
5
223
100
AcDbEntity
8
DEFAULT_2
100
AcDbLine
62
8
6
HIDDEN
10
144.5953162873
20
144.0324371478
11
144.9988889806
21
144.0324371478
0
LINE
5
224
100
AcDbEntity
8
DEFAULT_2
100
AcDbLine
62
8
6
HIDDEN
10
144.5458193191
20
144.4154158255
11
144.9489645360
21
144.4154158255
0
LINE
5
225
100
AcDbEntity
8
0
100
AcDbLine
62
7
6
CONTINUOUS
10
144.5300231775
20
144.5430753848
11
144.9330321637
21
144.5430753848
0
LINE
5
226
100
AcDbEntity
8
0
100
AcDbLine
62
7
6
CONTINUOUS
10
144.2648113492
20
147.4479230306
11
144.6655467999
21
147.4479230306
0
LINE
5
227
100
AcDbEntity
8
DEFAULT_2
100
AcDbLine
62
8
6
HIDDEN
10
144.2572717276
20
147.5755826011
11
144.6579429211
21
147.5755826011
0
LINE
5
228
100
AcDbEntity
8
DEFAULT_2
100
AcDbLine
62
8
6
HIDDEN
10
144.2432267570
20
147.8309017531
11
144.6437783062
21
147.8309017531
0
LINE
5
229
100
AcDbEntity
8
DEFAULT_2
100
AcDbLine
62
8
6
HIDDEN
10
144.2247427451
20
148.2138804755
11
144.6251369446
21
148.2138804755
0
LINE
5
22A
100
AcDbEntity
8
DEFAULT_2
100
AcDbLine
62
8
6
HIDDEN
10
144.2192697826
20
148.3415400348
11
144.6196174159
21
148.3415400348
0
LINE
5
22B
100
AcDbEntity
8
DEFAULT_2
100
AcDbLine
62
8
6
HIDDEN
10
144.2093556899
20
148.5968592427
11
144.6096189979
21
148.5968592427
0
LINE
5
22C
100
AcDbEntity
8
DEFAULT_2
100
AcDbLine
62
8
6
HIDDEN
10
144.2008166758
20
148.8521783612
11
144.6010073830
21
148.8521783612
0
LINE
5
22D
100
AcDbEntity
8
DEFAULT_2
100
AcDbLine
62
8
6
HIDDEN
10
144.1970625854
20
148.9798379205
11
144.5972213828
21
148.9798379205
0
LINE
5
22E
100
AcDbEntity
8
DEFAULT_2
100
AcDbLine
62
8
6
HIDDEN
10
144.1854805201
20
149.4904761575
11
144.5855409019
21
149.4904761575
0
LINE
5
22F
100
AcDbEntity
8
DEFAULT_2
100
AcDbLine
62
8
6
HIDDEN
10
115.5373812363
20
137.2912110838
11
126.0852282546
21
108.3112395771
0
LINE
5
230
100
AcDbEntity
8
DEFAULT_2
100
AcDbLine
62
8
6
HIDDEN
10
144.1787259530
20
150.1287741325
11
144.5787289620
21
150.1287741325
0
LINE
5
231
100
AcDbEntity
8
DEFAULT_2
100
AcDbLine
62
8
6
HIDDEN
10
144.1784259961
20
150.3840932510
11
144.5784264577
21
150.3840932510
0
LINE
5
232
100
AcDbEntity
8
DEFAULT_2
100
AcDbLine
62
8
6
HIDDEN
10
144.1794984297
20
150.6394123695
11
144.5795079992
21
150.6394123695
0
LINE
5
233
100
AcDbEntity
8
DEFAULT_2
100
AcDbLine
62
8
6
HIDDEN
10
144.1819433466
20
150.8947314880
11
144.5819736819
21
150.8947314880
0
LINE
5
234
100
AcDbEntity
8
DEFAULT_2
100
AcDbLine
62
8
6
HIDDEN
10
144.1836805480
20
151.0223910473
11
144.5837256393
21
151.0223910473
0
LINE
5
235
100
AcDbEntity
8
DEFAULT_2
100
AcDbLine
62
8
6
HIDDEN
10
144.1857609590
20
151.1500506065
11
144.5858237231
21
151.1500506065
0
LINE
5
236
100
AcDbEntity
8
DEFAULT_2
100
AcDbLine
62
8
6
HIDDEN
10
144.1881846247
20
151.2777101658
11
144.5882679796
21
151.2777101658
0
LINE
5
237
100
AcDbEntity
8
DEFAULT_2
100
AcDbLine
62
8
6
HIDDEN
10
144.1909515978
20
151.4053697250
11
144.5910584626
21
151.4053697250
0
LINE
5
238
100
AcDbEntity
8
DEFAULT_2
100
AcDbLine
62
8
6
HIDDEN
10
144.1940619382
20
151.5330292843
11
144.5941952337
21
151.5330292843
0
LINE
5
239
100
AcDbEntity
8
DEFAULT_2
100
AcDbLine
62
8
6
HIDDEN
10
144.1975157134
20
151.6606888435
11
144.5976783621
21
151.6606888435
0
LINE
5
23A
100
AcDbEntity
8
DEFAULT_2
100
AcDbLine
62
8
6
HIDDEN
10
133.3826378111
20
151.8770624782
11
133.3843356808
21
151.8770624782
0
LINE
5
23B
100
AcDbEntity
8
DEFAULT_2
100
AcDbLine
62
8
6
HIDDEN
10
144.2054538754
20
151.9160079620
11
144.6056840060
21
151.9160079620
0
LINE
5
23C
100
AcDbEntity
8
DEFAULT_2
100
AcDbLine
62
8
6
HIDDEN
10
144.2099384477
20
152.0436678789
11
144.6102067115
21
152.0436678789
0
LINE
5
23D
100
AcDbEntity
8
DEFAULT_2
100
AcDbLine
62
8
6
HIDDEN
10
144.2199390115
20
152.2989869974
11
144.6202923384
21
152.2989869974
0
LINE
5
23E
100
AcDbEntity
8
DEFAULT_2
100
AcDbLine
62
8
6
HIDDEN
10
144.2254552326
20
152.4266465566
11
144.6258554950
21
152.4266465566
0
LINE
5
23F
100
AcDbEntity
8
DEFAULT_2
100
AcDbLine
62
8
6
HIDDEN
10
144.2313155705
20
152.5543061159
11
144.6317657086
21
152.5543061159
0
LINE
5
240
100
AcDbEntity
8
DEFAULT_2
100
AcDbLine
62
8
6
HIDDEN
10
144.2375201528
20
152.6819656751
11
144.6380231099
21
152.6819656751
0
LINE
5
241
100
AcDbEntity
8
DEFAULT_2
100
AcDbLine
62
8
6
HIDDEN
10
144.2440691146
20
152.8096252344
11
144.6446278375
21
152.8096252344
0
LINE
5
242
100
AcDbEntity
8
DEFAULT_2
100
AcDbLine
62
8
6
HIDDEN
10
144.2509625985
20
152.9372847936
11
144.6515800378
21
152.9372847936
0
LINE
5
243
100
AcDbEntity
8
DEFAULT_2
100
AcDbLine
62
8
6
HIDDEN
10
144.2582007549
20
153.0649443529
11
144.6588798650
21
153.0649443529
0
LINE
5
244
100
AcDbEntity
8
DEFAULT_2
100
AcDbLine
62
8
6
HIDDEN
10
144.2737117237
20
153.3202634714
11
144.6745230552
21
153.3202634714
0
LINE
5
245
100
AcDbEntity
8
0
100
AcDbLine
62
7
6
CONTINUOUS
10
144.2819848749
20
153.4479230306
11
144.6828667657
21
153.4479230306
0
LINE
5
246
100
AcDbEntity
8
0
100
AcDbLine
62
7
6
CONTINUOUS
10
120.0956401380
20
151.8565568963
11
120.0956401380
21
180.8243009967
0
LINE
5
247
100
AcDbEntity
8
DEFAULT_1
100
AcDbLine
62
2
6
CENTER
10
120.0956401380
20
84.3770624782
11
120.0956401380
21
151.8565568963
0
LINE
5
248
100
AcDbEntity
8
DEFAULT_1
100
AcDbLine
62
2
6
CENTER
10
120.0956401380
20
180.8243009967
11
120.0956401380
21
224.3770624782
0
LINE
5
249
100
AcDbEntity
8
DEFAULT_2
100
AcDbLine
62
8
6
HIDDEN
10
125.6561816790
20
170.1270624782
11
125.6561816790
21
169.6270624782
0
LINE
5
24A
100
AcDbEntity
8
DEFAULT_2
100
AcDbLine
62
8
6
HIDDEN
10
134.3201618480
20
164.1270624782
11
146.2136106618
21
164.1270624782
0
LINE
5
24B
100
AcDbEntity
8
DEFAULT_2
100
AcDbLine
62
8
6
HIDDEN
10
127.5423539910
20
142.3172767213
11
127.5417358188
21
142.3189751353
0
LINE
5
24C
100
AcDbEntity
8
DEFAULT_2
100
AcDbLine
62
8
6
HIDDEN
10
145.9349549729
20
175.6270624782
11
132.2390794943
21
175.6270624782
0
LINE
5
24D
100
AcDbEntity
8
0
100
AcDbLine
62
7
6
CONTINUOUS
10
111.7670330882
20
196.0053470213
11
86.4091420962
21
212.1601052491
0
LINE
5
24E
100
AcDbEntity
8
0
100
AcDbLine
62
7
6
CONTINUOUS
10
144.0383725089
20
114.8223576569
11
132.2163289377
21
94.3707151402
0
LINE
5
24F
100
AcDbEntity
8
DEFAULT_2
100
AcDbLine
62
8
6
HIDDEN
10
112.6888989974
20
195.3770624782
11
118.1340449484
21
195.3770624782
0
LINE
5
250
100
AcDbEntity
8
0
100
AcDbLine
62
7
6
CONTINUOUS
10
90.0877686396
20
221.2776421415
11
113.5287324020
21
216.5319896161
0
LINE
5
251
100
AcDbEntity
8
0
100
AcDbLine
62
7
6
CONTINUOUS
10
272.3734779681
20
215.9003824904
11
276.7146959703
21
218.9044735378
0
LINE
5
252
100
AcDbEntity
8
0
100
AcDbLine
62
7
6
CONTINUOUS
10
278.1583415031
20
87.3770624782
11
283.5874660228
21
87.3770624782
0
LINE
5
253
100
AcDbEntity
8
0
100
AcDbLine
62
7
6
CONTINUOUS
10
307.1667939630
20
87.3770624782
11
312.5959184827
21
87.3770624782
0
LINE
5
254
100
AcDbEntity
8
0
100
AcDbLine
62
7
6
CONTINUOUS
10
267.5543297433
20
210.0026216178
11
267.5541926101
21
210.0023662958
0
LINE
5
255
100
AcDbEntity
8
0
100
AcDbLine
62
7
6
CONTINUOUS
10
295.6271299929
20
107.9342933574
11
295.1271299929
21
107.9342933574
0
LINE
5
256
100
AcDbEntity
8
0
100
AcDbLine
62
7
6
CONTINUOUS
10
301.1271299929
20
118.9430962083
11
289.6271299929
21
118.9430962083
0
LINE
5
257
100
AcDbEntity
8
0
100
AcDbLine
62
7
6
CONTINUOUS
10
265.8771299953
20
202.3349863336
11
265.8771299929
21
169.6486126748
0
LINE
5
258
100
AcDbEntity
8
DEFAULT_2
100
AcDbLine
62
8
6
HIDDEN
10
295.6271299929
20
122.1087436256
11
295.1271299929
21
122.1087436256
0
LINE
5
259
100
AcDbEntity
8
0
100
AcDbLine
62
7
6
CONTINUOUS
10
289.6271299929
20
128.4429576330
11
283.3771299929
21
128.4429576330
0
LINE
5
25A
100
AcDbEntity
8
0
100
AcDbLine
62
7
6
CONTINUOUS
10
301.1271299929
20
128.4429576330
11
307.3771299929
21
128.4429576330
0
LINE
5
25B
100
AcDbEntity
8
DEFAULT_2
100
AcDbLine
62
8
6
HIDDEN
10
295.6271299929
20
130.5136099377
11
295.1271299929
21
130.5136099377
0
LINE
5
25C
100
AcDbEntity
8
0
100
AcDbLine
62
7
6
CONTINUOUS
10
268.8886976771
20
146.8216589191
11
266.0717686181
21
166.8651506556
0
LINE
5
25D
100
AcDbEntity
8
0
100
AcDbLine
62
7
6
CONTINUOUS
10
275.7140555795
20
174.8770624782
11
275.7140555795
21
166.8770624782
0
LINE
5
25E
100
AcDbEntity
8
DEFAULT_2
100
AcDbLine
62
8
6
HIDDEN
10
276.3771299929
20
115.8144719334
11
276.3771299929
21
131.8396597231
0
LINE
5
25F
100
AcDbEntity
8
0
100
AcDbLine
62
7
6
CONTINUOUS
10
299.8083515380
20
130.9430962083
11
290.9459083395
21
130.9430962083
0
LINE
5
260
100
AcDbEntity
8
0
100
AcDbLine
62
7
6
CONTINUOUS
10
277.6271299929
20
170.1270624782
11
277.6271299929
21
169.6270624782
0
LINE
5
261
100
AcDbEntity
8
0
100
AcDbLine
62
7
6
CONTINUOUS
10
283.5874660228
20
118.1890200932
11
283.5874660228
21
87.3770624782
0
LINE
5
262
100
AcDbEntity
8
0
100
AcDbLine
62
7
6
CONTINUOUS
10
289.6271299929
20
161.1270624782
11
289.6271299929
21
157.3770624782
0
LINE
5
263
100
AcDbEntity
8
0
100
AcDbLine
62
7
6
CONTINUOUS
10
289.6271299929
20
90.3771238507
11
289.6271299929
21
138.8105501935
0
LINE
5
264
100
AcDbEntity
8
0
100
AcDbLine
62
7
6
CONTINUOUS
10
289.6271299929
20
178.6270624782
11
289.6271299929
21
198.9813525465
0
LINE
5
265
100
AcDbEntity
8
DEFAULT_2
100
AcDbLine
62
8
6
HIDDEN
10
289.6271299929
20
198.9813525465
11
289.6271299929
21
217.8343772166
0
LINE
5
266
100
AcDbEntity
8
DEFAULT_1
100
AcDbLine
62
2
6
CENTER
10
295.3771299929
20
84.3770624782
11
295.3771299929
21
224.3770624782
0
LINE
5
267
100
AcDbEntity
8
0
100
AcDbLine
62
7
6
CONTINUOUS
10
295.1271299929
20
151.8770624782
11
295.6271299929
21
151.8770624782
0
LINE
5
268
100
AcDbEntity
8
0
100
AcDbLine
62
7
6
CONTINUOUS
10
301.1271299929
20
161.1270624782
11
301.1271299929
21
157.3770624782
0
LINE
5
269
100
AcDbEntity
8
0
100
AcDbLine
62
7
6
CONTINUOUS
10
301.1271299929
20
90.3771238507
11
301.1271299929
21
138.8105501935
0
LINE
5
26A
100
AcDbEntity
8
0
100
AcDbLine
62
7
6
CONTINUOUS
10
301.1271299929
20
178.6270624782
11
301.1271299929
21
198.9813525465
0
LINE
5
26B
100
AcDbEntity
8
DEFAULT_2
100
AcDbLine
62
8
6
HIDDEN
10
301.1271299929
20
198.9813525465
11
301.1271299929
21
217.8343772166
0
LINE
5
26C
100
AcDbEntity
8
0
100
AcDbLine
62
7
6
CONTINUOUS
10
286.6271299929
20
164.1270624782
11
283.1271299929
21
164.1270624782
0
LINE
5
26D
100
AcDbEntity
8
DEFAULT_2
100
AcDbLine
62
8
6
HIDDEN
10
283.1271299929
20
164.1270624782
11
282.7842084132
21
164.1270624782
0
LINE
5
26E
100
AcDbEntity
8
0
100
AcDbLine
62
7
6
CONTINUOUS
10
304.1271299929
20
164.1270624782
11
307.6271299929
21
164.1270624782
0
LINE
5
26F
100
AcDbEntity
8
DEFAULT_2
100
AcDbLine
62
8
6
HIDDEN
10
307.6271299929
20
164.1270624782
11
307.9700515726
21
164.1270624782
0
LINE
5
270
100
AcDbEntity
8
0
100
AcDbLine
62
7
6
CONTINUOUS
10
307.1667939630
20
118.1890200932
11
307.1667939630
21
87.3770624782
0
LINE
5
271
100
AcDbEntity
8
0
100
AcDbLine
62
7
6
CONTINUOUS
10
313.1271299929
20
170.1270624782
11
313.1271299929
21
169.6270624782
0
LINE
5
272
100
AcDbEntity
8
DEFAULT_2
100
AcDbLine
62
8
6
HIDDEN
10
314.3771299929
20
131.8396597231
11
314.3771299929
21
115.8144719334
0
LINE
5
273
100
AcDbEntity
8
0
100
AcDbLine
62
7
6
CONTINUOUS
10
315.0402044064
20
174.8770624782
11
315.0402044064
21
166.8770624782
0
LINE
5
274
100
AcDbEntity
8
DEFAULT_2
100
AcDbLine
62
8
6
HIDDEN
10
317.1271299929
20
132.0137441346
11
317.1271299929
21
116.3237178008
0
LINE
5
275
100
AcDbEntity
8
0
100
AcDbLine
62
7
6
CONTINUOUS
10
307.6271299929
20
175.6270624782
11
304.1271299929
21
175.6270624782
0
LINE
5
276
100
AcDbEntity
8
0
100
AcDbLine
62
7
6
CONTINUOUS
10
283.1271299929
20
175.6270624782
11
286.6271299929
21
175.6270624782
0
LINE
5
277
100
AcDbEntity
8
0
100
AcDbLine
62
7
6
CONTINUOUS
10
324.8771299929
20
202.3348875693
11
324.8771299929
21
169.6486126748
0
LINE
5
278
100
AcDbEntity
8
0
100
AcDbLine
62
7
6
CONTINUOUS
10
321.8655623087
20
146.8216589191
11
324.6824913677
21
166.8651506556
0
LINE
5
279
100
AcDbEntity
8
0
100
AcDbLine
62
7
6
CONTINUOUS
10
301.1271299929
20
180.1270624782
11
289.6271299929
21
180.1270624782
0
LINE
5
27A
100
AcDbEntity
8
0
100
AcDbLine
62
7
6
CONTINUOUS
10
301.1271299929
20
186.1270624782
11
289.6271299929
21
186.1270624782
0
LINE
5
27B
100
AcDbEntity
8
0
100
AcDbLine
62
7
6
CONTINUOUS
10
295.1271299929
20
202.4852389809
11
295.6271299929
21
202.4852389809
0
LINE
5
27C
100
AcDbEntity
8
0
100
AcDbLine
62
7
6
CONTINUOUS
10
323.1999318122
20
210.0026186957
11
323.2000673757
21
210.0023662958
0
LINE
5
27D
100
AcDbEntity
8
0
100
AcDbLine
62
7
6
CONTINUOUS
10
314.0395640155
20
218.9044735378
11
318.3802083628
21
215.9007795387
0
LINE
5
27E
100
AcDbEntity
8
0
100
AcDbLine
62
7
6
CONTINUOUS
10
286.5462307848
20
221.3441468849
11
286.5461356481
21
221.3441391927
0
LINE
5
27F
100
AcDbEntity
8
DEFAULT_2
100
AcDbLine
62
8
6
HIDDEN
10
295.6271299929
20
218.9478591176
11
295.1271299929
21
218.9478591176
0
LINE
5
280
100
AcDbEntity
8
0
100
AcDbLine
62
7
6
CONTINUOUS
10
287.3853387390
20
221.3770624644
11
303.3689212469
21
221.3770624644
0
LINE
5
281
100
AcDbEntity
8
0
100
AcDbLine
62
7
6
CONTINUOUS
10
304.2080292010
20
221.3441468849
11
304.2081243377
21
221.3441391927
0
ARC
5
282
100
AcDbEntity
8
DEFAULT_2
100
AcDbCircle
62
8
6
HIDDEN
10
98.0956401380
20
166.8770624782
40
38.3443872455
100
AcDbArc
50
320.1706371716
51
336.9712287216
0
ARC
5
283
100
AcDbEntity
8
DEFAULT_2
100
AcDbCircle
62
8
6
HIDDEN
10
105.0956401380
20
174.8770624782
40
30.5000000000
100
AcDbArc
50
7.0624335538
51
15.0261137591
0
ARC
5
284
100
AcDbEntity
8
DEFAULT_2
100
AcDbCircle
62
8
6
HIDDEN
10
118.1340449484
20
178.3770624782
40
17.0000000000
100
AcDbArc
50
15.0261137591
51
90.0000000000
0
ARC
5
285
100
AcDbEntity
8
DEFAULT_2
100
AcDbCircle
62
8
6
HIDDEN
10
98.0956401380
20
166.8770624782
40
37.5000000000
100
AcDbArc
50
345.3251502571
51
351.1798521708
0
ARC
5
286
100
AcDbEntity
8
DEFAULT_2
100
AcDbCircle
62
8
6
HIDDEN
10
98.0956401380
20
166.8770624782
40
37.5000000000
100
AcDbArc
50
299.6264839068
51
311.5445457223
0
CIRCLE
5
287
100
AcDbEntity
8
0
100
AcDbCircle
62
7
6
CONTINUOUS
10
138.0956401380
20
183.1270624782
40
3.0000000000
0
ARC
5
288
100
AcDbEntity
8
0
100
AcDbCircle
62
7
6
CONTINUOUS
10
191.6783716468
20
150.3122379424
40
47.1000000000
100
AcDbArc
50
176.1827069226
51
183.4865070150
0
ARC
5
289
100
AcDbEntity
8
0
100
AcDbCircle
62
7
6
CONTINUOUS
10
102.0956401380
20
180.8243009967
40
18.0000000000
100
AcDbArc
50
0.0000000000
51
57.5000000000
0
ARC
5
28A
100
AcDbEntity
8
0
100
AcDbCircle
62
7
6
CONTINUOUS
10
95.0956401380
20
151.8565568963
40
25.0000000000
100
AcDbArc
50
290.3946696523
51
360.0000000000
0
ARC
5
28B
100
AcDbEntity
8
0
100
AcDbCircle
62
7
6
CONTINUOUS
10
106.5956401380
20
120.9251812398
40
8.0000000000
100
AcDbArc
50
110.3946696523
51
200.0000000000
0
ARC
5
28C
100
AcDbEntity
8
0
100
AcDbCircle
62
7
6
CONTINUOUS
10
105.0956401380
20
174.8770624782
40
42.5000000000
100
AcDbArc
50
344.1605622604
51
78.5550866460
0
ARC
5
28D
100
AcDbEntity
8
0
100
AcDbCircle
62
7
6
CONTINUOUS
10
120.0956401380
20
101.3770624782
40
14.0000000000
100
AcDbArc
50
200.0000000000
51
329.9700000000
0
ARC
5
28E
100
AcDbEntity
8
0
100
AcDbCircle
62
7
6
CONTINUOUS
10
191.6783716468
20
150.3122379424
40
47.1000000000
100
AcDbArc
50
187.0356867147
51
194.4701783445
0
CIRCLE
5
28F
100
AcDbEntity
8
0
100
AcDbCircle
62
7
6
CONTINUOUS
10
129.6093274526
20
124.9430962083
40
6.0000000000
0
ARC
5
290
100
AcDbEntity
8
0
100
AcDbCircle
62
7
6
CONTINUOUS
10
121.0956401380
20
128.0843722609
40
26.5000000000
100
AcDbArc
50
329.9700000000
51
17.4802217829
0
ARC
5
291
100
AcDbEntity
8
0
100
AcDbCircle
62
7
6
CONTINUOUS
10
191.6783716468
20
150.3122379424
40
47.5000000000
100
AcDbArc
50
164.1605622604
51
197.4802217829
0
ARC
5
292
100
AcDbEntity
8
0
100
AcDbCircle
62
7
6
CONTINUOUS
10
89.0956401380
20
216.3770624782
40
5.0000000000
100
AcDbArc
50
78.5550866460
51
237.5000000000
0
ARC
5
293
100
AcDbEntity
8
0
100
AcDbCircle
62
7
6
CONTINUOUS
10
295.3771299929
20
176.2214497237
40
20.0000000000
100
AcDbArc
50
39.6953827117
51
73.2916562843
0
ARC
5
294
100
AcDbEntity
8
0
100
AcDbCircle
62
7
6
CONTINUOUS
10
295.3771299929
20
71.2214497237
40
20.0000000000
100
AcDbArc
50
106.7083437157
51
126.1203429718
0
ARC
5
295
100
AcDbEntity
8
0
100
AcDbCircle
62
7
6
CONTINUOUS
10
307.6271299929
20
170.1270624782
40
5.5000000000
100
AcDbArc
50
0.0000000000
51
90.0000000000
0
ARC
5
296
100
AcDbEntity
8
0
100
AcDbCircle
62
7
6
CONTINUOUS
10
307.6271299929
20
169.6270624782
40
5.5000000000
100
AcDbArc
50
270.0000000000
51
360.0000000000
0
ARC
5
297
100
AcDbEntity
8
0
100
AcDbCircle
62
7
6
CONTINUOUS
10
295.6271299929
20
157.3770624782
40
5.5000000000
100
AcDbArc
50
270.0000000000
51
360.0000000000
0
ARC
5
298
100
AcDbEntity
8
0
100
AcDbCircle
62
7
6
CONTINUOUS
10
304.1271299929
20
178.6270624782
40
3.0000000000
100
AcDbArc
50
180.0000000000
51
270.0000000000
0
ARC
5
299
100
AcDbEntity
8
0
100
AcDbCircle
62
7
6
CONTINUOUS
10
304.1271299929
20
161.1270624782
40
3.0000000000
100
AcDbArc
50
90.0000000000
51
180.0000000000
0
ARC
5
29A
100
AcDbEntity
8
0
100
AcDbCircle
62
7
6
CONTINUOUS
10
295.3771299929
20
71.2214497237
40
20.0000000000
100
AcDbArc
50
53.8796570282
51
73.2916562843
0
ARC
5
29B
100
AcDbEntity
8
0
100
AcDbCircle
62
7
6
CONTINUOUS
10
346.1271299929
20
143.4119179455
40
24.5000000000
100
AcDbArc
50
172.0000000000
51
193.2437498085
0
ARC
5
29C
100
AcDbEntity
8
0
100
AcDbCircle
62
7
6
CONTINUOUS
10
254.6271299929
20
121.8770624782
40
69.5000000000
100
AcDbArc
50
332.2477798524
51
13.2437498085
0
ARC
5
29D
100
AcDbEntity
8
0
100
AcDbCircle
62
7
6
CONTINUOUS
10
304.8771299929
20
169.6486126748
40
20.0000000000
100
AcDbArc
50
352.0000000000
51
360.0000000000
0
ARC
5
29E
100
AcDbEntity
8
0
100
AcDbCircle
62
7
6
CONTINUOUS
10
295.3771299929
20
176.2214497237
40
20.0000000000
100
AcDbArc
50
106.7083437157
51
140.3046172883
0
ARC
5
29F
100
AcDbEntity
8
0
100
AcDbCircle
62
7
6
CONTINUOUS
10
336.1271299929
20
121.8770624782
40
69.5000000000
100
AcDbArc
50
166.7562501915
51
207.7522201475
0
ARC
5
2A0
100
AcDbEntity
8
0
100
AcDbCircle
62
7
6
CONTINUOUS
10
244.6271299929
20
143.4119179455
40
24.5000000000
100
AcDbArc
50
346.7562501915
51
8.0000000000
0
ARC
5
2A1
100
AcDbEntity
8
0
100
AcDbCircle
62
7
6
CONTINUOUS
10
283.1271299929
20
170.1270624782
40
5.5000000000
100
AcDbArc
50
90.0000000000
51
180.0000000000
0
ARC
5
2A2
100
AcDbEntity
8
0
100
AcDbCircle
62
7
6
CONTINUOUS
10
283.1271299929
20
169.6270624782
40
5.5000000000
100
AcDbArc
50
180.0000000000
51
270.0000000000
0
ARC
5
2A3
100
AcDbEntity
8
0
100
AcDbCircle
62
7
6
CONTINUOUS
10
295.1271299929
20
157.3770624782
40
5.5000000000
100
AcDbArc
50
180.0000000000
51
270.0000000000
0
ARC
5
2A4
100
AcDbEntity
8
0
100
AcDbCircle
62
7
6
CONTINUOUS
10
286.6271299929
20
178.6270624782
40
3.0000000000
100
AcDbArc
50
270.0000000000
51
360.0000000000
0
ARC
5
2A5
100
AcDbEntity
8
0
100
AcDbCircle
62
7
6
CONTINUOUS
10
286.6271299929
20
161.1270624782
40
3.0000000000
100
AcDbArc
50
0.0000000000
51
90.0000000000
0
ARC
5
2A6
100
AcDbEntity
8
0
100
AcDbCircle
62
7
6
CONTINUOUS
10
285.8771299929
20
169.6486126748
40
20.0000000000
100
AcDbArc
50
180.0000000000
51
188.0000000000
0
SPLINE
5
2A7
100
AcDbEntity
8
DEFAULT_2
100
AcDbSpline
62
8
6
HIDDEN
70
0
71
3
72
9
73
5
74
3
42
0.0000001000
43
0.0000001000
44
0.0000000001
40
0.0000000000
40
0.0000000000
40
0.0000000000
40
0.0000000000
40
0.5077812099
40
1.0000000000
40
1.0000000000
40
1.0000000000
40
1.0000000000
10
146.2164645763
20
164.1379844212
30
0.0000000000
10
146.1700764975
20
164.1343736912
30
0.0000000000
10
146.0785823705
20
164.1289395852
30
0.0000000000
10
145.9869435335
20
164.1270624782
30
0.0000000000
10
145.9418411387
20
164.1270624782
30
0.0000000000
11
146.2164645763
21
164.1379844212
31
0.0000000000
11
146.0771211882
21
164.1297721602
31
0.0000000000
11
145.9418411387
21
164.1270624782
31
0.0000000000
0
SPLINE
5
2A8
100
AcDbEntity
8
DEFAULT_2
100
AcDbSpline
62
8
6
HIDDEN
70
0
71
3
72
18
73
14
74
12
42
0.0000001000
43
0.0000001000
44
0.0000000001
40
0.0000000000
40
0.0000000000
40
0.0000000000
40
0.0000000000
40
0.0101278048
40
0.0402931232
40
0.0900403019
40
0.1581919203
40
0.2436231594
40
0.3443035345
40
0.4585934422
40
0.5835594338
40
0.7171817386
40
0.8567059890
40
1.0000000000
40
1.0000000000
40
1.0000000000
40
1.0000000000
10
133.3826378111
20
151.8770624782
30
0.0000000000
10
133.3637447467
20
151.8770624782
30
0.0000000000
10
133.4000228808
20
151.9978035320
30
0.0000000000
10
133.3800406197
20
152.1216404534
30
0.0000000000
10
133.4262534649
20
152.4209802668
30
0.0000000000
10
133.4630778282
20
152.7871046601
30
0.0000000000
10
133.5296739821
20
153.2611239031
30
0.0000000000
10
133.6130213280
20
153.8137871477
30
0.0000000000
10
133.7198253158
20
154.4394018404
30
0.0000000000
10
133.8492114675
20
155.1227405320
30
0.0000000000
10
134.0015822955
20
155.8497032909
30
0.0000000000
10
134.1759699015
20
156.6067690116
30
0.0000000000
10
134.3046358514
20
157.1184724507
30
0.0000000000
10
134.3723544324
20
157.3770624782
30
0.0000000000
11
133.3826378111
21
151.8770624782
31
0.0000000000
11
133.3791250538
21
151.9336327129
31
0.0000000000
11
133.3904673315
21
152.1020682850
31
0.0000000000
11
133.4177592458
21
152.3791321954
31
0.0000000000
11
133.4623922837
21
152.7579149994
31
0.0000000000
11
133.5262891724
21
153.2317329270
31
0.0000000000
11
133.6109774992
21
153.7887791933
31
0.0000000000
11
133.7182619947
21
154.4193288141
31
0.0000000000
11
133.8483661728
21
155.1064794045
31
0.0000000000
11
134.0016782553
21
155.8383980959
31
0.0000000000
11
134.1768819580
21
156.5993208833
31
0.0000000000
11
134.3723544324
21
157.3770624782
31
0.0000000000
0
SPLINE
5
2A9
100
AcDbEntity
8
DEFAULT_2
100
AcDbSpline
62
8
6
HIDDEN
70
0
71
3
72
25
73
21
74
19
42
0.0000001000
43
0.0000001000
44
0.0000000001
40
0.0000000000
40
0.0000000000
40
0.0000000000
40
0.0000000000
40
0.0632498841
40
0.1231076187
40
0.1805065327
40
0.2360844693
40
0.2903068085
40
0.3435339546
40
0.3960604100
40
0.4481393773
40
0.5000000946
40
0.5518598241
40
0.6039377769
40
0.6564632617
40
0.7096905702
40
0.7639164159
40
0.8194969605
40
0.8768955227
40
0.9367516478
40
1.0000000000
40
1.0000000000
40
1.0000000000
40
1.0000000000
10
126.0852701457
20
108.3111244822
30
0.0000000000
10
126.2506772807
20
107.8566721138
30
0.0000000000
10
126.5023203348
20
106.9442439498
30
0.0000000000
10
126.6401380385
20
105.5645176282
30
0.0000000000
10
126.5442201583
20
104.2398087095
30
0.0000000000
10
126.2310718554
20
102.9936291320
30
0.0000000000
10
125.7183148348
20
101.8503668441
30
0.0000000000
10
125.0258110796
20
100.8343139189
30
0.0000000000
10
124.1762590455
20
99.9682427907
30
0.0000000000
10
123.1952198006
20
99.2724768852
30
0.0000000000
10
122.1108545484
20
98.7641264428
30
0.0000000000
10
120.9534293400
20
98.4565297960
30
0.0000000000
10
119.7547034241
20
98.3589140168
30
0.0000000000
10
118.5472222829
20
98.4762706623
30
0.0000000000
10
117.3636044123
20
98.8094744578
30
0.0000000000
10
116.2358891606
20
99.3556886426
30
0.0000000000
10
115.1949437561
20
100.1090633359
30
0.0000000000
10
114.2699661090
20
101.0622071293
30
0.0000000000
10
113.4886925154
20
102.2077089839
30
0.0000000000
10
113.0949765835
20
103.0684011141
30
0.0000000000
10
112.9295734547
20
103.5228424756
30
0.0000000000
11
126.0852701457
21
108.3111244822
31
0.0000000000
11
126.4676398708
21
106.9115632392
31
0.0000000000
11
126.6017274414
21
105.5450825580
31
0.0000000000
11
126.5047758599
21
104.2320148084
31
0.0000000000
11
126.1927401505
21
102.9959194753
31
0.0000000000
11
125.6827992977
21
101.8614856294
31
0.0000000000
11
124.9945462950
21
100.8530103303
31
0.0000000000
11
124.1504456918
21
99.9932318011
31
0.0000000000
11
123.1758456088
21
99.3023992209
31
0.0000000000
11
122.0986866247
21
98.7975355123
31
0.0000000000
11
120.9490370508
21
98.4919037166
31
0.0000000000
11
119.7584150796
21
98.3946478842
31
0.0000000000
11
118.5591627738
21
98.5106875552
31
0.0000000000
11
117.3836884001
21
98.8408143765
31
0.0000000000
11
116.2637770623
21
99.3820892718
31
0.0000000000
11
115.2301536965
21
100.1284626566
31
0.0000000000
11
114.3118758592
21
101.0720150319
31
0.0000000000
11
113.5362644725
21
102.2049645133
31
0.0000000000
11
112.9295734547
21
103.5228424756
31
0.0000000000
0
SPLINE
5
2AA
100
AcDbEntity
8
DEFAULT_2
100
AcDbSpline
62
8
6
HIDDEN
70
0
71
3
72
8
73
4
74
2
42
0.0000001000
43
0.0000001000
44
0.0000000001
40
0.0000000000
40
0.0000000000
40
0.0000000000
40
0.0000000000
40
1.0000000000
40
1.0000000000
40
1.0000000000
40
1.0000000000
10
146.2164645763
20
164.1379844212
30
0.0000000000
10
146.1700764975
20
164.1343736912
30
0.0000000000
10
146.1236174990
20
164.1316143543
30
0.0000000000
10
146.0771211882
20
164.1297721602
30
0.0000000000
11
146.2164645763
21
164.1379844212
31
0.0000000000
11
146.0771211882
21
164.1297721602
31
0.0000000000
0
SPLINE
5
2AB
100
AcDbEntity
8
DEFAULT_2
100
AcDbSpline
62
8
6
HIDDEN
70
0
71
3
72
8
73
4
74
2
42
0.0000001000
43
0.0000001000
44
0.0000000001
40
0.0000000000
40
0.0000000000
40
0.0000000000
40
0.0000000000
40
1.0000000000
40
1.0000000000
40
1.0000000000
40
1.0000000000
10
146.0771211882
20
164.1297721602
30
0.0000000000
10
146.0320498910
20
164.1279864255
30
0.0000000000
10
145.9869435335
20
164.1270624782
30
0.0000000000
10
145.9418411387
20
164.1270624782
30
0.0000000000
11
146.0771211882
21
164.1297721602
31
0.0000000000
11
145.9418411387
21
164.1270624782
31
0.0000000000
0
SPLINE
5
2AC
100
AcDbEntity
8
DEFAULT_2
100
AcDbSpline
62
8
6
HIDDEN
70
0
71
3
72
15
73
11
74
9
42
0.0000001000
43
0.0000001000
44
0.0000000001
40
0.0000000000
40
0.0000000000
40
0.0000000000
40
0.0000000000
40
0.1717610881
40
0.3346882378
40
0.4853977255
40
0.6207787572
40
0.7381321763
40
0.8366110767
40
0.9203043293
40
1.0000000000
40
1.0000000000
40
1.0000000000
40
1.0000000000
10
135.1521847691
20
161.1270624782
30
0.0000000000
10
135.1822252791
20
161.3206620363
30
0.0000000000
10
135.2271363192
20
161.7001881888
30
0.0000000000
10
135.2497184312
20
162.2539799946
30
0.0000000000
10
135.2248916173
20
162.7663686502
30
0.0000000000
10
135.1505794114
20
163.2218616304
30
0.0000000000
10
135.0243447077
20
163.6044029349
30
0.0000000000
10
134.8430278723
20
163.8995958224
30
0.0000000000
10
134.6008046547
20
164.0886503890
30
0.0000000000
10
134.4110653588
20
164.1270624782
30
0.0000000000
10
134.3201618480
20
164.1270624782
30
0.0000000000
11
135.1521847691
21
161.1270624782
31
0.0000000000
11
135.2205943093
21
161.7108168144
31
0.0000000000
11
135.2416695779
21
162.2679385733
31
0.0000000000
11
135.2138101772
21
162.7828981632
31
0.0000000000
11
135.1345513406
21
163.2393278509
31
0.0000000000
11
135.0018689423
21
163.6183464316
31
0.0000000000
11
134.8170613275
21
163.9001352392
31
0.0000000000
11
134.5869770456
21
164.0706649183
31
0.0000000000
11
134.3201618480
21
164.1270624782
31
0.0000000000
0
SPLINE
5
2AD
100
AcDbEntity
8
DEFAULT_2
100
AcDbSpline
62
8
6
HIDDEN
70
0
71
3
72
17
73
13
74
11
42
0.0000001000
43
0.0000001000
44
0.0000000001
40
0.0000000000
40
0.0000000000
40
0.0000000000
40
0.0000000000
40
0.1902017160
40
0.3733358311
40
0.5324982989
40
0.6617301075
40
0.7655508079
40
0.8482658908
40
0.9134416138
40
0.9614129899
40
0.9904721919
40
1.0000000000
40
1.0000000000
40
1.0000000000
40
1.0000000000
10
122.9657203182
20
138.8105501935
30
0.0000000000
10
123.2396863816
20
139.0533148789
30
0.0000000000
10
123.7828267639
20
139.5237576743
30
0.0000000000
10
124.5731437262
20
140.1764438277
30
0.0000000000
10
125.2858388049
20
140.7379167197
30
0.0000000000
10
125.8885956410
20
141.1935071570
30
0.0000000000
10
126.3790349545
20
141.5492671904
30
0.0000000000
10
126.7780225101
20
141.8326034152
30
0.0000000000
10
127.0827022926
20
142.0324522825
30
0.0000000000
10
127.3279680534
20
142.2108577919
30
0.0000000000
10
127.4403954728
20
142.2482441017
30
0.0000000000
10
127.5354643416
20
142.3362058772
30
0.0000000000
10
127.5417358188
20
142.3189751353
30
0.0000000000
11
122.9657203182
21
138.8105501935
31
0.0000000000
11
123.7959517624
21
139.5293301435
31
0.0000000000
11
124.6113954809
21
140.2024011667
31
0.0000000000
11
125.3333040197
21
140.7709945946
31
0.0000000000
11
125.9288201009
21
141.2205210077
31
0.0000000000
11
126.4136606875
21
141.5729873451
31
0.0000000000
11
126.8044586390
21
141.8474756973
31
0.0000000000
11
127.1158149161
21
142.0587993593
31
0.0000000000
11
127.3478639769
21
142.2100083270
31
0.0000000000
11
127.4912565088
21
142.2971140217
31
0.0000000000
11
127.5417358188
21
142.3189751353
31
0.0000000000
0
SPLINE
5
2AE
100
AcDbEntity
8
DEFAULT_2
100
AcDbSpline
62
8
6
HIDDEN
70
0
71
3
72
12
73
8
74
6
42
0.0000001000
43
0.0000001000
44
0.0000000001
40
0.0000000000
40
0.0000000000
40
0.0000000000
40
0.0000000000
40
0.1852953281
40
0.3812745198
40
0.5848620497
40
0.7924734386
40
1.0000000000
40
1.0000000000
40
1.0000000000
40
1.0000000000
10
138.4191240286
20
105.1012920528
30
0.0000000000
10
138.2937782368
20
104.9267010470
30
0.0000000000
10
138.0319004851
20
104.5702742409
30
0.0000000000
10
137.6173718588
20
104.0331793224
30
0.0000000000
10
137.1726374055
20
103.4869734620
30
0.0000000000
10
136.7039092311
20
102.9433911504
30
0.0000000000
10
136.3785927242
20
102.5882536838
30
0.0000000000
10
136.2132221177
20
102.4133381353
30
0.0000000000
11
138.4191240286
21
105.1012920528
31
0.0000000000
11
138.0372652181
21
104.5817478965
31
0.0000000000
11
137.6204864088
21
104.0419682596
31
0.0000000000
11
137.1730537752
21
103.4927129493
31
0.0000000000
11
136.7011388027
21
102.9457132738
31
0.0000000000
11
136.2132221177
21
102.4133381353
31
0.0000000000
0
SPLINE
5
2AF
100
AcDbEntity
8
DEFAULT_2
100
AcDbSpline
62
8
6
HIDDEN
70
0
71
3
72
9
73
5
74
3
42
0.0000001000
43
0.0000001000
44
0.0000000001
40
0.0000000000
40
0.0000000000
40
0.0000000000
40
0.0000000000
40
0.5024489875
40
1.0000000000
40
1.0000000000
40
1.0000000000
40
1.0000000000
10
115.4945607153
20
137.4037357434
30
0.0000000000
10
115.5020020047
20
137.3849940169
30
0.0000000000
10
115.5165477481
20
137.3475877510
30
0.0000000000
10
115.5305516497
20
137.3099752187
30
0.0000000000
10
115.5373812363
20
137.2912110838
30
0.0000000000
11
115.4945607153
21
137.4037357434
31
0.0000000000
11
115.5164822022
21
137.3473524631
31
0.0000000000
11
115.5373812363
21
137.2912110838
31
0.0000000000
0
SPLINE
5
2B0
100
AcDbEntity
8
DEFAULT_2
100
AcDbSpline
62
8
6
HIDDEN
70
0
71
3
72
15
73
11
74
9
42
0.0000001000
43
0.0000001000
44
0.0000000001
40
0.0000000000
40
0.0000000000
40
0.0000000000
40
0.0000000000
40
0.0803687977
40
0.1658040623
40
0.2660187092
40
0.3841407839
40
0.5190168896
40
0.6682370827
40
0.8294939636
40
1.0000000000
40
1.0000000000
40
1.0000000000
40
1.0000000000
10
134.4148044629
20
175.6270624782
30
0.0000000000
10
134.5071177120
20
175.6270624782
30
0.0000000000
10
134.7006243674
20
175.6671557307
30
0.0000000000
10
134.9499150426
20
175.8573052080
30
0.0000000000
10
135.1437271189
20
176.1527450393
30
0.0000000000
10
135.2859635910
20
176.5350365088
30
0.0000000000
10
135.3786132790
20
176.9889972388
30
0.0000000000
10
135.4232209518
20
177.4994535203
30
0.0000000000
10
135.4207286874
20
178.0525484885
30
0.0000000000
10
135.3883089363
20
178.4327016776
30
0.0000000000
10
135.3642294675
20
178.6270624782
30
0.0000000000
11
134.4148044629
21
175.6270624782
31
0.0000000000
11
134.6857528343
21
175.6843564890
31
0.0000000000
11
134.9243053843
21
175.8568758121
31
0.0000000000
11
135.1214774624
21
176.1403772703
31
0.0000000000
11
135.2697119521
21
176.5194575242
31
0.0000000000
11
135.3669730645
21
176.9739310741
31
0.0000000000
11
135.4144603051
21
177.4859257027
31
0.0000000000
11
135.4135234252
21
178.0415937939
31
0.0000000000
11
135.3642294675
21
178.6270624782
31
0.0000000000
0
SPLINE
5
2B1
100
AcDbEntity
8
DEFAULT_2
100
AcDbSpline
62
8
6
HIDDEN
70
0
71
3
72
8
73
4
74
2
42
0.0000001000
43
0.0000001000
44
0.0000000001
40
0.0000000000
40
0.0000000000
40
0.0000000000
40
0.0000000000
40
1.0000000000
40
1.0000000000
40
1.0000000000
40
1.0000000000
10
317.1502472793
20
130.9412713688
30
0.0000000000
10
317.1549319421
20
130.9445742102
30
0.0000000000
10
317.1521928074
20
130.9206362695
30
0.0000000000
10
317.1521928074
20
130.9102275805
30
0.0000000000
11
317.1502472793
21
130.9412713688
31
0.0000000000
11
317.1521928074
21
130.9102275805
31
0.0000000000
0
SPLINE
5
2B2
100
AcDbEntity
8
DEFAULT_2
100
AcDbSpline
62
8
6
HIDDEN
70
0
71
3
72
9
73
5
74
3
42
0.0000001000
43
0.0000001000
44
0.0000000001
40
0.0000000000
40
0.0000000000
40
0.0000000000
40
0.0000000000
40
0.4999815953
40
1.0000000000
40
1.0000000000
40
1.0000000000
40
1.0000000000
10
307.9700515726
20
164.1270624782
30
0.0000000000
10
307.9706387055
20
164.1288826023
30
0.0000000000
10
307.9718126027
20
164.1325231173
30
0.0000000000
10
307.9729856764
20
164.1361638977
30
0.0000000000
10
307.9735720291
20
164.1379844212
30
0.0000000000
11
307.9700515726
21
164.1270624782
31
0.0000000000
11
307.9718123536
21
164.1325230496
31
0.0000000000
11
307.9735720291
21
164.1379844212
31
0.0000000000
0
SPLINE
5
2B3
100
AcDbEntity
8
DEFAULT_2
100
AcDbSpline
62
8
6
HIDDEN
70
0
71
3
72
11
73
7
74
5
42
0.0000001000
43
0.0000001000
44
0.0000000001
40
0.0000000000
40
0.0000000000
40
0.0000000000
40
0.0000000000
40
0.4644597124
40
0.7879658324
40
0.9655184394
40
1.0000000000
40
1.0000000000
40
1.0000000000
40
1.0000000000
10
317.1271299929
20
130.6636170825
30
0.0000000000
10
317.1271299929
20
130.7069812385
30
0.0000000000
10
317.1263266164
20
130.7797966250
30
0.0000000000
10
317.1400398648
20
130.8720088991
30
0.0000000000
10
317.1356048743
20
130.9181758296
30
0.0000000000
10
317.1487983338
20
130.9402498145
30
0.0000000000
10
317.1502472793
20
130.9412713688
30
0.0000000000
11
317.1271299929
21
130.6636170825
31
0.0000000000
11
317.1303504103
21
130.7936696841
31
0.0000000000
11
317.1374165361
21
130.8840059339
31
0.0000000000
11
317.1449025762
21
130.9331707254
31
0.0000000000
11
317.1502472793
21
130.9412713688
31
0.0000000000
0
SPLINE
5
2B4
100
AcDbEntity
8
DEFAULT_2
100
AcDbSpline
62
8
6
HIDDEN
70
0
71
3
72
16
73
12
74
10
42
0.0000001000
43
0.0000001000
44
0.0000000001
40
0.0000000000
40
0.0000000000
40
0.0000000000
40
0.0000000000
40
0.1096143046
40
0.2235862653
40
0.3367237465
40
0.4489907024
40
0.5603967826
40
0.6710309439
40
0.7810391892
40
0.8906189140
40
1.0000000000
40
1.0000000000
40
1.0000000000
40
1.0000000000
10
289.6271302861
20
98.3944624218
30
0.0000000000
10
288.8083475828
20
98.6443600131
30
0.0000000000
10
287.1696718766
20
99.2646284146
30
0.0000000000
10
284.8517396552
20
100.5230681961
30
0.0000000000
10
282.7141374086
20
102.1044026651
30
0.0000000000
10
280.8339119567
20
103.9559780922
30
0.0000000000
10
279.2464710024
20
106.0396010210
30
0.0000000000
10
277.9812110594
20
108.3130710621
30
0.0000000000
10
277.0609612958
20
110.7316981864
30
0.0000000000
10
276.5021145618
20
113.2478874500
30
0.0000000000
10
276.3771299929
20
114.9603300187
30
0.0000000000
10
276.3771299929
20
115.8144719334
30
0.0000000000
11
289.6271302861
21
98.3944624218
31
0.0000000000
11
287.2255379083
21
99.3042969458
31
0.0000000000
11
284.8794638485
21
100.5789338180
31
0.0000000000
11
282.7493238883
21
102.1560380799
31
0.0000000000
11
280.8761012761
21
104.0021432993
31
0.0000000000
11
279.2952356959
21
106.0787406290
31
0.0000000000
11
278.0356151873
21
108.3438421796
31
0.0000000000
11
277.1197271556
21
110.7527186869
31
0.0000000000
11
276.5636347310
21
113.2588425244
31
0.0000000000
11
276.3771299929
21
115.8144719334
31
0.0000000000
0
SPLINE
5
2B5
100
AcDbEntity
8
DEFAULT_2
100
AcDbSpline
62
8
6
HIDDEN
70
0
71
3
72
16
73
12
74
10
42
0.0000001000
43
0.0000001000
44
0.0000000001
40
0.0000000000
40
0.0000000000
40
0.0000000000
40
0.0000000000
40
0.1096143046
40
0.2235862653
40
0.3367237465
40
0.4489907024
40
0.5603967826
40
0.6710309439
40
0.7810391892
40
0.8906189140
40
1.0000000000
40
1.0000000000
40
1.0000000000
40
1.0000000000
10
301.1271296997
20
98.3944624218
30
0.0000000000
10
301.9459124030
20
98.6443600131
30
0.0000000000
10
303.5845881093
20
99.2646284146
30
0.0000000000
10
305.9025203306
20
100.5230681961
30
0.0000000000
10
308.0401225773
20
102.1044026651
30
0.0000000000
10
309.9203480291
20
103.9559780922
30
0.0000000000
10
311.5077889834
20
106.0396010210
30
0.0000000000
10
312.7730489265
20
108.3130710621
30
0.0000000000
10
313.6932986901
20
110.7316981864
30
0.0000000000
10
314.2521454240
20
113.2478874500
30
0.0000000000
10
314.3771299929
20
114.9603300187
30
0.0000000000
10
314.3771299929
20
115.8144719334
30
0.0000000000
11
301.1271296997
21
98.3944624218
31
0.0000000000
11
303.5287220776
21
99.3042969458
31
0.0000000000
11
305.8747961373
21
100.5789338180
31
0.0000000000
11
308.0049360975
21
102.1560380799
31
0.0000000000
11
309.8781587097
21
104.0021432993
31
0.0000000000
11
311.4590242899
21
106.0787406290
31
0.0000000000
11
312.7186447985
21
108.3438421796
31
0.0000000000
11
313.6345328303
21
110.7527186869
31
0.0000000000
11
314.1906252548
21
113.2588425244
31
0.0000000000
11
314.3771299929
21
115.8144719334
31
0.0000000000
0
SPLINE
5
2B6
100
AcDbEntity
8
DEFAULT_2
100
AcDbSpline
62
8
6
HIDDEN
70
0
71
3
72
9
73
5
74
3
42
0.0000001000
43
0.0000001000
44
0.0000000001
40
0.0000000000
40
0.0000000000
40
0.0000000000
40
0.0000000000
40
0.4999815953
40
1.0000000000
40
1.0000000000
40
1.0000000000
40
1.0000000000
10
282.7842084132
20
164.1270624782
30
0.0000000000
10
282.7836212803
20
164.1288826023
30
0.0000000000
10
282.7824473832
20
164.1325231173
30
0.0000000000
10
282.7812743094
20
164.1361638977
30
0.0000000000
10
282.7806879567
20
164.1379844212
30
0.0000000000
11
282.7842084132
21
164.1270624782
31
0.0000000000
11
282.7824476322
21
164.1325230496
31
0.0000000000
11
282.7806879567
21
164.1379844212
31
0.0000000000
0
SPLINE
5
2B7
100
AcDbEntity
8
0
100
AcDbSpline
62
7
6
CONTINUOUS
70
0
71
3
72
8
73
4
74
2
42
0.0000001000
43
0.0000001000
44
0.0000000001
40
0.0000000000
40
0.0000000000
40
0.0000000000
40
0.0000000000
40
1.0000000000
40
1.0000000000
40
1.0000000000
40
1.0000000000
10
287.3858694757
20
221.3770412304
30
0.0000000000
10
287.1055683324
20
221.3770537248
30
0.0000000000
10
286.8253308049
20
221.3667224840
30
0.0000000000
10
286.5462311312
20
221.3441425953
30
0.0000000000
11
287.3858694757
21
221.3770412304
31
0.0000000000
11
286.5462311312
21
221.3441425953
31
0.0000000000
0
SPLINE
5
2B8
100
AcDbEntity
8
0
100
AcDbSpline
62
7
6
CONTINUOUS
70
0
71
3
72
17
73
13
74
11
42
0.0000001000
43
0.0000001000
44
0.0000000001
40
0.0000000000
40
0.0000000000
40
0.0000000000
40
0.0000000000
40
0.1437269707
40
0.2835024509
40
0.4155976098
40
0.5369709587
40
0.6459124884
40
0.7427004175
40
0.8300728862
40
0.9132002828
40
0.9987278379
40
1.0000000000
40
1.0000000000
40
1.0000000000
40
1.0000000000
10
307.3771299929
20
128.4429576330
30
0.0000000000
10
307.7871815700
20
128.4429576330
30
0.0000000000
10
308.5962506767
20
128.4675752671
30
0.0000000000
10
309.7774974949
20
128.5801757543
30
0.0000000000
10
310.8843206554
20
128.7717723359
30
0.0000000000
10
311.8831621231
20
129.0470739072
30
0.0000000000
10
312.7461831542
20
129.4113562847
30
0.0000000000
10
313.4518509967
20
129.8708636516
30
0.0000000000
10
313.9806138979
20
130.4331581920
30
0.0000000000
10
314.3080299735
20
131.0994810979
30
0.0000000000
10
314.3764631538
20
131.5870285013
30
0.0000000000
10
314.3771347336
20
131.8354507593
30
0.0000000000
10
314.3771372418
20
131.8390915576
30
0.0000000000
11
307.3771299929
21
128.4429576330
31
0.0000000000
11
308.6066860069
21
128.4813330341
31
0.0000000000
11
309.7973374111
21
128.5977992685
31
0.0000000000
11
310.9104718421
21
128.7957500364
31
0.0000000000
11
311.9098952651
21
129.0791617291
31
0.0000000000
11
312.7649347903
21
129.4510863333
31
0.0000000000
11
313.4526801811
21
129.9128882170
31
0.0000000000
11
313.9576959006
21
130.4644236199
31
0.0000000000
11
314.2690643689
21
131.1041582136
31
0.0000000000
11
314.3771076833
21
131.8281687276
31
0.0000000000
11
314.3771372418
21
131.8390915576
31
0.0000000000
0
SPLINE
5
2B9
100
AcDbEntity
8
0
100
AcDbSpline
62
7
6
CONTINUOUS
70
0
71
3
72
13
73
9
74
7
42
0.0000001000
43
0.0000001000
44
0.0000000001
40
0.0000000000
40
0.0000000000
40
0.0000000000
40
0.0000000000
40
0.2097522374
40
0.4109599426
40
0.6018942166
40
0.7574410860
40
0.8860555631
40
1.0000000000
40
1.0000000000
40
1.0000000000
40
1.0000000000
10
286.5461356481
20
221.3441391927
30
0.0000000000
10
285.8336447320
20
221.2864686664
30
0.0000000000
10
284.4395298813
20
221.1481731009
30
0.0000000000
10
282.4084684755
20
220.8558009817
30
0.0000000000
10
280.5778507917
20
220.4844331375
30
0.0000000000
10
279.0187435458
20
220.0397777232
30
0.0000000000
10
277.7563024332
20
219.5354564442
30
0.0000000000
10
277.0340123949
20
219.1254381578
30
0.0000000000
10
276.7146959703
20
218.9044735378
30
0.0000000000
11
286.5461356481
21
221.3441391927
31
0.0000000000
11
284.4124590213
21
221.1293211107
31
0.0000000000
11
282.3771058025
21
220.8309566180
31
0.0000000000
11
280.4659646133
21
220.4333063359
31
0.0000000000
11
278.9397731132
21
219.9863987789
31
0.0000000000
11
277.7229662538
21
219.4879854196
31
0.0000000000
11
276.7146959703
21
218.9044735378
31
0.0000000000
0
SPLINE
5
2BA
100
AcDbEntity
8
0
100
AcDbSpline
62
7
6
CONTINUOUS
70
0
71
3
72
10
73
6
74
4
42
0.0000001000
43
0.0000001000
44
0.0000000001
40
0.0000000000
40
0.0000000000
40
0.0000000000
40
0.0000000000
40
0.2737758556
40
0.6213396002
40
1.0000000000
40
1.0000000000
40
1.0000000000
40
1.0000000000
10
272.3734793463
20
215.9003804994
30
0.0000000000
10
271.7973185191
20
215.5015749860
30
0.0000000000
10
270.5853268048
20
214.4543159737
30
0.0000000000
10
268.9725594668
20
212.4537716587
30
0.0000000000
10
268.0130241699
20
210.8563466763
30
0.0000000000
10
267.5543236493
20
210.0026248914
30
0.0000000000
11
272.3734793463
21
215.9003804994
31
0.0000000000
11
270.7700128648
21
214.5406783663
31
0.0000000000
11
269.0711996366
21
212.4828657339
31
0.0000000000
11
267.5543236493
21
210.0026248914
31
0.0000000000
0
SPLINE
5
2BB
100
AcDbEntity
8
0
100
AcDbSpline
62
7
6
CONTINUOUS
70
0
71
3
72
11
73
7
74
5
42
0.0000001000
43
0.0000001000
44
0.0000000001
40
0.0000000000
40
0.0000000000
40
0.0000000000
40
0.0000000000
40
0.2099722770
40
0.4542004512
40
0.7206761808
40
1.0000000000
40
1.0000000000
40
1.0000000000
40
1.0000000000
10
267.5541946097
20
210.0023652217
30
0.0000000000
10
267.2916803071
20
209.5136826839
30
0.0000000000
10
266.7972476201
20
208.4155944421
30
0.0000000000
10
266.2598777930
20
206.5833492489
30
0.0000000000
10
265.9390470071
20
204.5160311095
30
0.0000000000
10
265.8771280206
20
203.0728848434
30
0.0000000000
10
265.8771302929
20
202.3349863336
30
0.0000000000
11
267.5541946097
21
210.0023652217
31
0.0000000000
11
266.8678255307
21
208.4863014904
31
0.0000000000
11
266.3161237164
21
206.6312254555
31
0.0000000000
11
265.9823393721
21
204.5460959957
31
0.0000000000
11
265.8771302929
21
202.3349863336
31
0.0000000000
0
SPLINE
5
2BC
100
AcDbEntity
8
0
100
AcDbSpline
62
7
6
CONTINUOUS
70
0
71
3
72
13
73
9
74
7
42
0.0000001000
43
0.0000001000
44
0.0000000001
40
0.0000000000
40
0.0000000000
40
0.0000000000
40
0.0000000000
40
0.1705986015
40
0.3411991157
40
0.5118008242
40
0.6824034346
40
0.8530065580
40
1.0000000000
40
1.0000000000
40
1.0000000000
40
1.0000000000
10
274.6229828588
20
89.5121149691
30
0.0000000000
10
274.7379660579
20
89.2939406158
30
0.0000000000
10
275.0090872737
20
88.8779028033
30
0.0000000000
10
275.5231737582
20
88.3402064741
30
0.0000000000
10
276.1276539175
20
87.9061749953
30
0.0000000000
10
276.8016982464
20
87.5909560395
30
0.0000000000
10
277.4890242268
20
87.4138157047
30
0.0000000000
10
277.9488328662
20
87.3770859956
30
0.0000000000
10
278.1616202586
20
87.3770712143
30
0.0000000000
11
274.6229828588
21
89.5121149691
31
0.0000000000
11
275.0269859700
21
88.8922987489
31
0.0000000000
11
275.5382373504
21
88.3574857342
31
0.0000000000
11
276.1392462837
21
87.9259780742
31
0.0000000000
11
276.8094507756
21
87.6125417550
31
0.0000000000
11
277.5259199742
21
87.4279027370
31
0.0000000000
11
278.1616202586
21
87.3770712143
31
0.0000000000
0
SPLINE
5
2BD
100
AcDbEntity
8
0
100
AcDbSpline
62
7
6
CONTINUOUS
70
0
71
3
72
16
73
12
74
10
42
0.0000001000
43
0.0000001000
44
0.0000000001
40
0.0000000000
40
0.0000000000
40
0.0000000000
40
0.0000000000
40
0.1213846201
40
0.2450144468
40
0.3667308539
40
0.4843646771
40
0.5986569790
40
0.7069634137
40
0.8086747690
40
0.9060101513
40
1.0000000000
40
1.0000000000
40
1.0000000000
40
1.0000000000
10
295.6271299929
20
202.4852389809
30
0.0000000000
10
295.9163932744
20
202.4852389809
30
0.0000000000
10
296.5006987659
20
202.4559531837
30
0.0000000000
10
297.3659438464
20
202.3221146412
30
0.0000000000
10
298.2027791604
20
202.0956159825
30
0.0000000000
10
298.9856723681
20
201.7775180807
30
0.0000000000
10
299.6900202550
20
201.3697553604
30
0.0000000000
10
300.2895887630
20
200.8755409370
30
0.0000000000
10
300.7553447464
20
200.3026492655
30
0.0000000000
10
301.0564895510
20
199.6638663109
30
0.0000000000
10
301.1271299929
20
199.2053332455
30
0.0000000000
10
301.1271299929
20
198.9813525465
30
0.0000000000
11
295.6271299929
21
202.4852389809
31
0.0000000000
11
296.4938149722
21
202.4414627211
31
0.0000000000
11
297.3671011936
21
202.3052784744
31
0.0000000000
11
298.2065179826
21
202.0760165104
31
0.0000000000
11
298.9845018574
21
201.7566732347
31
0.0000000000
11
299.6894171603
21
201.3434852788
31
0.0000000000
11
300.2831612555
21
200.8464972294
31
0.0000000000
11
300.7366280202
21
200.2780730158
31
0.0000000000
11
301.0273219134
21
199.6458407173
31
0.0000000000
11
301.1271299929
21
198.9813525465
31
0.0000000000
0
SPLINE
5
2BE
100
AcDbEntity
8
0
100
AcDbSpline
62
7
6
CONTINUOUS
70
0
71
3
72
8
73
4
74
2
42
0.0000001000
43
0.0000001000
44
0.0000000001
40
0.0000000000
40
0.0000000000
40
0.0000000000
40
0.0000000000
40
1.0000000000
40
1.0000000000
40
1.0000000000
40
1.0000000000
10
304.2080288546
20
221.3441425953
30
0.0000000000
10
303.9289291810
20
221.3667224840
30
0.0000000000
10
303.6486916534
20
221.3770537248
30
0.0000000000
10
303.3683905101
20
221.3770412304
30
0.0000000000
11
304.2080288546
21
221.3441425953
31
0.0000000000
11
303.3683905101
21
221.3770412304
31
0.0000000000
0
SPLINE
5
2BF
100
AcDbEntity
8
0
100
AcDbSpline
62
7
6
CONTINUOUS
70
0
71
3
72
13
73
9
74
7
42
0.0000001000
43
0.0000001000
44
0.0000000001
40
0.0000000000
40
0.0000000000
40
0.0000000000
40
0.0000000000
40
0.2097522374
40
0.4109599426
40
0.6018942166
40
0.7574410860
40
0.8860555631
40
1.0000000000
40
1.0000000000
40
1.0000000000
40
1.0000000000
10
304.2081243377
20
221.3441391927
30
0.0000000000
10
304.9206152538
20
221.2864686664
30
0.0000000000
10
306.3147301046
20
221.1481731009
30
0.0000000000
10
308.3457915103
20
220.8558009817
30
0.0000000000
10
310.1764091941
20
220.4844331375
30
0.0000000000
10
311.7355164400
20
220.0397777232
30
0.0000000000
10
312.9979575527
20
219.5354564442
30
0.0000000000
10
313.7202475909
20
219.1254381578
30
0.0000000000
10
314.0395640155
20
218.9044735378
30
0.0000000000
11
304.2081243377
21
221.3441391927
31
0.0000000000
11
306.3418009645
21
221.1293211107
31
0.0000000000
11
308.3771541833
21
220.8309566180
31
0.0000000000
11
310.2882953725
21
220.4333063359
31
0.0000000000
11
311.8144868727
21
219.9863987789
31
0.0000000000
11
313.0312937320
21
219.4879854196
31
0.0000000000
11
314.0395640155
21
218.9044735378
31
0.0000000000
0
SPLINE
5
2C0
100
AcDbEntity
8
0
100
AcDbSpline
62
7
6
CONTINUOUS
70
0
71
3
72
10
73
6
74
4
42
0.0000001000
43
0.0000001000
44
0.0000000001
40
0.0000000000
40
0.0000000000
40
0.0000000000
40
0.0000000000
40
0.3787097535
40
0.7265457883
40
1.0000000000
40
1.0000000000
40
1.0000000000
40
1.0000000000
10
323.1999379081
20
210.0026219704
30
0.0000000000
10
322.7411787971
20
210.8564531137
30
0.0000000000
10
321.7812139738
20
212.4545736644
30
0.0000000000
10
320.1682825355
20
214.4550229055
30
0.0000000000
10
318.9562798392
20
215.5020310941
30
0.0000000000
10
318.3807980280
20
215.9003684628
30
0.0000000000
11
323.1999379081
21
210.0026219704
31
0.0000000000
11
321.6828474933
21
212.4831684874
31
0.0000000000
11
319.9825165492
21
214.5424315009
31
0.0000000000
11
318.3807980280
21
215.9003684628
31
0.0000000000
0
SPLINE
5
2C1
100
AcDbEntity
8
0
100
AcDbSpline
62
7
6
CONTINUOUS
70
0
71
3
72
11
73
7
74
5
42
0.0000001000
43
0.0000001000
44
0.0000000001
40
0.0000000000
40
0.0000000000
40
0.0000000000
40
0.0000000000
40
0.2793238192
40
0.5457995488
40
0.7900277230
40
1.0000000000
40
1.0000000000
40
1.0000000000
40
1.0000000000
10
324.8771296929
20
202.3349863336
30
0.0000000000
10
324.8771319652
20
203.0728848434
30
0.0000000000
10
324.8152129787
20
204.5160311095
30
0.0000000000
10
324.4943821928
20
206.5833492489
30
0.0000000000
10
323.9570123658
20
208.4155944421
30
0.0000000000
10
323.4625796787
20
209.5136826839
30
0.0000000000
10
323.2000653761
20
210.0023652217
30
0.0000000000
11
324.8771296929
21
202.3349863336
31
0.0000000000
11
324.7719206137
21
204.5460959957
31
0.0000000000
11
324.4381362694
21
206.6312254555
31
0.0000000000
11
323.8864344551
21
208.4863014904
31
0.0000000000
11
323.2000653761
21
210.0023652217
31
0.0000000000
0
SPLINE
5
2C2
100
AcDbEntity
8
0
100
AcDbSpline
62
7
6
CONTINUOUS
70
0
71
3
72
13
73
9
74
7
42
0.0000001000
43
0.0000001000
44
0.0000000001
40
0.0000000000
40
0.0000000000
40
0.0000000000
40
0.0000000000
40
0.1450753534
40
0.3160620595
40
0.4870482613
40
0.6580335785
40
0.8290177287
40
1.0000000000
40
1.0000000000
40
1.0000000000
40
1.0000000000
10
312.5926397271
20
87.3770719533
30
0.0000000000
10
312.8026518443
20
87.3770867628
30
0.0000000000
10
313.2602402016
20
87.4131577045
30
0.0000000000
10
313.9462908233
20
87.5885993871
30
0.0000000000
10
314.6223250883
20
87.9035496784
30
0.0000000000
10
315.2286297891
20
88.3379369503
30
0.0000000000
10
315.7442187534
20
88.8765326156
30
0.0000000000
10
316.0160423046
20
89.2934615093
30
0.0000000000
10
316.1312829844
20
89.5121260833
30
0.0000000000
11
312.5926397271
21
87.3770719533
31
0.0000000000
11
313.2201164633
21
87.4265877662
31
0.0000000000
11
313.9385393543
21
87.6102955930
31
0.0000000000
11
314.6107051249
21
87.9234568119
31
0.0000000000
11
315.2135124777
21
88.3553067609
31
0.0000000000
11
315.7262451911
21
88.8910013952
31
0.0000000000
11
316.1312829844
21
89.5121260833
31
0.0000000000
0
SPLINE
5
2C3
100
AcDbEntity
8
0
100
AcDbSpline
62
7
6
CONTINUOUS
70
0
71
3
72
12
73
8
74
6
42
0.0000001000
43
0.0000001000
44
0.0000000001
40
0.0000000000
40
0.0000000000
40
0.0000000000
40
0.0000000000
40
0.2103510792
40
0.4174348219
40
0.6192282391
40
0.8138950444
40
1.0000000000
40
1.0000000000
40
1.0000000000
40
1.0000000000
10
300.2419663315
20
105.1012920528
30
0.0000000000
10
300.3526313844
20
104.9334121504
30
0.0000000000
10
300.5560930566
20
104.5892446712
30
0.0000000000
10
300.8041043693
20
104.0506442823
30
0.0000000000
10
300.9873171717
20
103.5022389399
30
0.0000000000
10
301.1003474726
20
102.9555938786
30
0.0000000000
10
301.1271299929
20
102.5912345911
30
0.0000000000
10
301.1271299929
20
102.4133381353
30
0.0000000000
11
300.2419663315
21
105.1012920528
31
0.0000000000
11
300.5484750746
21
104.5817478965
31
0.0000000000
11
300.7960544258
21
104.0419682596
31
0.0000000000
11
300.9782296496
21
103.4927129493
31
0.0000000000
11
301.0896993532
21
102.9457132738
31
0.0000000000
11
301.1271299929
21
102.4133381353
31
0.0000000000
0
SPLINE
5
2C4
100
AcDbEntity
8
0
100
AcDbSpline
62
7
6
CONTINUOUS
70
0
71
3
72
14
73
10
74
8
42
0.0000001000
43
0.0000001000
44
0.0000000001
40
0.0000000000
40
0.0000000000
40
0.0000000000
40
0.0000000000
40
0.1640348063
40
0.3193678142
40
0.4658788560
40
0.6063843312
40
0.7428850654
40
0.8744363397
40
1.0000000000
40
1.0000000000
40
1.0000000000
40
1.0000000000
10
300.2419663315
20
105.1012920528
30
0.0000000000
10
300.0876659184
20
105.3701276451
30
0.0000000000
10
299.7483137908
20
105.8724277571
30
0.0000000000
10
299.1496537099
20
106.5222055175
30
0.0000000000
10
298.4952936445
20
107.0473875480
30
0.0000000000
10
297.8005696564
20
107.4507206516
30
0.0000000000
10
297.0791461388
20
107.7340614095
30
0.0000000000
10
296.3509884949
20
107.8986120681
30
0.0000000000
10
295.8644023536
20
107.9342933574
30
0.0000000000
10
295.6271299929
20
107.9342933574
30
0.0000000000
11
300.2419663315
21
105.1012920528
31
0.0000000000
11
299.7203266279
21
105.8711120044
31
0.0000000000
11
299.1227880789
21
106.5179246365
31
0.0000000000
11
298.4743624518
21
107.0369488540
31
0.0000000000
11
297.7850623157
21
107.4360883776
31
0.0000000000
11
297.0645579752
21
107.7183461345
31
0.0000000000
11
296.3370469756
21
107.8823180169
31
0.0000000000
11
295.6271299929
21
107.9342933574
31
0.0000000000
0
SPLINE
5
2C5
100
AcDbEntity
8
0
100
AcDbSpline
62
7
6
CONTINUOUS
70
0
71
3
72
17
73
13
74
11
42
0.0000001000
43
0.0000001000
44
0.0000000001
40
0.0000000000
40
0.0000000000
40
0.0000000000
40
0.0000000000
40
0.1437269707
40
0.2835024509
40
0.4155976098
40
0.5369709587
40
0.6459124884
40
0.7427004175
40
0.8300728862
40
0.9132002828
40
0.9987278379
40
1.0000000000
40
1.0000000000
40
1.0000000000
40
1.0000000000
10
283.3771299929
20
128.4429576330
30
0.0000000000
10
282.9670784158
20
128.4429576330
30
0.0000000000
10
282.1580093091
20
128.4675752671
30
0.0000000000
10
280.9767624909
20
128.5801757543
30
0.0000000000
10
279.8699393304
20
128.7717723359
30
0.0000000000
10
278.8710978627
20
129.0470739072
30
0.0000000000
10
278.0080768317
20
129.4113562847
30
0.0000000000
10
277.3024089891
20
129.8708636516
30
0.0000000000
10
276.7736460879
20
130.4331581920
30
0.0000000000
10
276.4462300123
20
131.0994810979
30
0.0000000000
10
276.3777968320
20
131.5870285013
30
0.0000000000
10
276.3771252523
20
131.8354507593
30
0.0000000000
10
276.3771227440
20
131.8390915576
30
0.0000000000
11
283.3771299929
21
128.4429576330
31
0.0000000000
11
282.1475739789
21
128.4813330341
31
0.0000000000
11
280.9569225747
21
128.5977992685
31
0.0000000000
11
279.8437881437
21
128.7957500364
31
0.0000000000
11
278.8443647207
21
129.0791617291
31
0.0000000000
11
277.9893251955
21
129.4510863333
31
0.0000000000
11
277.3015798047
21
129.9128882170
31
0.0000000000
11
276.7965640852
21
130.4644236199
31
0.0000000000
11
276.4851956169
21
131.1041582136
31
0.0000000000
11
276.3771523025
21
131.8281687276
31
0.0000000000
11
276.3771227440
21
131.8390915576
31
0.0000000000
0
SPLINE
5
2C6
100
AcDbEntity
8
0
100
AcDbSpline
62
7
6
CONTINUOUS
70
0
71
3
72
16
73
12
74
10
42
0.0000001000
43
0.0000001000
44
0.0000000001
40
0.0000000000
40
0.0000000000
40
0.0000000000
40
0.0000000000
40
0.1213846201
40
0.2450144468
40
0.3667308539
40
0.4843646771
40
0.5986569790
40
0.7069634137
40
0.8086747690
40
0.9060101513
40
1.0000000000
40
1.0000000000
40
1.0000000000
40
1.0000000000
10
295.1271299929
20
202.4852389809
30
0.0000000000
10
294.8378667114
20
202.4852389809
30
0.0000000000
10
294.2535612199
20
202.4559531837
30
0.0000000000
10
293.3883161394
20
202.3221146412
30
0.0000000000
10
292.5514808254
20
202.0956159825
30
0.0000000000
10
291.7685876177
20
201.7775180807
30
0.0000000000
10
291.0642397308
20
201.3697553604
30
0.0000000000
10
290.4646712228
20
200.8755409370
30
0.0000000000
10
289.9989152394
20
200.3026492655
30
0.0000000000
10
289.6977704348
20
199.6638663109
30
0.0000000000
10
289.6271299929
20
199.2053332455
30
0.0000000000
10
289.6271299929
20
198.9813525465
30
0.0000000000
11
295.1271299929
21
202.4852389809
31
0.0000000000
11
294.2604450137
21
202.4414627211
31
0.0000000000
11
293.3871587922
21
202.3052784744
31
0.0000000000
11
292.5477420032
21
202.0760165104
31
0.0000000000
11
291.7697581284
21
201.7566732347
31
0.0000000000
11
291.0648428255
21
201.3434852788
31
0.0000000000
11
290.4710987303
21
200.8464972294
31
0.0000000000
11
290.0176319656
21
200.2780730158
31
0.0000000000
11
289.7269380724
21
199.6458407173
31
0.0000000000
11
289.6271299929
21
198.9813525465
31
0.0000000000
0
SPLINE
5
2C7
100
AcDbEntity
8
0
100
AcDbSpline
62
7
6
CONTINUOUS
70
0
71
3
72
14
73
10
74
8
42
0.0000001000
43
0.0000001000
44
0.0000000001
40
0.0000000000
40
0.0000000000
40
0.0000000000
40
0.0000000000
40
0.1640348063
40
0.3193678142
40
0.4658788560
40
0.6063843312
40
0.7428850654
40
0.8744363397
40
1.0000000000
40
1.0000000000
40
1.0000000000
40
1.0000000000
10
290.5122936543
20
105.1012920528
30
0.0000000000
10
290.6665940674
20
105.3701276451
30
0.0000000000
10
291.0059461950
20
105.8724277571
30
0.0000000000
10
291.6046062760
20
106.5222055175
30
0.0000000000
10
292.2589663413
20
107.0473875480
30
0.0000000000
10
292.9536903294
20
107.4507206516
30
0.0000000000
10
293.6751138471
20
107.7340614095
30
0.0000000000
10
294.4032714909
20
107.8986120681
30
0.0000000000
10
294.8898576322
20
107.9342933574
30
0.0000000000
10
295.1271299929
20
107.9342933574
30
0.0000000000
11
290.5122936543
21
105.1012920528
31
0.0000000000
11
291.0339333580
21
105.8711120044
31
0.0000000000
11
291.6314719069
21
106.5179246365
31
0.0000000000
11
292.2798975340
21
107.0369488540
31
0.0000000000
11
292.9691976701
21
107.4360883776
31
0.0000000000
11
293.6897020107
21
107.7183461345
31
0.0000000000
11
294.4172130102
21
107.8823180169
31
0.0000000000
11
295.1271299929
21
107.9342933574
31
0.0000000000
0
SPLINE
5
2C8
100
AcDbEntity
8
0
100
AcDbSpline
62
7
6
CONTINUOUS
70
0
71
3
72
12
73
8
74
6
42
0.0000001000
43
0.0000001000
44
0.0000000001
40
0.0000000000
40
0.0000000000
40
0.0000000000
40
0.0000000000
40
0.2103510792
40
0.4174348219
40
0.6192282391
40
0.8138950444
40
1.0000000000
40
1.0000000000
40
1.0000000000
40
1.0000000000
10
290.5122936543
20
105.1012920528
30
0.0000000000
10
290.4016286014
20
104.9334121504
30
0.0000000000
10
290.1981669292
20
104.5892446712
30
0.0000000000
10
289.9501556165
20
104.0506442823
30
0.0000000000
10
289.7669428141
20
103.5022389399
30
0.0000000000
10
289.6539125132
20
102.9555938786
30
0.0000000000
10
289.6271299929
20
102.5912345911
30
0.0000000000
10
289.6271299929
20
102.4133381353
30
0.0000000000
11
290.5122936543
21
105.1012920528
31
0.0000000000
11
290.2057849112
21
104.5817478965
31
0.0000000000
11
289.9582055600
21
104.0419682596
31
0.0000000000
11
289.7760303363
21
103.4927129493
31
0.0000000000
11
289.6645606326
21
102.9457132738
31
0.0000000000
11
289.6271299929
21
102.4133381353
31
0.0000000000
0
SPLINE
5
2C9
100
AcDbEntity
8
0
100
AcDbSpline
62
7
6
CONTINUOUS
70
0
71
3
72
16
73
12
74
10
42
0.0000001000
43
0.0000001000
44
0.0000000001
40
0.0000000000
40
0.0000000000
40
0.0000000000
40
0.0000000000
40
0.1477568165
40
0.2769095180
40
0.3920484772
40
0.4977392712
40
0.5985010663
40
0.6985487248
40
0.7991032151
40
0.8997476085
40
1.0000000000
40
1.0000000000
40
1.0000000000
40
1.0000000000
10
315.0402044064
20
166.8770624782
30
0.0000000000
10
315.0402044064
20
166.1318752593
30
0.0000000000
10
315.0271975641
20
164.7352851537
30
0.0000000000
10
314.9713987194
20
162.7587275902
30
0.0000000000
10
314.8867361739
20
160.9955558783
30
0.0000000000
10
314.7741493145
20
159.3774382067
30
0.0000000000
10
314.6299980162
20
157.8382254245
30
0.0000000000
10
314.4470490548
20
156.3291812793
30
0.0000000000
10
314.2167093499
20
154.8271570990
30
0.0000000000
10
313.9320736999
20
153.3333649711
30
0.0000000000
10
313.7020339730
20
152.3462523810
30
0.0000000000
10
313.5761919145
20
151.8565568963
30
0.0000000000
11
315.0402044064
21
166.8770624782
31
0.0000000000
11
315.0188057358
21
164.6416032374
31
0.0000000000
11
314.9626048831
21
162.6883303264
31
0.0000000000
11
314.8779558333
21
160.9483349055
31
0.0000000000
11
314.7659188974
21
159.3531620758
31
0.0000000000
11
314.6227477538
21
157.8353730421
31
0.0000000000
11
314.4394952922
21
156.3327845687
31
0.0000000000
11
314.2077525413
21
154.8291478970
31
0.0000000000
11
313.9215768069
21
153.3335302540
31
0.0000000000
11
313.5761919145
21
151.8565568963
31
0.0000000000
0
SPLINE
5
2CA
100
AcDbEntity
8
0
100
AcDbSpline
62
7
6
CONTINUOUS
70
0
71
3
72
10
73
6
74
4
42
0.0000001000
43
0.0000001000
44
0.0000000001
40
0.0000000000
40
0.0000000000
40
0.0000000000
40
0.0000000000
40
0.3311406133
40
0.6644717384
40
1.0000000000
40
1.0000000000
40
1.0000000000
40
1.0000000000
10
314.9340195753
20
178.9036286696
30
0.0000000000
10
314.9586606232
20
178.4596545714
30
0.0000000000
10
314.9984058025
20
177.5682094694
30
0.0000000000
10
315.0327300948
20
176.2257797471
30
0.0000000000
10
315.0402044064
20
175.3276116106
30
0.0000000000
10
315.0402044064
20
174.8770624782
30
0.0000000000
11
314.9340195753
21
178.9036286696
31
0.0000000000
11
314.9940682359
21
177.5710087730
31
0.0000000000
11
315.0288091159
21
176.2286618397
31
0.0000000000
11
315.0402044064
21
174.8770624782
31
0.0000000000
0
SPLINE
5
2CB
100
AcDbEntity
8
0
100
AcDbSpline
62
7
6
CONTINUOUS
70
0
71
3
72
21
73
17
74
15
42
0.0000001000
43
0.0000001000
44
0.0000000001
40
0.0000000000
40
0.0000000000
40
0.0000000000
40
0.0000000000
40
0.1037142689
40
0.2105896112
40
0.3143116292
40
0.4091382865
40
0.4920203853
40
0.5646339178
40
0.6289982756
40
0.6871890349
40
0.7411583917
40
0.7928728138
40
0.8442929088
40
0.8961282362
40
0.9481504393
40
1.0000000000
40
1.0000000000
40
1.0000000000
40
1.0000000000
10
279.9881094158
20
188.9955659623
30
0.0000000000
10
279.7863176251
20
188.7524667168
30
0.0000000000
10
279.3903681489
20
188.2472419945
30
0.0000000000
10
278.8421821548
20
187.4616609519
30
0.0000000000
10
278.3512564875
20
186.6708247049
30
0.0000000000
10
277.9351793452
20
185.9209102511
30
0.0000000000
10
277.5938660423
20
185.2388013794
30
0.0000000000
10
277.3161105616
20
184.6292270237
30
0.0000000000
10
277.0867240840
20
184.0806380431
30
0.0000000000
10
276.8931434777
20
183.5788881494
30
0.0000000000
10
276.7252645919
20
183.1087102838
30
0.0000000000
10
276.5750656664
20
182.6542694597
30
0.0000000000
10
276.4373482729
20
182.2026846518
30
0.0000000000
10
276.3099944981
20
181.7470918844
30
0.0000000000
10
276.1932808144
20
181.2873088907
30
0.0000000000
10
276.1230264705
20
180.9787473302
30
0.0000000000
10
276.0899608707
20
180.8243009967
30
0.0000000000
11
279.9881094158
21
188.9955659623
31
0.0000000000
11
279.4032639273
21
188.2497038543
31
0.0000000000
11
278.8440982412
21
187.4489016932
31
0.0000000000
11
278.3439440669
21
186.6437094306
31
0.0000000000
11
277.9233360583
21
185.8860323688
31
0.0000000000
11
277.5842900283
21
185.2087159526
31
0.0000000000
11
277.3090767206
21
184.6048818561
31
0.0000000000
11
277.0821285091
21
184.0622189993
31
0.0000000000
11
276.8906935373
21
183.5660816689
31
0.0000000000
11
276.7248393307
21
183.1015934396
31
0.0000000000
11
276.5765314108
21
182.6528630697
31
0.0000000000
11
276.4394714362
21
182.2033816012
31
0.0000000000
11
276.3119741634
21
181.7471533375
31
0.0000000000
11
276.1950589886
21
181.2863371643
31
0.0000000000
11
276.0899608707
21
180.8243009967
31
0.0000000000
0
SPLINE
5
2CC
100
AcDbEntity
8
0
100
AcDbSpline
62
7
6
CONTINUOUS
70
0
71
3
72
15
73
11
74
9
42
0.0000001000
43
0.0000001000
44
0.0000000001
40
0.0000000000
40
0.0000000000
40
0.0000000000
40
0.0000000000
40
0.1218215976
40
0.2435748269
40
0.3653947394
40
0.4875149415
40
0.6106148502
40
0.7360430259
40
0.8653602616
40
1.0000000000
40
1.0000000000
40
1.0000000000
40
1.0000000000
10
314.6642991151
20
180.8243009967
30
0.0000000000
10
314.6808031425
20
180.7472122239
30
0.0000000000
10
314.7126415961
20
180.5928266420
30
0.0000000000
10
314.7567661873
20
180.3605085130
30
0.0000000000
10
314.7971005492
20
180.1273046588
30
0.0000000000
10
314.8335125008
20
179.8925729590
30
0.0000000000
10
314.8658802623
20
179.6548906723
30
0.0000000000
10
314.8940053721
20
179.4119762626
30
0.0000000000
10
314.9174605823
20
179.1610623032
30
0.0000000000
10
314.9291911516
20
178.9906255798
30
0.0000000000
10
314.9340195753
20
178.9036286696
30
0.0000000000
11
314.6642991151
21
180.8243009967
31
0.0000000000
11
314.7120440235
21
180.5926633918
31
0.0000000000
11
314.7561213506
21
180.3604351008
31
0.0000000000
11
314.7963926909
21
180.1273852607
31
0.0000000000
11
314.8326930035
21
179.8930940019
31
0.0000000000
11
314.8648908776
21
179.6562841418
31
0.0000000000
11
314.8928390061
21
179.4143844214
31
0.0000000000
11
314.9161392640
21
179.1644088049
31
0.0000000000
11
314.9340195753
21
178.9036286696
31
0.0000000000
0
SPLINE
5
2CD
100
AcDbEntity
8
0
100
AcDbSpline
62
7
6
CONTINUOUS
70
0
71
3
72
13
73
9
74
7
42
0.0000001000
43
0.0000001000
44
0.0000000001
40
0.0000000000
40
0.0000000000
40
0.0000000000
40
0.0000000000
40
0.1660479932
40
0.3341111359
40
0.5028274332
40
0.6708521680
40
0.8370081771
40
1.0000000000
40
1.0000000000
40
1.0000000000
40
1.0000000000
10
313.5761919145
20
151.8565568963
30
0.0000000000
10
313.3594953137
20
151.0133145955
30
0.0000000000
10
312.8878555017
20
149.3255133617
30
0.0000000000
10
312.0689716593
20
146.8185503050
30
0.0000000000
10
311.1311142717
20
144.3423280435
30
0.0000000000
10
310.0718976332
20
141.9261352048
30
0.0000000000
10
308.8880393937
20
139.6019087304
30
0.0000000000
10
308.0017504283
20
138.1188214503
30
0.0000000000
10
307.5337534660
20
137.4037357434
30
0.0000000000
11
313.5761919145
21
151.8565568963
31
0.0000000000
11
312.8727981336
21
149.3411300657
31
0.0000000000
11
312.0508038399
21
146.8285514632
31
0.0000000000
11
311.1088347323
21
144.3474535054
31
0.0000000000
11
310.0447331171
21
141.9281106877
31
0.0000000000
11
308.8543776679
21
139.6012958090
31
0.0000000000
11
307.5337534660
21
137.4037357434
31
0.0000000000
0
SPLINE
5
2CE
100
AcDbEntity
8
0
100
AcDbSpline
62
7
6
CONTINUOUS
70
0
71
3
72
16
73
12
74
10
42
0.0000001000
43
0.0000001000
44
0.0000000001
40
0.0000000000
40
0.0000000000
40
0.0000000000
40
0.0000000000
40
0.0831411393
40
0.1789155209
40
0.2871082867
40
0.4054328254
40
0.5289750672
40
0.6523344219
40
0.7720508873
40
0.8874724268
40
1.0000000000
40
1.0000000000
40
1.0000000000
40
1.0000000000
10
276.3771227440
20
131.8390915576
30
0.0000000000
10
276.3769394882
20
132.1050881163
30
0.0000000000
10
276.4607943439
20
132.6757643863
30
0.0000000000
10
276.7994520904
20
133.5336055573
30
0.0000000000
10
277.3527613462
20
134.4060414810
30
0.0000000000
10
278.0985727395
20
135.2428902729
30
0.0000000000
10
278.9978909855
20
135.9898660841
30
0.0000000000
10
279.9999708914
20
136.6004693179
30
0.0000000000
10
281.0568872105
20
137.0476824773
30
0.0000000000
10
282.1349333160
20
137.3237841573
30
0.0000000000
10
282.8617019436
20
137.3957677169
30
0.0000000000
10
283.2205065198
20
137.4037357434
30
0.0000000000
11
276.3771227440
21
131.8390915576
31
0.0000000000
11
276.4823377275
21
132.6276732618
31
0.0000000000
11
276.8089649973
21
133.4838690047
31
0.0000000000
11
277.3567474033
21
134.3622651986
31
0.0000000000
11
278.1066647507
21
135.2104260828
31
0.0000000000
11
279.0150904456
21
135.9667658152
31
0.0000000000
11
280.0233801899
21
136.5803657735
31
0.0000000000
11
281.0788524270
21
137.0254104803
31
0.0000000000
11
282.1490195883
21
137.2981247786
31
0.0000000000
11
283.2205065198
21
137.4037357434
31
0.0000000000
0
SPLINE
5
2CF
100
AcDbEntity
8
0
100
AcDbSpline
62
7
6
CONTINUOUS
70
0
71
3
72
15
73
11
74
9
42
0.0000001000
43
0.0000001000
44
0.0000000001
40
0.0000000000
40
0.0000000000
40
0.0000000000
40
0.0000000000
40
0.1758438353
40
0.3319815198
40
0.4708846878
40
0.5952862046
40
0.7081263987
40
0.8109292464
40
0.9077430317
40
1.0000000000
40
1.0000000000
40
1.0000000000
40
1.0000000000
10
301.1271299929
20
125.0834590591
30
0.0000000000
10
301.6723523317
20
124.9043522311
30
0.0000000000
10
302.6826337055
20
124.5015160680
30
0.0000000000
10
304.0154663865
20
123.7245677473
30
0.0000000000
10
305.0777992978
20
122.8515459682
30
0.0000000000
10
305.8898101170
20
121.9236336130
30
0.0000000000
10
306.4793717736
20
120.9779013872
30
0.0000000000
10
306.8790551286
20
120.0353332145
30
0.0000000000
10
307.1126926363
20
119.1081333845
30
0.0000000000
10
307.1667939630
20
118.4901117074
30
0.0000000000
10
307.1667939630
20
118.1890200932
30
0.0000000000
11
301.1271299929
21
125.0834590591
31
0.0000000000
11
302.7227921835
21
124.4369437345
31
0.0000000000
11
304.0396448264
21
123.6604840891
31
0.0000000000
11
305.0871258178
21
122.7931131875
31
0.0000000000
11
305.8870452007
21
121.8746106086
31
0.0000000000
11
306.4699310445
21
120.9360840178
31
0.0000000000
11
306.8613726203
21
120.0087910758
31
0.0000000000
11
307.0908430059
21
119.0890961418
31
0.0000000000
11
307.1667939630
21
118.1890200932
31
0.0000000000
0
SPLINE
5
2D0
100
AcDbEntity
8
0
100
AcDbSpline
62
7
6
CONTINUOUS
70
0
71
3
72
17
73
13
74
11
42
0.0000001000
43
0.0000001000
44
0.0000000001
40
0.0000000000
40
0.0000000000
40
0.0000000000
40
0.0000000000
40
0.1003512400
40
0.2016962663
40
0.3010445312
40
0.3967461389
40
0.4908556442
40
0.5853401282
40
0.6833542248
40
0.7864422947
40
0.8926851432
40
1.0000000000
40
1.0000000000
40
1.0000000000
40
1.0000000000
10
301.1271299929
20
138.8105501935
30
0.0000000000
10
301.1271299929
20
139.0522951401
30
0.0000000000
10
301.0627677049
20
139.5410402218
30
0.0000000000
10
300.7707437160
20
140.2144369902
30
0.0000000000
10
300.3266851796
20
140.7818583130
30
0.0000000000
10
299.7914234008
20
141.2334568388
30
0.0000000000
10
299.2019070255
20
141.5865929643
30
0.0000000000
10
298.5672304749
20
141.8624079856
30
0.0000000000
10
297.8858206156
20
142.0733390895
30
0.0000000000
10
297.1594762147
20
142.2224110152
30
0.0000000000
10
296.4005917539
20
142.3081799130
30
0.0000000000
10
295.8856263474
20
142.3224875695
30
0.0000000000
10
295.6271299929
20
142.3189751353
30
0.0000000000
11
301.1271299929
21
138.8105501935
31
0.0000000000
11
301.0305848928
21
139.5293301435
31
0.0000000000
11
300.7417771558
21
140.2024011667
31
0.0000000000
11
300.3033641677
21
140.7709945946
31
0.0000000000
11
299.7777397936
21
141.2205210077
31
0.0000000000
11
299.1960707145
21
141.5729873451
31
0.0000000000
11
298.5708338384
21
141.8474756973
31
0.0000000000
11
297.8947465056
21
142.0587993593
31
0.0000000000
11
297.1652388450
21
142.2100083270
31
0.0000000000
11
296.4023824771
21
142.2971140217
31
0.0000000000
11
295.6271299929
21
142.3189751353
31
0.0000000000
0
SPLINE
5
2D1
100
AcDbEntity
8
0
100
AcDbSpline
62
7
6
CONTINUOUS
70
0
71
3
72
10
73
6
74
4
42
0.0000001000
43
0.0000001000
44
0.0000000001
40
0.0000000000
40
0.0000000000
40
0.0000000000
40
0.0000000000
40
0.3319886405
40
0.6654479417
40
1.0000000000
40
1.0000000000
40
1.0000000000
40
1.0000000000
10
307.3771299929
20
137.2912110838
30
0.0000000000
10
306.7504030173
20
136.8419608233
30
0.0000000000
10
305.4403307939
20
136.0139985533
30
0.0000000000
10
303.3433590236
20
135.0045980833
30
0.0000000000
10
301.8742208768
20
134.4933099392
30
0.0000000000
10
301.1271299929
20
134.2795679332
30
0.0000000000
11
307.3771299929
21
137.2912110838
31
0.0000000000
11
305.4219819758
21
136.0547205994
31
0.0000000000
11
303.3286220569
21
135.0463186079
31
0.0000000000
11
301.1271299929
21
134.2795679332
31
0.0000000000
0
SPLINE
5
2D2
100
AcDbEntity
8
0
100
AcDbSpline
62
7
6
CONTINUOUS
70
0
71
3
72
21
73
17
74
15
42
0.0000001000
43
0.0000001000
44
0.0000000001
40
0.0000000000
40
0.0000000000
40
0.0000000000
40
0.0000000000
40
0.1037142689
40
0.2105896112
40
0.3143116292
40
0.4091382865
40
0.4920203853
40
0.5646339178
40
0.6289982756
40
0.6871890349
40
0.7411583917
40
0.7928728138
40
0.8442929088
40
0.8961282362
40
0.9481504393
40
1.0000000000
40
1.0000000000
40
1.0000000000
40
1.0000000000
10
310.7661505700
20
188.9955659623
30
0.0000000000
10
310.9679423607
20
188.7524667168
30
0.0000000000
10
311.3638918369
20
188.2472419945
30
0.0000000000
10
311.9120778310
20
187.4616609519
30
0.0000000000
10
312.4030034983
20
186.6708247049
30
0.0000000000
10
312.8190806406
20
185.9209102511
30
0.0000000000
10
313.1603939436
20
185.2388013794
30
0.0000000000
10
313.4381494242
20
184.6292270237
30
0.0000000000
10
313.6675359018
20
184.0806380431
30
0.0000000000
10
313.8611165081
20
183.5788881494
30
0.0000000000
10
314.0289953940
20
183.1087102838
30
0.0000000000
10
314.1791943194
20
182.6542694597
30
0.0000000000
10
314.3169117129
20
182.2026846518
30
0.0000000000
10
314.4442654877
20
181.7470918844
30
0.0000000000
10
314.5609791714
20
181.2873088907
30
0.0000000000
10
314.6312335153
20
180.9787473302
30
0.0000000000
10
314.6642991151
20
180.8243009967
30
0.0000000000
11
310.7661505700
21
188.9955659623
31
0.0000000000
11
311.3509960585
21
188.2497038543
31
0.0000000000
11
311.9101617446
21
187.4489016932
31
0.0000000000
11
312.4103159189
21
186.6437094306
31
0.0000000000
11
312.8309239275
21
185.8860323688
31
0.0000000000
11
313.1699699576
21
185.2087159526
31
0.0000000000
11
313.4451832652
21
184.6048818561
31
0.0000000000
11
313.6721314767
21
184.0622189993
31
0.0000000000
11
313.8635664486
21
183.5660816689
31
0.0000000000
11
314.0294206551
21
183.1015934396
31
0.0000000000
11
314.1777285750
21
182.6528630697
31
0.0000000000
11
314.3147885496
21
182.2033816012
31
0.0000000000
11
314.4422858224
21
181.7471533375
31
0.0000000000
11
314.5592009973
21
181.2863371643
31
0.0000000000
11
314.6642991151
21
180.8243009967
31
0.0000000000
0
SPLINE
5
2D3
100
AcDbEntity
8
0
100
AcDbSpline
62
7
6
CONTINUOUS
70
0
71
3
72
9
73
5
74
3
42
0.0000001000
43
0.0000001000
44
0.0000000001
40
0.0000000000
40
0.0000000000
40
0.0000000000
40
0.0000000000
40
0.5006973719
40
1.0000000000
40
1.0000000000
40
1.0000000000
40
1.0000000000
10
307.5337534660
20
137.4037357434
30
0.0000000000
10
307.5076338140
20
137.3849267331
30
0.0000000000
10
307.4554460124
20
137.3473906173
30
0.0000000000
10
307.4032175223
20
137.3099111396
30
0.0000000000
10
307.3771299929
20
137.2912110838
30
0.0000000000
11
307.5337534660
21
137.4037357434
31
0.0000000000
11
307.4553630233
21
137.3473524631
31
0.0000000000
11
307.3771299929
21
137.2912110838
31
0.0000000000
0
SPLINE
5
2D4
100
AcDbEntity
8
0
100
AcDbSpline
62
7
6
CONTINUOUS
70
0
71
3
72
16
73
12
74
10
42
0.0000001000
43
0.0000001000
44
0.0000000001
40
0.0000000000
40
0.0000000000
40
0.0000000000
40
0.0000000000
40
0.0831411393
40
0.1789155209
40
0.2871082867
40
0.4054328254
40
0.5289750672
40
0.6523344219
40
0.7720508873
40
0.8874724268
40
1.0000000000
40
1.0000000000
40
1.0000000000
40
1.0000000000
10
314.3771372418
20
131.8390915576
30
0.0000000000
10
314.3773204976
20
132.1050881163
30
0.0000000000
10
314.2934656419
20
132.6757643863
30
0.0000000000
10
313.9548078954
20
133.5336055573
30
0.0000000000
10
313.4014986397
20
134.4060414810
30
0.0000000000
10
312.6556872463
20
135.2428902729
30
0.0000000000
10
311.7563690003
20
135.9898660841
30
0.0000000000
10
310.7542890944
20
136.6004693179
30
0.0000000000
10
309.6973727753
20
137.0476824773
30
0.0000000000
10
308.6193266698
20
137.3237841573
30
0.0000000000
10
307.8925580422
20
137.3957677169
30
0.0000000000
10
307.5337534660
20
137.4037357434
30
0.0000000000
11
314.3771372418
21
131.8390915576
31
0.0000000000
11
314.2719222583
21
132.6276732618
31
0.0000000000
11
313.9452949885
21
133.4838690047
31
0.0000000000
11
313.3975125825
21
134.3622651986
31
0.0000000000
11
312.6475952352
21
135.2104260828
31
0.0000000000
11
311.7391695402
21
135.9667658152
31
0.0000000000
11
310.7308797959
21
136.5803657735
31
0.0000000000
11
309.6754075588
21
137.0254104803
31
0.0000000000
11
308.6052403975
21
137.2981247786
31
0.0000000000
11
307.5337534660
21
137.4037357434
31
0.0000000000
0
SPLINE
5
2D5
100
AcDbEntity
8
0
100
AcDbSpline
62
7
6
CONTINUOUS
70
0
71
3
72
15
73
11
74
9
42
0.0000001000
43
0.0000001000
44
0.0000000001
40
0.0000000000
40
0.0000000000
40
0.0000000000
40
0.0000000000
40
0.1218215976
40
0.2435748269
40
0.3653947394
40
0.4875149415
40
0.6106148502
40
0.7360430259
40
0.8653602616
40
1.0000000000
40
1.0000000000
40
1.0000000000
40
1.0000000000
10
276.0899608707
20
180.8243009967
30
0.0000000000
10
276.0734568433
20
180.7472122239
30
0.0000000000
10
276.0416183897
20
180.5928266420
30
0.0000000000
10
275.9974937985
20
180.3605085130
30
0.0000000000
10
275.9571594366
20
180.1273046588
30
0.0000000000
10
275.9207474850
20
179.8925729590
30
0.0000000000
10
275.8883797235
20
179.6548906723
30
0.0000000000
10
275.8602546138
20
179.4119762626
30
0.0000000000
10
275.8367994036
20
179.1610623032
30
0.0000000000
10
275.8250688342
20
178.9906255798
30
0.0000000000
10
275.8202404105
20
178.9036286696
30
0.0000000000
11
276.0899608707
21
180.8243009967
31
0.0000000000
11
276.0422159624
21
180.5926633918
31
0.0000000000
11
275.9981386352
21
180.3604351008
31
0.0000000000
11
275.9578672949
21
180.1273852607
31
0.0000000000
11
275.9215669823
21
179.8930940019
31
0.0000000000
11
275.8893691083
21
179.6562841418
31
0.0000000000
11
275.8614209797
21
179.4143844214
31
0.0000000000
11
275.8381207218
21
179.1644088049
31
0.0000000000
11
275.8202404105
21
178.9036286696
31
0.0000000000
0
SPLINE
5
2D6
100
AcDbEntity
8
0
100
AcDbSpline
62
7
6
CONTINUOUS
70
0
71
3
72
10
73
6
74
4
42
0.0000001000
43
0.0000001000
44
0.0000000001
40
0.0000000000
40
0.0000000000
40
0.0000000000
40
0.0000000000
40
0.3311406133
40
0.6644717384
40
1.0000000000
40
1.0000000000
40
1.0000000000
40
1.0000000000
10
275.8202404105
20
178.9036286696
30
0.0000000000
10
275.7955993626
20
178.4596545714
30
0.0000000000
10
275.7558541833
20
177.5682094694
30
0.0000000000
10
275.7215298910
20
176.2257797471
30
0.0000000000
10
275.7140555795
20
175.3276116106
30
0.0000000000
10
275.7140555795
20
174.8770624782
30
0.0000000000
11
275.8202404105
21
178.9036286696
31
0.0000000000
11
275.7601917499
21
177.5710087730
31
0.0000000000
11
275.7254508699
21
176.2286618397
31
0.0000000000
11
275.7140555795
21
174.8770624782
31
0.0000000000
0
SPLINE
5
2D7
100
AcDbEntity
8
0
100
AcDbSpline
62
7
6
CONTINUOUS
70
0
71
3
72
16
73
12
74
10
42
0.0000001000
43
0.0000001000
44
0.0000000001
40
0.0000000000
40
0.0000000000
40
0.0000000000
40
0.0000000000
40
0.1477568165
40
0.2769095180
40
0.3920484772
40
0.4977392712
40
0.5985010663
40
0.6985487248
40
0.7991032151
40
0.8997476085
40
1.0000000000
40
1.0000000000
40
1.0000000000
40
1.0000000000
10
275.7140555795
20
166.8770624782
30
0.0000000000
10
275.7140555795
20
166.1318752593
30
0.0000000000
10
275.7270624218
20
164.7352851537
30
0.0000000000
10
275.7828612665
20
162.7587275902
30
0.0000000000
10
275.8675238119
20
160.9955558783
30
0.0000000000
10
275.9801106713
20
159.3774382067
30
0.0000000000
10
276.1242619696
20
157.8382254245
30
0.0000000000
10
276.3072109310
20
156.3291812793
30
0.0000000000
10
276.5375506359
20
154.8271570990
30
0.0000000000
10
276.8221862859
20
153.3333649711
30
0.0000000000
10
277.0522260129
20
152.3462523810
30
0.0000000000
10
277.1780680714
20
151.8565568963
30
0.0000000000
11
275.7140555795
21
166.8770624782
31
0.0000000000
11
275.7354542500
21
164.6416032374
31
0.0000000000
11
275.7916551027
21
162.6883303264
31
0.0000000000
11
275.8763041525
21
160.9483349055
31
0.0000000000
11
275.9883410884
21
159.3531620758
31
0.0000000000
11
276.1315122320
21
157.8353730421
31
0.0000000000
11
276.3147646936
21
156.3327845687
31
0.0000000000
11
276.5465074446
21
154.8291478970
31
0.0000000000
11
276.8326831789
21
153.3335302540
31
0.0000000000
11
277.1780680714
21
151.8565568963
31
0.0000000000
0
SPLINE
5
2D8
100
AcDbEntity
8
0
100
AcDbSpline
62
7
6
CONTINUOUS
70
0
71
3
72
13
73
9
74
7
42
0.0000001000
43
0.0000001000
44
0.0000000001
40
0.0000000000
40
0.0000000000
40
0.0000000000
40
0.0000000000
40
0.1660479932
40
0.3341111359
40
0.5028274332
40
0.6708521680
40
0.8370081771
40
1.0000000000
40
1.0000000000
40
1.0000000000
40
1.0000000000
10
277.1780680714
20
151.8565568963
30
0.0000000000
10
277.3947646721
20
151.0133145955
30
0.0000000000
10
277.8664044841
20
149.3255133617
30
0.0000000000
10
278.6852883265
20
146.8185503050
30
0.0000000000
10
279.6231457141
20
144.3423280435
30
0.0000000000
10
280.6823623526
20
141.9261352048
30
0.0000000000
10
281.8662205921
20
139.6019087304
30
0.0000000000
10
282.7525095575
20
138.1188214503
30
0.0000000000
10
283.2205065198
20
137.4037357434
30
0.0000000000
11
277.1780680714
21
151.8565568963
31
0.0000000000
11
277.8814618522
21
149.3411300657
31
0.0000000000
11
278.7034561460
21
146.8285514632
31
0.0000000000
11
279.6454252536
21
144.3474535054
31
0.0000000000
11
280.7095268688
21
141.9281106877
31
0.0000000000
11
281.8998823179
21
139.6012958090
31
0.0000000000
11
283.2205065198
21
137.4037357434
31
0.0000000000
0
SPLINE
5
2D9
100
AcDbEntity
8
0
100
AcDbSpline
62
7
6
CONTINUOUS
70
0
71
3
72
15
73
11
74
9
42
0.0000001000
43
0.0000001000
44
0.0000000001
40
0.0000000000
40
0.0000000000
40
0.0000000000
40
0.0000000000
40
0.1758438353
40
0.3319815198
40
0.4708846878
40
0.5952862046
40
0.7081263987
40
0.8109292464
40
0.9077430317
40
1.0000000000
40
1.0000000000
40
1.0000000000
40
1.0000000000
10
289.6271299929
20
125.0834590591
30
0.0000000000
10
289.0819076541
20
124.9043522311
30
0.0000000000
10
288.0716262803
20
124.5015160680
30
0.0000000000
10
286.7387935993
20
123.7245677473
30
0.0000000000
10
285.6764606880
20
122.8515459682
30
0.0000000000
10
284.8644498688
20
121.9236336130
30
0.0000000000
10
284.2748882123
20
120.9779013872
30
0.0000000000
10
283.8752048572
20
120.0353332145
30
0.0000000000
10
283.6415673495
20
119.1081333845
30
0.0000000000
10
283.5874660228
20
118.4901117074
30
0.0000000000
10
283.5874660228
20
118.1890200932
30
0.0000000000
11
289.6271299929
21
125.0834590591
31
0.0000000000
11
288.0314678023
21
124.4369437345
31
0.0000000000
11
286.7146151594
21
123.6604840891
31
0.0000000000
11
285.6671341681
21
122.7931131875
31
0.0000000000
11
284.8672147852
21
121.8746106086
31
0.0000000000
11
284.2843289413
21
120.9360840178
31
0.0000000000
11
283.8928873655
21
120.0087910758
31
0.0000000000
11
283.6634169799
21
119.0890961418
31
0.0000000000
11
283.5874660228
21
118.1890200932
31
0.0000000000
0
SPLINE
5
2DA
100
AcDbEntity
8
0
100
AcDbSpline
62
7
6
CONTINUOUS
70
0
71
3
72
10
73
6
74
4
42
0.0000001000
43
0.0000001000
44
0.0000000001
40
0.0000000000
40
0.0000000000
40
0.0000000000
40
0.0000000000
40
0.3333340927
40
0.6666659073
40
1.0000000000
40
1.0000000000
40
1.0000000000
40
1.0000000000
10
295.6271299929
20
142.3189751353
30
0.0000000000
10
295.5715779195
20
142.3182202969
30
0.0000000000
10
295.4604666311
20
142.3172138153
30
0.0000000000
10
295.2937933548
20
142.3172138153
30
0.0000000000
10
295.1826820664
20
142.3182202969
30
0.0000000000
10
295.1271299929
20
142.3189751353
30
0.0000000000
11
295.6271299929
21
142.3189751353
31
0.0000000000
11
295.4604652257
21
142.3174654340
31
0.0000000000
11
295.2937947601
21
142.3174654340
31
0.0000000000
11
295.1271299929
21
142.3189751353
31
0.0000000000
0
SPLINE
5
2DB
100
AcDbEntity
8
0
100
AcDbSpline
62
7
6
CONTINUOUS
70
0
71
3
72
17
73
13
74
11
42
0.0000001000
43
0.0000001000
44
0.0000000001
40
0.0000000000
40
0.0000000000
40
0.0000000000
40
0.0000000000
40
0.1003512400
40
0.2016962663
40
0.3010445312
40
0.3967461389
40
0.4908556442
40
0.5853401282
40
0.6833542248
40
0.7864422947
40
0.8926851432
40
1.0000000000
40
1.0000000000
40
1.0000000000
40
1.0000000000
10
289.6271299929
20
138.8105501935
30
0.0000000000
10
289.6271299929
20
139.0522951401
30
0.0000000000
10
289.6914922809
20
139.5410402218
30
0.0000000000
10
289.9835162698
20
140.2144369902
30
0.0000000000
10
290.4275748063
20
140.7818583130
30
0.0000000000
10
290.9628365851
20
141.2334568388
30
0.0000000000
10
291.5523529603
20
141.5865929643
30
0.0000000000
10
292.1870295109
20
141.8624079856
30
0.0000000000
10
292.8684393702
20
142.0733390895
30
0.0000000000
10
293.5947837711
20
142.2224110152
30
0.0000000000
10
294.3536682319
20
142.3081799130
30
0.0000000000
10
294.8686336384
20
142.3224875695
30
0.0000000000
10
295.1271299929
20
142.3189751353
30
0.0000000000
11
289.6271299929
21
138.8105501935
31
0.0000000000
11
289.7236750930
21
139.5293301435
31
0.0000000000
11
290.0124828300
21
140.2024011667
31
0.0000000000
11
290.4508958181
21
140.7709945946
31
0.0000000000
11
290.9765201922
21
141.2205210077
31
0.0000000000
11
291.5581892713
21
141.5729873451
31
0.0000000000
11
292.1834261474
21
141.8474756973
31
0.0000000000
11
292.8595134802
21
142.0587993593
31
0.0000000000
11
293.5890211409
21
142.2100083270
31
0.0000000000
11
294.3518775087
21
142.2971140217
31
0.0000000000
11
295.1271299929
21
142.3189751353
31
0.0000000000
0
SPLINE
5
2DC
100
AcDbEntity
8
0
100
AcDbSpline
62
7
6
CONTINUOUS
70
0
71
3
72
10
73
6
74
4
42
0.0000001000
43
0.0000001000
44
0.0000000001
40
0.0000000000
40
0.0000000000
40
0.0000000000
40
0.0000000000
40
0.3319886405
40
0.6654479417
40
1.0000000000
40
1.0000000000
40
1.0000000000
40
1.0000000000
10
283.3771299929
20
137.2912110838
30
0.0000000000
10
284.0038569685
20
136.8419608233
30
0.0000000000
10
285.3139291919
20
136.0139985533
30
0.0000000000
10
287.4109009622
20
135.0045980833
30
0.0000000000
10
288.8800391091
20
134.4933099392
30
0.0000000000
10
289.6271299929
20
134.2795679332
30
0.0000000000
11
283.3771299929
21
137.2912110838
31
0.0000000000
11
285.3322780101
21
136.0547205994
31
0.0000000000
11
287.4256379289
21
135.0463186079
31
0.0000000000
11
289.6271299929
21
134.2795679332
31
0.0000000000
0
SPLINE
5
2DD
100
AcDbEntity
8
0
100
AcDbSpline
62
7
6
CONTINUOUS
70
0
71
3
72
9
73
5
74
3
42
0.0000001000
43
0.0000001000
44
0.0000000001
40
0.0000000000
40
0.0000000000
40
0.0000000000
40
0.0000000000
40
0.5006973719
40
1.0000000000
40
1.0000000000
40
1.0000000000
40
1.0000000000
10
283.2205065198
20
137.4037357434
30
0.0000000000
10
283.2466261718
20
137.3849267331
30
0.0000000000
10
283.2988139735
20
137.3473906173
30
0.0000000000
10
283.3510424635
20
137.3099111396
30
0.0000000000
10
283.3771299929
20
137.2912110838
30
0.0000000000
11
283.2205065198
21
137.4037357434
31
0.0000000000
11
283.2988969626
21
137.3473524631
31
0.0000000000
11
283.3771299929
21
137.2912110838
31
0.0000000000
0
ENDSEC
0
SECTION
2
OBJECTS
0
DICTIONARY
5
2DE
100
AcDbDictionary
3
ACAD_GROUP
350
2DF
3
ACAD_MLINESTYLE
350
2E0
0
DICTIONARY
5
2DF
102
{ACAD_REACTORS
330
2DE
102
}
100
AcDbDictionary
0
DICTIONARY
5
2E0
102
{ACAD_REACTORS
330
2DE
102
}
100
AcDbDictionary
3
STANDARD
350
2E1
0
MLINESTYLE
5
2E1
102
{ACAD_REACTORS
330
2E0
102
}
100
AcDbMlineStyle
2
STANDARD
70
0
3

62
256
51
90.0
52
90.0
71
2
49
0.5
62
256
6
BYLAYER
49
-0.5
62
256
6
BYLAYER
0
ENDSEC
0
EOF
