999
DXF file: D:\CAD-ICE-neu\2-uwpp-8.dxf
999
Pro/ENGINEER 2005030 by Parametric Technology Corporation
0
SECTION
2
HEADER
9
$ACADVER
1
AC1014
9
$HANDSEED
5
       4F0
9
$EXTMAX
10
420.0000000000
20
297.0000000000
9
$EXTMIN
10
0.0000000000
20
0.0000000000
9
$LIMMIN
10
0.0000000000
20
0.0000000000
9
$LIMMAX
10
420.0000000000
20
297.0000000000
9
$VIEWCTR
10
210.0000000000
20
148.5000000000
9
$VIEWSIZE
40
297.0000000000
9
$CLAYER
8
0
9
$LTSCALE
40
23.1000000000
9
$CELTYPE
6
BYLAYER
9
$DIMSCALE
40
1
9
$DIMASZ
40
3.5000000000
9
$DIMEXO
40
2.6250000000
9
$DIMDLI
40
15.9600000000
9
$DIMEXE
40
7.5600000000
9
$DIMCEN
40
3.7800000000
9
$DIMLFAC
40
1.0000000000
9
$DIMTXT
40
3.5000000000
9
$DIMTOL
70
1
9
$DIMLIM
70
0
9
$DIMTFAC
40
1.0000000000
9
$DIMTP
40
0.0050000000
9
$DIMTM
40
0.0050000000
9
$MEASUREMENT
70
1
0
ENDSEC
0
SECTION
2
CLASSES
0
ENDSEC
0
SECTION
2
TABLES
0
TABLE
2
VPORT
5
8
100
AcDbSymbolTable
70
2
0
VPORT
5
1F4
100
AcDbSymbolTableRecord
100
AcDbViewportTableRecord
2
*ACTIVE
70
0
10
0.0
20
0.0
11
1.0
21
1.0
12
210.0000000000
22
148.5000000000
13
0.0
23
0.0
14
1.0
24
1.0
15
0.0
25
0.0
16
0.0
26
0.0
36
1.0
17
0.0
27
0.0
37
0.0
40
297.0000000000
41
1.4141414141
42
50.0
43
0.0
44
0.0
50
0.0
51
0.0
71
0
72
100
73
1
74
1
75
0
76
0
77
0
78
0
0
ENDTAB
0
TABLE
2
LTYPE
5
5
100
AcDbSymbolTable
70
6
0
LTYPE
5
14
100
AcDbSymbolTableRecord
100
AcDbLinetypeTableRecord
2
BYBLOCK
70
0
3

72
65
73
0
40
0.0
0
LTYPE
5
15
100
AcDbSymbolTableRecord
100
AcDbLinetypeTableRecord
2
BYLAYER
70
0
3

72
65
73
0
40
0.0
0
LTYPE
5
16
100
AcDbSymbolTableRecord
100
AcDbLinetypeTableRecord
2
CONTINUOUS
70
64
3
Solid line
72
65
73
0
40
0
0
LTYPE
5
1F5
100
AcDbSymbolTableRecord
100
AcDbLinetypeTableRecord
2
CENTER
70
64
3
____ _ ____ _ ____ _ ____ _ ____ _ ____ _ ____
72
65
73
4
40
0.6
49
0.375
74
0
49
-0.075
74
0
49
0.075
74
0
49
-0.075
74
0
0
LTYPE
5
1F6
100
AcDbSymbolTableRecord
100
AcDbLinetypeTableRecord
2
HIDDEN
70
64
3
- - - - - - - - - - - - - - - - - - - -
72
65
73
2
40
0.2
49
0.1
74
0
49
-0.1
74
0
0
LTYPE
5
1F7
100
AcDbSymbolTableRecord
100
AcDbLinetypeTableRecord
2
PHANTOM
70
64
3
_____ _ _ _____ _ _ _____ _ _ _____
72
65
73
6
40
0.8
49
0.45
74
0
49
-0.05
74
0
49
0.1
74
0
49
-0.05
74
0
49
0.1
74
0
49
-0.05
74
0
0
LTYPE
5
1F8
100
AcDbSymbolTableRecord
100
AcDbLinetypeTableRecord
2
DOT
70
64
3
. . . . . . . . . . . . . . . . . . . .
72
65
73
2
40
0.2
49
0.1
74
0
49
-0.1
74
0
0
LTYPE
5
1F9
100
AcDbSymbolTableRecord
100
AcDbLinetypeTableRecord
2
DASHED
70
64
3
- - - - - - - - - - - - - - - - - - - -
72
65
73
2
40
0.2
49
0.1
74
0
49
-0.1
74
0
0
ENDTAB
0
TABLE
2
LAYER
5
2
100
AcDbSymbolTable
70
36
0
LAYER
5
10
100
AcDbSymbolTableRecord
100
AcDbLayerTableRecord
2
0
70
0
62
7
6
CONTINUOUS
0
LAYER
5
1FA
100
AcDbSymbolTableRecord
100
AcDbLayerTableRecord
2
DEFAULT_1
70
0
62
7
6
CENTER
0
LAYER
5
1FB
100
AcDbSymbolTableRecord
100
AcDbLayerTableRecord
2
DEFAULT_2
70
0
62
8
6
HIDDEN
0
LAYER
5
1FC
100
AcDbSymbolTableRecord
100
AcDbLayerTableRecord
2
DEFAULT_3
70
0
62
7
6
PHANTOM
0
LAYER
5
1FD
100
AcDbSymbolTableRecord
100
AcDbLayerTableRecord
2
AUSFORMSCHRAEGEN
70
0
62
7
6
CONTINUOUS
0
LAYER
5
1FE
100
AcDbSymbolTableRecord
100
AcDbLayerTableRecord
2
BEZUGSACHSEN
70
0
62
7
6
CONTINUOUS
0
LAYER
5
1FF
100
AcDbSymbolTableRecord
100
AcDbLayerTableRecord
2
BEZUGSEBENEN
70
0
62
7
6
CONTINUOUS
0
LAYER
5
200
100
AcDbSymbolTableRecord
100
AcDbLayerTableRecord
2
BG_STARTBEZUEGE
70
0
62
7
6
CONTINUOUS
0
LAYER
5
201
100
AcDbSymbolTableRecord
100
AcDbLayerTableRecord
2
BOHRUNGEN
70
0
62
7
6
CONTINUOUS
0
LAYER
5
202
100
AcDbSymbolTableRecord
100
AcDbLayerTableRecord
2
FASEN
70
0
62
7
6
CONTINUOUS
0
LAYER
5
203
100
AcDbSymbolTableRecord
100
AcDbLayerTableRecord
2
FLAECHENVERBUND
70
0
62
7
6
CONTINUOUS
0
LAYER
5
204
100
AcDbSymbolTableRecord
100
AcDbLayerTableRecord
2
GEWINDE
70
0
62
7
6
CONTINUOUS
0
LAYER
5
205
100
AcDbSymbolTableRecord
100
AcDbLayerTableRecord
2
HILFEN
70
0
62
7
6
CONTINUOUS
0
LAYER
5
206
100
AcDbSymbolTableRecord
100
AcDbLayerTableRecord
2
KONSTRUKTIONSELEMENTE
70
0
62
7
6
CONTINUOUS
0
LAYER
5
207
100
AcDbSymbolTableRecord
100
AcDbLayerTableRecord
2
PLATZIERUNG
70
0
62
7
6
CONTINUOUS
0
LAYER
5
208
100
AcDbSymbolTableRecord
100
AcDbLayerTableRecord
2
PLAZIERUNG
70
0
62
7
6
CONTINUOUS
0
LAYER
5
209
100
AcDbSymbolTableRecord
100
AcDbLayerTableRecord
2
RUNDUNGEN
70
0
62
7
6
CONTINUOUS
0
LAYER
5
20A
100
AcDbSymbolTableRecord
100
AcDbLayerTableRecord
2
TEIL_STARTBEZUEGE
70
0
62
7
6
CONTINUOUS
0
LAYER
5
20B
100
AcDbSymbolTableRecord
100
AcDbLayerTableRecord
2
XSEC_DATUMS
70
0
62
7
6
CONTINUOUS
0
ENDTAB
0
TABLE
2
STYLE
5
3
100
AcDbSymbolTable
70
1
0
STYLE
5
11
100
AcDbSymbolTableRecord
100
AcDbTextStyleTableRecord
2
STANDARD
70
0
40
0.0
41
0.7000000000
50
0.0
71
0
42
0.2
3
txt
4

0
ENDTAB
0
TABLE
2
VIEW
5
6
100
AcDbSymbolTable
70
0
0
ENDTAB
0
TABLE
2
UCS
5
7
100
AcDbSymbolTable
70
0
0
ENDTAB
0
TABLE
2
APPID
5
9
100
AcDbSymbolTable
70
1
0
APPID
5
20C
100
AcDbSymbolTableRecord
100
AcDbRegAppTableRecord
2
ACAD
70
0
0
ENDTAB
0
TABLE
2
DIMSTYLE
5
A
100
AcDbSymbolTable
70
1
0
DIMSTYLE
105
20D
100
AcDbSymbolTableRecord
100
AcDbDimStyleTableRecord
2
STANDARD
70
0
3

4

5

6

7

40
1.0
41
3.5000000000
42
0.0625
43
0.38
44
0.18
45
0.0
46
0.0
47
0.0050000000
48
0.0050000000
140
3.5000000000
141
0.09
142
0.0
143
25.4
144
1.0000000000
145
0.0
146
1.0000000000
147
0.09
71
1
72
0
73
0
74
0
75
0
76
0
77
1
78
8
170
0
171
2
172
0
173
0
174
0
175
0
176
0
177
0
178
5
270
2
271
3
272
3
273
2
274
2
340
11
275
0
280
0
281
0
282
0
283
1
284
8
285
0
286
0
287
3
288
0
0
ENDTAB
0
TABLE
2
BLOCK_RECORD
5
1
100
AcDbSymbolTable
70
0
0
BLOCK_RECORD
5
1B
100
AcDbSymbolTableRecord
100
AcDbBlockTableRecord
2
*MODEL_SPACE
0
BLOCK_RECORD
5
1C
100
AcDbSymbolTableRecord
100
AcDbBlockTableRecord
2
*PAPER_SPACE
0
ENDTAB
0
ENDSEC
0
SECTION
2
BLOCKS
0
BLOCK
5
1E
100
AcDbEntity
8
0
100
AcDbBlockBegin
2
*MODEL_SPACE
70
0
10
0.0
20
0.0
30
0.0
3
*MODEL_SPACE
1

0
ENDBLK
5
1F
100
AcDbEntity
8
0
100
AcDbBlockEnd
0
BLOCK
5
20
100
AcDbEntity
8
0
100
AcDbBlockBegin
2
*PAPER_SPACE
70
0
10
0.0
20
0.0
30
0.0
3
*PAPER_SPACE
1

0
ENDBLK
5
21
100
AcDbEntity
8
0
100
AcDbBlockEnd
0
ENDSEC
0
SECTION
2
ENTITIES
0
LINE
5
20E
100
AcDbEntity
8
0
100
AcDbLine
62
7
6
CONTINUOUS
10
0.0000000000
20
0.0000000000
11
0.0000000000
21
297.0000000000
0
LINE
5
20F
100
AcDbEntity
8
0
100
AcDbLine
62
7
6
CONTINUOUS
10
0.0000000000
20
0.0000000000
11
420.0000000000
21
0.0000000000
0
LINE
5
210
100
AcDbEntity
8
0
100
AcDbLine
62
7
6
CONTINUOUS
10
0.0000000000
20
297.0000000000
11
420.0000000000
21
297.0000000000
0
LINE
5
211
100
AcDbEntity
8
0
100
AcDbLine
62
7
6
CONTINUOUS
10
420.0000000000
20
0.0000000000
11
420.0000000000
21
297.0000000000
0
LINE
5
212
100
AcDbEntity
8
0
100
AcDbLine
62
7
6
CONTINUOUS
10
88.1108204577
20
69.0269461889
11
81.9158388265
21
69.0269461889
0
LINE
5
213
100
AcDbEntity
8
0
100
AcDbLine
62
7
6
CONTINUOUS
10
56.6967984007
20
69.0269461889
11
50.5018167695
21
69.0269461889
0
LINE
5
214
100
AcDbEntity
8
0
100
AcDbLine
62
7
6
CONTINUOUS
10
46.3063186136
20
185.1269461889
11
50.5018167695
21
190.1269461889
0
LINE
5
215
100
AcDbEntity
8
0
100
AcDbLine
62
9
6
CONTINUOUS
10
46.7537429046
20
184.4395026971
11
50.5018167695
21
188.2275473908
0
LINE
5
216
100
AcDbEntity
8
0
100
AcDbLine
62
9
6
CONTINUOUS
10
56.6967984007
20
76.7192538812
11
48.5648453543
21
76.7192538812
0
LINE
5
217
100
AcDbEntity
8
0
100
AcDbLine
62
9
6
CONTINUOUS
10
81.9158388265
20
76.7192538812
11
90.0477918728
21
76.7192538812
0
LINE
5
218
100
AcDbEntity
8
0
100
AcDbLine
62
7
6
CONTINUOUS
10
64.6010192004
20
76.7269461889
11
74.0116180267
21
76.7269461889
0
LINE
5
219
100
AcDbEntity
8
0
100
AcDbLine
62
9
6
CONTINUOUS
10
46.7537429046
20
74.7143896806
11
50.5018167695
21
70.9263449869
0
LINE
5
21A
100
AcDbEntity
8
0
100
AcDbLine
62
7
6
CONTINUOUS
10
50.5018167695
20
69.0269461889
11
46.3063186136
21
74.0269461889
0
LINE
5
21B
100
AcDbEntity
8
0
100
AcDbLine
62
7
6
CONTINUOUS
10
50.3275951305
20
177.9651831195
11
50.0441909089
21
177.7497745446
0
LINE
5
21C
100
AcDbEntity
8
0
100
AcDbLine
62
7
6
CONTINUOUS
10
52.3114249459
20
177.6061693758
11
52.6892973736
21
177.8215779507
0
LINE
5
21D
100
AcDbEntity
8
0
100
AcDbLine
62
7
6
CONTINUOUS
10
53.3505739566
20
176.1701127579
11
52.9727015951
21
175.9547041830
0
LINE
5
21E
100
AcDbEntity
8
0
100
AcDbLine
62
7
6
CONTINUOUS
10
50.5165312782
20
177.6061693758
11
50.7999357644
21
177.7497745446
0
LINE
5
21F
100
AcDbEntity
8
0
100
AcDbLine
62
7
6
CONTINUOUS
10
51.2722761336
20
176.1701127579
11
50.9888719120
21
176.0265059457
0
LINE
5
220
100
AcDbEntity
8
0
100
AcDbLine
62
7
6
CONTINUOUS
10
51.0833399859
20
175.6674922021
11
51.4612122813
21
175.8110973708
0
LINE
5
221
100
AcDbEntity
8
0
100
AcDbLine
62
7
6
CONTINUOUS
10
50.7999357644
20
178.1087899317
11
50.3275951305
21
177.9651831195
0
LINE
5
222
100
AcDbEntity
8
0
100
AcDbLine
62
7
6
CONTINUOUS
10
52.6892973736
20
178.1805916943
11
52.2169568720
21
178.0369865256
0
LINE
5
223
100
AcDbEntity
8
0
100
AcDbLine
62
7
6
CONTINUOUS
10
52.9727015951
20
175.5956887960
11
53.4450420305
21
175.7392956082
0
LINE
5
224
100
AcDbEntity
8
0
100
AcDbLine
62
7
6
CONTINUOUS
10
56.2175387316
20
79.0269461889
11
47.6201215544
21
79.0269461889
0
LINE
5
225
100
AcDbEntity
8
0
100
AcDbLine
62
7
6
CONTINUOUS
10
82.3950984955
20
79.0269461889
11
90.9925156727
21
79.0269461889
0
LINE
5
226
100
AcDbEntity
8
DEFAULT_1
100
AcDbLine
62
2
6
CENTER
10
54.6063186136
20
81.5269461889
11
51.0438186136
21
81.5269461889
0
LINE
5
227
100
AcDbEntity
8
DEFAULT_1
100
AcDbLine
62
2
6
CENTER
10
54.6063186136
20
81.5269461889
11
93.4849930098
21
81.5269461889
0
LINE
5
228
100
AcDbEntity
8
0
100
AcDbLine
62
7
6
CONTINUOUS
10
52.8829050458
20
81.8308304998
11
53.4737896976
21
81.7266415932
0
LINE
5
229
100
AcDbEntity
8
0
100
AcDbLine
62
7
6
CONTINUOUS
10
50.0441909089
20
177.7497745446
11
49.7607866874
21
177.3907608010
0
LINE
5
22A
100
AcDbEntity
8
0
100
AcDbLine
62
7
6
CONTINUOUS
10
50.2331270566
20
177.3189573949
11
50.5165312782
21
177.6061693758
0
LINE
5
22B
100
AcDbEntity
8
0
100
AcDbLine
62
7
6
CONTINUOUS
10
52.2169568720
20
178.0369865256
11
51.9335526505
21
177.7497745446
0
LINE
5
22C
100
AcDbEntity
8
0
100
AcDbLine
62
7
6
CONTINUOUS
10
51.5556803551
20
176.4573230954
11
51.2722761336
21
176.1701127579
0
LINE
5
22D
100
AcDbEntity
8
0
100
AcDbLine
62
7
6
CONTINUOUS
10
51.4612122813
20
175.8110973708
11
51.7446165028
21
176.0265059457
0
LINE
5
22E
100
AcDbEntity
8
0
100
AcDbLine
62
7
6
CONTINUOUS
10
53.4450420305
20
175.7392956082
11
53.7284462851
21
175.9547041830
0
LINE
5
22F
100
AcDbEntity
8
0
100
AcDbLine
62
7
6
CONTINUOUS
10
50.2331270566
20
170.9285035550
11
50.4220632043
21
171.0721087238
0
LINE
5
230
100
AcDbEntity
8
0
100
AcDbLine
62
7
6
CONTINUOUS
10
50.4220632043
20
171.5029258735
11
50.0441909089
21
171.2875172987
0
LINE
5
231
100
AcDbEntity
8
0
100
AcDbLine
62
7
6
CONTINUOUS
10
52.8829050458
20
81.2230618779
11
53.4737896976
21
81.3272507845
0
LINE
5
232
100
AcDbEntity
8
0
100
AcDbLine
62
9
6
CONTINUOUS
10
81.9158388265
20
82.5269461889
11
77.7189335219
21
82.5269461889
0
LINE
5
233
100
AcDbEntity
8
0
100
AcDbLine
62
9
6
CONTINUOUS
10
56.6967984007
20
82.5269461889
11
60.8937037052
21
82.5269461889
0
LINE
5
234
100
AcDbEntity
8
0
100
AcDbLine
62
7
6
CONTINUOUS
10
47.5993915663
20
180.6003045781
11
48.5648453543
21
182.4346384965
0
LINE
5
235
100
AcDbEntity
8
0
100
AcDbLine
62
7
6
CONTINUOUS
10
45.5024710363
20
168.7346413434
11
43.6477140416
21
165.5221079930
0
LINE
5
236
100
AcDbEntity
8
0
100
AcDbLine
62
7
6
CONTINUOUS
10
51.9335526505
20
177.7497745446
11
51.8390845766
21
177.6061693758
0
LINE
5
237
100
AcDbEntity
8
0
100
AcDbLine
62
7
6
CONTINUOUS
10
52.1224887982
20
177.3189573949
11
52.3114249459
21
177.6061693758
0
LINE
5
238
100
AcDbEntity
8
0
100
AcDbLine
62
7
6
CONTINUOUS
10
51.7446165028
20
176.0265059457
11
51.8390845766
21
176.1701127579
0
LINE
5
239
100
AcDbEntity
8
0
100
AcDbLine
62
7
6
CONTINUOUS
10
53.7284462851
20
175.9547041830
11
54.0118505315
21
176.3137179267
0
LINE
5
23A
100
AcDbEntity
8
0
100
AcDbLine
62
7
6
CONTINUOUS
10
50.0441909089
20
171.2875172987
11
49.7607866874
21
171.0003069611
0
LINE
5
23B
100
AcDbEntity
8
0
100
AcDbLine
62
7
6
CONTINUOUS
10
50.0441909089
20
168.0563894974
11
49.7607866874
21
167.7691775165
0
LINE
5
23C
100
AcDbEntity
8
0
100
AcDbLine
62
7
6
CONTINUOUS
10
50.2331270566
20
167.6973749321
11
50.4220632043
21
167.8409809226
0
LINE
5
23D
100
AcDbEntity
8
0
100
AcDbLine
62
7
6
CONTINUOUS
10
50.4220632043
20
168.2717980723
11
50.0441909089
21
168.0563894974
0
LINE
5
23E
100
AcDbEntity
8
0
100
AcDbLine
62
7
6
CONTINUOUS
10
63.5955410691
20
86.3269461889
11
75.0200041520
21
86.3269461889
0
LINE
5
23F
100
AcDbEntity
8
0
100
AcDbLine
62
9
6
CONTINUOUS
10
92.3063186136
20
87.4192510343
11
90.9925156727
21
87.4192510343
0
LINE
5
240
100
AcDbEntity
8
0
100
AcDbLine
62
9
6
CONTINUOUS
10
46.3063186136
20
87.4192510343
11
47.6201215544
21
87.4192510343
0
LINE
5
241
100
AcDbEntity
8
0
100
AcDbLine
62
7
6
CONTINUOUS
10
45.5024710363
20
90.4192510343
11
43.6477140416
21
93.6317843847
0
LINE
5
242
100
AcDbEntity
8
0
100
AcDbLine
62
7
6
CONTINUOUS
10
47.5993915663
20
78.5535877996
11
48.5648453543
21
76.7192538812
0
LINE
5
243
100
AcDbEntity
8
0
100
AcDbLine
62
7
6
CONTINUOUS
10
53.5395101043
20
176.4573230954
11
53.3505739566
21
176.1701127579
0
LINE
5
244
100
AcDbEntity
8
0
100
AcDbLine
62
9
6
CONTINUOUS
10
59.1691369997
20
89.2310246411
11
61.0419783309
21
89.7328509633
0
LINE
5
245
100
AcDbEntity
8
0
100
AcDbLine
62
9
6
CONTINUOUS
10
79.4435002274
20
89.2310246411
11
77.5706588963
21
89.7328509633
0
LINE
5
246
100
AcDbEntity
8
0
100
AcDbLine
62
7
6
CONTINUOUS
10
49.7607866874
20
177.3907608010
11
49.6663186136
21
177.0317470574
0
LINE
5
247
100
AcDbEntity
8
0
100
AcDbLine
62
7
6
CONTINUOUS
10
50.1386589828
20
177.0317470574
11
50.2331270566
21
177.3189573949
0
LINE
5
248
100
AcDbEntity
8
0
100
AcDbLine
62
7
6
CONTINUOUS
10
51.6501484290
20
176.7445350764
11
51.5556803551
21
176.4573230954
0
LINE
5
249
100
AcDbEntity
8
0
100
AcDbLine
62
7
6
CONTINUOUS
10
52.0280207243
20
177.0317470574
11
52.1224887982
21
177.3189573949
0
LINE
5
24A
100
AcDbEntity
8
0
100
AcDbLine
62
7
6
CONTINUOUS
10
50.1386589828
20
170.7130949802
11
50.2331270566
21
170.9285035550
0
LINE
5
24B
100
AcDbEntity
8
0
100
AcDbLine
62
7
6
CONTINUOUS
10
50.1386589828
20
167.4819663572
11
50.2331270566
21
167.6973749321
0
LINE
5
24C
100
AcDbEntity
8
0
100
AcDbLine
62
7
6
CONTINUOUS
10
53.4450420305
20
157.7885804883
11
53.2561058166
21
157.5731719135
0
LINE
5
24D
100
AcDbEntity
8
0
100
AcDbLine
62
7
6
CONTINUOUS
10
53.4450420305
20
157.1423547637
11
53.8229143590
21
157.4295661798
0
LINE
5
24E
100
AcDbEntity
8
0
100
AcDbLine
62
7
6
CONTINUOUS
10
53.2561058166
20
157.5731719135
11
52.9727015951
21
157.4295661798
0
LINE
5
24F
100
AcDbEntity
8
0
100
AcDbLine
62
7
6
CONTINUOUS
10
53.0671696690
20
156.9987490493
11
53.4450420305
21
157.1423547637
0
LINE
5
250
100
AcDbEntity
8
0
100
AcDbLine
62
9
6
CONTINUOUS
10
57.7347150833
20
94.4263443678
11
59.6470603507
21
94.9387557378
0
LINE
5
251
100
AcDbEntity
8
0
100
AcDbLine
62
9
6
CONTINUOUS
10
80.8779221439
20
94.4263443678
11
78.9655768765
21
94.9387557378
0
LINE
5
252
100
AcDbEntity
8
0
100
AcDbLine
62
7
6
CONTINUOUS
10
42.8063186136
20
115.0269461889
11
42.8063186136
21
96.7652178649
0
LINE
5
253
100
AcDbEntity
8
0
100
AcDbLine
62
7
6
CONTINUOUS
10
43.3063186136
20
164.8378784883
11
43.3063186136
21
122.6063301703
0
LINE
5
254
100
AcDbEntity
8
0
100
AcDbLine
62
7
6
CONTINUOUS
10
49.7607866874
20
171.0003069611
11
49.6663186136
21
170.6412923958
0
LINE
5
255
100
AcDbEntity
8
0
100
AcDbLine
62
7
6
CONTINUOUS
10
49.7607866874
20
167.7691775165
11
49.6663186136
21
167.4101637728
0
LINE
5
256
100
AcDbEntity
8
0
100
AcDbLine
62
7
6
CONTINUOUS
10
54.0118505315
20
176.3137179267
11
54.1063186136
21
176.6727316703
0
LINE
5
257
100
AcDbEntity
8
0
100
AcDbLine
62
7
6
CONTINUOUS
10
53.6339781782
20
176.7445350764
11
53.5395101043
21
176.4573230954
0
LINE
5
258
100
AcDbEntity
8
0
100
AcDbLine
62
7
6
CONTINUOUS
10
53.8229143590
20
157.4295661798
11
54.0118505315
21
157.7167776471
0
LINE
5
259
100
AcDbEntity
8
0
100
AcDbLine
62
9
6
CONTINUOUS
10
58.4886255305
20
102.6741062092
11
45.9396757225
21
102.6741062092
0
LINE
5
25A
100
AcDbEntity
8
0
100
AcDbLine
62
9
6
CONTINUOUS
10
80.1240116967
20
102.6741062092
11
92.6729615047
21
102.6741062092
0
LINE
5
25B
100
AcDbEntity
8
0
100
AcDbLine
62
7
6
CONTINUOUS
10
45.9396757225
20
102.6741062092
11
45.9396472540
21
94.5976550308
0
LINE
5
25C
100
AcDbEntity
8
0
100
AcDbLine
62
7
6
CONTINUOUS
10
46.3063186136
20
185.1269461889
11
46.3063186136
21
181.8769461889
0
LINE
5
25D
100
AcDbEntity
8
0
100
AcDbLine
62
7
6
CONTINUOUS
10
46.3063186136
20
173.3769461889
11
46.3063186136
21
171.7346413434
0
LINE
5
25E
100
AcDbEntity
8
0
100
AcDbLine
62
7
6
CONTINUOUS
10
46.3063186136
20
74.0269461889
11
46.3063186136
21
76.6269461889
0
LINE
5
25F
100
AcDbEntity
8
0
100
AcDbLine
62
7
6
CONTINUOUS
10
46.3063186136
20
86.4269461889
11
46.3063186136
21
87.4192510343
0
LINE
5
260
100
AcDbEntity
8
0
100
AcDbLine
62
7
6
CONTINUOUS
10
46.5082923832
20
167.5241399397
11
46.5082923832
21
156.4797861685
0
LINE
5
261
100
AcDbEntity
8
0
100
AcDbLine
62
7
6
CONTINUOUS
10
47.6201215544
20
180.1269461889
11
47.6201215544
21
171.7346413434
0
LINE
5
262
100
AcDbEntity
8
0
100
AcDbLine
62
7
6
CONTINUOUS
10
47.6201215544
20
79.0269461889
11
47.6201215544
21
87.4192510343
0
LINE
5
263
100
AcDbEntity
8
0
100
AcDbLine
62
7
6
CONTINUOUS
10
54.0118505315
20
157.7167776471
11
54.1063186136
21
158.0757919557
0
LINE
5
264
100
AcDbEntity
8
0
100
AcDbLine
62
7
6
CONTINUOUS
10
53.5395101043
20
158.0757919557
11
53.4450420305
21
157.7885804883
0
LINE
5
265
100
AcDbEntity
8
0
100
AcDbLine
62
9
6
CONTINUOUS
10
93.1101661909
20
168.7346413434
11
92.1005920031
21
168.1517634144
0
LINE
5
266
100
AcDbEntity
8
0
100
AcDbLine
62
9
6
CONTINUOUS
10
93.1101661909
20
90.4192510343
11
92.1005920031
21
91.0021289633
0
LINE
5
267
100
AcDbEntity
8
0
100
AcDbLine
62
7
6
CONTINUOUS
10
45.8063186136
20
119.6269461889
11
43.3063186136
21
122.6063301703
0
LINE
5
268
100
AcDbEntity
8
0
100
AcDbLine
62
7
6
CONTINUOUS
10
47.6201215544
20
180.1269461889
11
47.5993915663
21
180.6003045781
0
LINE
5
269
100
AcDbEntity
8
0
100
AcDbLine
62
7
6
CONTINUOUS
10
49.6663186136
20
177.0317470574
11
49.6663186136
21
176.7445350764
0
LINE
5
26A
100
AcDbEntity
8
0
100
AcDbLine
62
7
6
CONTINUOUS
10
49.6663186136
20
170.6412923958
11
49.6663186136
21
168.9180237969
0
LINE
5
26B
100
AcDbEntity
8
0
100
AcDbLine
62
7
6
CONTINUOUS
10
49.6663186136
20
167.4101637728
11
49.6663186136
21
165.6868951739
0
LINE
5
26C
100
AcDbEntity
8
0
100
AcDbLine
62
7
6
CONTINUOUS
10
49.6663186136
20
163.5328090144
11
49.6663186136
21
163.1019918647
0
LINE
5
26D
100
AcDbEntity
8
0
100
AcDbLine
62
7
6
CONTINUOUS
10
49.6663186136
20
162.0967519856
11
49.6663186136
21
161.5223292563
0
LINE
5
26E
100
AcDbEntity
8
0
100
AcDbLine
62
7
6
CONTINUOUS
10
49.6663186136
20
160.5170889663
11
49.6663186136
21
160.0862720220
0
LINE
5
26F
100
AcDbEntity
8
0
100
AcDbLine
62
7
6
CONTINUOUS
10
49.6663186136
20
159.5118490872
11
49.6663186136
21
159.0810319375
0
LINE
5
270
100
AcDbEntity
8
0
100
AcDbLine
62
7
6
CONTINUOUS
10
49.6663186136
20
157.3577633386
11
49.6663186136
21
156.9269461889
0
LINE
5
271
100
AcDbEntity
8
0
100
AcDbLine
62
7
6
CONTINUOUS
10
50.1386589828
20
166.1177123236
11
50.1386589828
21
167.4819663572
0
LINE
5
272
100
AcDbEntity
8
0
100
AcDbLine
62
7
6
CONTINUOUS
10
50.1386589828
20
169.3488409466
11
50.1386589828
21
170.7130949802
0
LINE
5
273
100
AcDbEntity
8
0
100
AcDbLine
62
7
6
CONTINUOUS
10
50.1386589828
20
176.7445350764
11
50.1386589828
21
177.0317470574
0
LINE
5
274
100
AcDbEntity
8
0
100
AcDbLine
62
7
6
CONTINUOUS
10
50.5018167695
20
69.0269461889
11
50.5018167695
21
70.9263449869
0
LINE
5
275
100
AcDbEntity
8
0
100
AcDbLine
62
7
6
CONTINUOUS
10
50.5018167695
20
188.2275473908
11
50.5018167695
21
190.1269461889
0
LINE
5
276
100
AcDbEntity
8
0
100
AcDbLine
62
7
6
CONTINUOUS
10
51.0563186136
20
119.6269461889
11
51.0563186136
21
119.3269461889
0
LINE
5
277
100
AcDbEntity
8
0
100
AcDbLine
62
7
6
CONTINUOUS
10
51.0563186136
20
115.3269461889
11
51.0563186136
21
115.0269461889
0
LINE
5
278
100
AcDbEntity
8
0
100
AcDbLine
62
7
6
CONTINUOUS
10
51.5556803551
20
170.7130949802
11
51.5556803551
21
169.3488409466
0
LINE
5
279
100
AcDbEntity
8
0
100
AcDbLine
62
7
6
CONTINUOUS
10
51.5556803551
20
167.4819663572
11
51.5556803551
21
166.1177123236
0
LINE
5
27A
100
AcDbEntity
8
0
100
AcDbLine
62
7
6
CONTINUOUS
10
51.6501484290
20
177.0317470574
11
51.6501484290
21
176.7445350764
0
LINE
5
27B
100
AcDbEntity
8
0
100
AcDbLine
62
7
6
CONTINUOUS
10
52.0280207243
20
165.1124720337
11
52.0280207243
21
164.1072317438
0
LINE
5
27C
100
AcDbEntity
8
0
100
AcDbLine
62
7
6
CONTINUOUS
10
52.0280207243
20
176.7445350764
11
52.0280207243
21
177.0317470574
0
LINE
5
27D
100
AcDbEntity
8
0
100
AcDbLine
62
7
6
CONTINUOUS
10
52.1224887982
20
166.1177123236
11
52.1224887982
21
167.4101637728
0
LINE
5
27E
100
AcDbEntity
8
0
100
AcDbLine
62
7
6
CONTINUOUS
10
52.1224887982
20
169.3488409466
11
52.1224887982
21
170.6412923958
0
LINE
5
27F
100
AcDbEntity
8
0
100
AcDbLine
62
7
6
CONTINUOUS
10
47.6201215544
20
79.0269461889
11
47.5993915663
21
78.5535877996
0
LINE
5
280
100
AcDbEntity
8
0
100
AcDbLine
62
7
6
CONTINUOUS
10
58.9559114511
20
169.2851149006
11
57.7347150833
21
164.7275480099
0
LINE
5
281
100
AcDbEntity
8
0
100
AcDbLine
62
7
6
CONTINUOUS
10
59.6470603507
20
164.2151366399
11
61.0419783309
21
169.4210414144
0
LINE
5
282
100
AcDbEntity
8
0
100
AcDbLine
62
9
6
CONTINUOUS
10
51.0924691288
20
110.5756129340
11
87.5201680984
21
110.5756129340
0
LINE
5
283
100
AcDbEntity
8
0
100
AcDbLine
62
7
6
CONTINUOUS
10
58.9559114511
20
89.8687774771
11
57.7347150833
21
94.4263443678
0
LINE
5
284
100
AcDbEntity
8
0
100
AcDbLine
62
7
6
CONTINUOUS
10
59.6470603507
20
94.9387557378
11
61.0419783309
21
89.7328509633
0
LINE
5
285
100
AcDbEntity
8
0
100
AcDbLine
62
7
6
CONTINUOUS
10
52.5003612259
20
164.1072317438
11
52.5003612259
21
165.1124720337
0
LINE
5
286
100
AcDbEntity
8
0
100
AcDbLine
62
7
6
CONTINUOUS
10
53.5395101043
20
158.3630033204
11
53.5395101043
21
158.0757919557
0
LINE
5
287
100
AcDbEntity
8
0
100
AcDbLine
62
7
6
CONTINUOUS
10
53.6339781782
20
177.0317470574
11
53.6339781782
21
176.7445350764
0
LINE
5
288
100
AcDbEntity
8
0
100
AcDbLine
62
7
6
CONTINUOUS
10
54.1063186136
20
158.0757919557
11
54.1063186136
21
158.3630033204
0
LINE
5
289
100
AcDbEntity
8
0
100
AcDbLine
62
7
6
CONTINUOUS
10
54.1063186136
20
160.6606949568
11
54.1063186136
21
161.2351176861
0
LINE
5
28A
100
AcDbEntity
8
0
100
AcDbLine
62
7
6
CONTINUOUS
10
54.1063186136
20
162.3839635557
11
54.1063186136
21
162.9583862851
0
LINE
5
28B
100
AcDbEntity
8
0
100
AcDbLine
62
7
6
CONTINUOUS
10
54.1063186136
20
165.6868951739
11
54.1063186136
21
166.1177123236
0
LINE
5
28C
100
AcDbEntity
8
0
100
AcDbLine
62
7
6
CONTINUOUS
10
54.1063186136
20
168.9180237969
11
54.1063186136
21
169.3488409466
0
LINE
5
28D
100
AcDbEntity
8
0
100
AcDbLine
62
7
6
CONTINUOUS
10
54.1063186136
20
176.6727316703
11
54.1063186136
21
177.1035488200
0
LINE
5
28E
100
AcDbEntity
8
DEFAULT_1
100
AcDbLine
62
2
6
CENTER
10
54.6063186136
20
81.5269461889
11
54.6063186136
21
77.9644461889
0
LINE
5
28F
100
AcDbEntity
8
DEFAULT_1
100
AcDbLine
62
2
6
CENTER
10
54.6063186136
20
81.5269461889
11
54.6063186136
21
85.0894461889
0
LINE
5
290
100
AcDbEntity
8
0
100
AcDbLine
62
7
6
CONTINUOUS
10
95.8063186136
20
115.0269461889
11
42.8063186136
21
115.0269461889
0
LINE
5
291
100
AcDbEntity
8
0
100
AcDbLine
62
7
6
CONTINUOUS
10
91.7382478155
20
115.3269461889
11
46.8743969879
21
115.3269461889
0
LINE
5
292
100
AcDbEntity
8
0
100
AcDbLine
62
7
6
CONTINUOUS
10
56.6967984007
20
177.6269461889
11
56.6967984007
21
176.6269461889
0
LINE
5
293
100
AcDbEntity
8
0
100
AcDbLine
62
7
6
CONTINUOUS
10
56.6967984007
20
69.0269461889
11
56.6967984007
21
76.7192538812
0
LINE
5
294
100
AcDbEntity
8
0
100
AcDbLine
62
7
6
CONTINUOUS
10
56.6967984007
20
82.3590485022
11
56.6967984007
21
82.5269461889
0
LINE
5
295
100
AcDbEntity
8
0
100
AcDbLine
62
7
6
CONTINUOUS
10
56.6967984007
20
182.4346384965
11
56.6967984007
21
190.1269461889
0
LINE
5
296
100
AcDbEntity
8
0
100
AcDbLine
62
7
6
CONTINUOUS
10
60.8937037052
20
177.6269461889
11
60.8937037052
21
176.6269461889
0
LINE
5
297
100
AcDbEntity
8
0
100
AcDbLine
62
7
6
CONTINUOUS
10
60.8937037052
20
81.5269461889
11
60.8937037052
21
82.5269461889
0
LINE
5
298
100
AcDbEntity
8
0
100
AcDbLine
62
7
6
CONTINUOUS
10
46.7537429046
20
74.7143896806
11
47.5993915663
21
78.5535877996
0
LINE
5
299
100
AcDbEntity
8
0
100
AcDbLine
62
7
6
CONTINUOUS
10
91.7382478155
20
119.3269461889
11
46.8743969879
21
119.3269461889
0
LINE
5
29A
100
AcDbEntity
8
0
100
AcDbLine
62
7
6
CONTINUOUS
10
45.8063186136
20
119.6269461889
11
92.8063186136
21
119.6269461889
0
LINE
5
29B
100
AcDbEntity
8
0
100
AcDbLine
62
7
6
CONTINUOUS
10
46.7537429046
20
184.4395026971
11
47.5993915663
21
180.6003045781
0
LINE
5
29C
100
AcDbEntity
8
0
100
AcDbLine
62
7
6
CONTINUOUS
10
63.7341651887
20
83.6297608092
11
63.7341651887
21
73.8097402260
0
LINE
5
29D
100
AcDbEntity
8
0
100
AcDbLine
62
7
6
CONTINUOUS
10
63.7341651887
20
175.5241315686
11
63.7341651887
21
185.3441521517
0
LINE
5
29E
100
AcDbEntity
8
0
100
AcDbLine
62
7
6
CONTINUOUS
10
64.7563186136
20
76.6269461889
11
64.7563186136
21
71.6547854095
0
LINE
5
29F
100
AcDbEntity
8
0
100
AcDbLine
62
7
6
CONTINUOUS
10
64.7563186136
20
182.5269461889
11
64.7563186136
21
187.4991069682
0
LINE
5
2A0
100
AcDbEntity
8
0
100
AcDbLine
62
7
6
CONTINUOUS
10
95.3063186136
20
122.6063301703
11
43.3063186136
21
122.6063301703
0
LINE
5
2A1
100
AcDbEntity
8
0
100
AcDbLine
62
7
6
CONTINUOUS
10
53.4450420305
20
158.6502147878
11
53.5395101043
21
158.3630033204
0
LINE
5
2A2
100
AcDbEntity
8
0
100
AcDbLine
62
7
6
CONTINUOUS
10
54.1063186136
20
158.3630033204
11
54.0118505315
21
158.7220175776
0
LINE
5
2A3
100
AcDbEntity
8
0
100
AcDbLine
62
7
6
CONTINUOUS
10
52.1224887982
20
167.4101637728
11
52.0280207243
21
167.7691775165
0
LINE
5
2A4
100
AcDbEntity
8
0
100
AcDbLine
62
7
6
CONTINUOUS
10
49.6663186136
20
176.7445350764
11
49.7607866874
21
176.3855213328
0
LINE
5
2A5
100
AcDbEntity
8
0
100
AcDbLine
62
7
6
CONTINUOUS
10
52.1224887982
20
170.6412923958
11
52.0280207243
21
171.0003069611
0
LINE
5
2A6
100
AcDbEntity
8
DEFAULT_1
100
AcDbLine
62
2
6
CENTER
10
69.3063186136
20
66.8629485030
11
69.3063186136
21
189.6119811936
0
LINE
5
2A7
100
AcDbEntity
8
0
100
AcDbLine
62
7
6
CONTINUOUS
10
51.4612122813
20
167.6973749321
11
51.5556803551
21
167.4819663572
0
LINE
5
2A8
100
AcDbEntity
8
0
100
AcDbLine
62
7
6
CONTINUOUS
10
51.4612122813
20
170.9285035550
11
51.5556803551
21
170.7130949802
0
LINE
5
2A9
100
AcDbEntity
8
0
100
AcDbLine
62
7
6
CONTINUOUS
10
50.2331270566
20
176.4573230954
11
50.1386589828
21
176.7445350764
0
LINE
5
2AA
100
AcDbEntity
8
0
100
AcDbLine
62
7
6
CONTINUOUS
10
51.5556803551
20
177.3189573949
11
51.6501484290
21
177.0317470574
0
LINE
5
2AB
100
AcDbEntity
8
0
100
AcDbLine
62
7
6
CONTINUOUS
10
52.1224887982
20
176.4573230954
11
52.0280207243
21
176.7445350764
0
LINE
5
2AC
100
AcDbEntity
8
0
100
AcDbLine
62
7
6
CONTINUOUS
10
53.5395101043
20
177.3189573949
11
53.6339781782
21
177.0317470574
0
LINE
5
2AD
100
AcDbEntity
8
0
100
AcDbLine
62
7
6
CONTINUOUS
10
54.1063186136
20
177.1035488200
11
54.0118505315
21
177.4625642071
0
LINE
5
2AE
100
AcDbEntity
8
0
100
AcDbLine
62
7
6
CONTINUOUS
10
73.8563186136
20
76.6269461889
11
73.8563186136
21
71.6547854095
0
LINE
5
2AF
100
AcDbEntity
8
0
100
AcDbLine
62
7
6
CONTINUOUS
10
73.8563186136
20
182.5269461889
11
73.8563186136
21
187.4991069682
0
LINE
5
2B0
100
AcDbEntity
8
0
100
AcDbLine
62
7
6
CONTINUOUS
10
54.0118505315
20
158.7220175776
11
53.8229143590
21
159.0092291477
0
LINE
5
2B1
100
AcDbEntity
8
0
100
AcDbLine
62
7
6
CONTINUOUS
10
74.8784720384
20
83.6297608092
11
74.8784720384
21
73.8097402260
0
LINE
5
2B2
100
AcDbEntity
8
0
100
AcDbLine
62
7
6
CONTINUOUS
10
74.8784720384
20
175.5241315686
11
74.8784720384
21
185.3441521517
0
LINE
5
2B3
100
AcDbEntity
8
0
100
AcDbLine
62
7
6
CONTINUOUS
10
77.7189335219
20
177.6269461889
11
77.7189335219
21
176.6269461889
0
LINE
5
2B4
100
AcDbEntity
8
0
100
AcDbLine
62
7
6
CONTINUOUS
10
77.7189335219
20
81.5269461889
11
77.7189335219
21
82.5269461889
0
LINE
5
2B5
100
AcDbEntity
8
0
100
AcDbLine
62
7
6
CONTINUOUS
10
53.2561058166
20
158.8656233626
11
53.4450420305
21
158.6502147878
0
LINE
5
2B6
100
AcDbEntity
8
0
100
AcDbLine
62
7
6
CONTINUOUS
10
81.9158388265
20
190.1269461889
11
81.9158388265
21
182.4346384965
0
LINE
5
2B7
100
AcDbEntity
8
0
100
AcDbLine
62
7
6
CONTINUOUS
10
81.9158388265
20
177.6269461889
11
81.9158388265
21
176.6269461889
0
LINE
5
2B8
100
AcDbEntity
8
0
100
AcDbLine
62
7
6
CONTINUOUS
10
81.9158388265
20
76.7192538812
11
81.9158388265
21
69.0269461889
0
LINE
5
2B9
100
AcDbEntity
8
0
100
AcDbLine
62
7
6
CONTINUOUS
10
81.9158388265
20
81.5269461889
11
81.9158388265
21
82.5269461889
0
LINE
5
2BA
100
AcDbEntity
8
0
100
AcDbLine
62
7
6
CONTINUOUS
10
91.8588943226
20
184.4395026971
11
91.0132456609
21
180.6003045781
0
LINE
5
2BB
100
AcDbEntity
8
0
100
AcDbLine
62
7
6
CONTINUOUS
10
49.7607866874
20
176.3855213328
11
50.0441909089
21
176.0265059457
0
LINE
5
2BC
100
AcDbEntity
8
0
100
AcDbLine
62
7
6
CONTINUOUS
10
51.8390845766
20
176.1701127579
11
51.9335526505
21
176.0265059457
0
LINE
5
2BD
100
AcDbEntity
8
0
100
AcDbLine
62
7
6
CONTINUOUS
10
52.3114249459
20
176.1701127579
11
52.1224887982
21
176.4573230954
0
LINE
5
2BE
100
AcDbEntity
8
0
100
AcDbLine
62
7
6
CONTINUOUS
10
51.8390845766
20
177.6061693758
11
51.7446165028
21
177.7497745446
0
LINE
5
2BF
100
AcDbEntity
8
0
100
AcDbLine
62
7
6
CONTINUOUS
10
53.3505739566
20
177.6061693758
11
53.5395101043
21
177.3189573949
0
LINE
5
2C0
100
AcDbEntity
8
0
100
AcDbLine
62
7
6
CONTINUOUS
10
91.8588943226
20
74.7143896806
11
91.0132456609
21
78.5535877996
0
LINE
5
2C1
100
AcDbEntity
8
DEFAULT_1
100
AcDbLine
62
2
6
CENTER
10
84.0063186136
20
177.6269461889
11
84.0063186136
21
174.1894461889
0
LINE
5
2C2
100
AcDbEntity
8
DEFAULT_1
100
AcDbLine
62
2
6
CENTER
10
84.0063186136
20
177.6269461889
11
84.0063186136
21
181.0644461889
0
LINE
5
2C3
100
AcDbEntity
8
0
100
AcDbLine
62
7
6
CONTINUOUS
10
53.8229143590
20
159.0092291477
11
53.4450420305
21
159.2964405124
0
LINE
5
2C4
100
AcDbEntity
8
0
100
AcDbLine
62
7
6
CONTINUOUS
10
52.0280207243
20
167.7691775165
11
51.7446165028
21
168.0563894974
0
LINE
5
2C5
100
AcDbEntity
8
0
100
AcDbLine
62
7
6
CONTINUOUS
10
52.0280207243
20
171.0003069611
11
51.7446165028
21
171.2875172987
0
LINE
5
2C6
100
AcDbEntity
8
0
100
AcDbLine
62
7
6
CONTINUOUS
10
54.0118505315
20
177.4625642071
11
53.7284462851
21
177.8215779507
0
LINE
5
2C7
100
AcDbEntity
8
0
100
AcDbLine
62
7
6
CONTINUOUS
10
90.9925156727
20
79.0269461889
11
91.0132456609
21
78.5535877996
0
LINE
5
2C8
100
AcDbEntity
8
0
100
AcDbLine
62
7
6
CONTINUOUS
10
87.5563186136
20
119.6269461889
11
87.5563186136
21
119.3269461889
0
LINE
5
2C9
100
AcDbEntity
8
0
100
AcDbLine
62
7
6
CONTINUOUS
10
87.5563186136
20
115.3269461889
11
87.5563186136
21
115.0269461889
0
LINE
5
2CA
100
AcDbEntity
8
0
100
AcDbLine
62
7
6
CONTINUOUS
10
88.1108204577
20
190.1269461889
11
88.1108204577
21
188.2275473908
0
LINE
5
2CB
100
AcDbEntity
8
0
100
AcDbLine
62
7
6
CONTINUOUS
10
88.1108204577
20
70.9263449869
11
88.1108204577
21
69.0269461889
0
LINE
5
2CC
100
AcDbEntity
8
0
100
AcDbLine
62
7
6
CONTINUOUS
10
90.9925156727
20
180.1269461889
11
90.9925156727
21
171.7346413434
0
LINE
5
2CD
100
AcDbEntity
8
0
100
AcDbLine
62
7
6
CONTINUOUS
10
90.9925156727
20
79.0269461889
11
90.9925156727
21
87.4192510343
0
LINE
5
2CE
100
AcDbEntity
8
0
100
AcDbLine
62
7
6
CONTINUOUS
10
90.9925156727
20
180.1269461889
11
91.0132456609
21
180.6003045781
0
LINE
5
2CF
100
AcDbEntity
8
0
100
AcDbLine
62
7
6
CONTINUOUS
10
78.9655768765
20
94.9387557378
11
77.5706588963
21
89.7328509633
0
LINE
5
2D0
100
AcDbEntity
8
0
100
AcDbLine
62
7
6
CONTINUOUS
10
79.6567257760
20
89.8687774771
11
80.8779221439
21
94.4263443678
0
LINE
5
2D1
100
AcDbEntity
8
0
100
AcDbLine
62
9
6
CONTINUOUS
10
45.5024710363
20
90.4192510343
11
46.5120452240
21
91.0021289633
0
LINE
5
2D2
100
AcDbEntity
8
0
100
AcDbLine
62
9
6
CONTINUOUS
10
51.8279230049
20
148.5782794437
11
86.7847143993
21
148.5782794688
0
LINE
5
2D3
100
AcDbEntity
8
0
100
AcDbLine
62
7
6
CONTINUOUS
10
53.4450420305
20
159.2964405124
11
53.0671696690
21
159.4400462974
0
LINE
5
2D4
100
AcDbEntity
8
0
100
AcDbLine
62
7
6
CONTINUOUS
10
52.9727015951
20
159.0092291477
11
53.2561058166
21
158.8656233626
0
LINE
5
2D5
100
AcDbEntity
8
0
100
AcDbLine
62
9
6
CONTINUOUS
10
45.5024710363
20
168.7346413434
11
46.5120452240
21
168.1517634144
0
LINE
5
2D6
100
AcDbEntity
8
0
100
AcDbLine
62
7
6
CONTINUOUS
10
51.2722761336
20
167.8409809226
11
51.4612122813
21
167.6973749321
0
LINE
5
2D7
100
AcDbEntity
8
0
100
AcDbLine
62
7
6
CONTINUOUS
10
51.2722761336
20
171.0721087238
11
51.4612122813
21
170.9285035550
0
LINE
5
2D8
100
AcDbEntity
8
0
100
AcDbLine
62
7
6
CONTINUOUS
10
50.5165312782
20
176.1701127579
11
50.2331270566
21
176.4573230954
0
LINE
5
2D9
100
AcDbEntity
8
0
100
AcDbLine
62
7
6
CONTINUOUS
10
51.9335526505
20
176.0265059457
11
52.2169568720
21
175.7392956082
0
LINE
5
2DA
100
AcDbEntity
8
0
100
AcDbLine
62
7
6
CONTINUOUS
10
51.2722761336
20
177.6061693758
11
51.5556803551
21
177.3189573949
0
LINE
5
2DB
100
AcDbEntity
8
0
100
AcDbLine
62
7
6
CONTINUOUS
10
78.9655768765
20
164.2151366399
11
77.5706588963
21
169.4210414144
0
LINE
5
2DC
100
AcDbEntity
8
0
100
AcDbLine
62
7
6
CONTINUOUS
10
79.6567257760
20
169.2851149006
11
80.8779221439
21
164.7275480099
0
LINE
5
2DD
100
AcDbEntity
8
0
100
AcDbLine
62
7
6
CONTINUOUS
10
92.1043448439
20
167.5241399397
11
92.1043448439
21
156.4797861685
0
LINE
5
2DE
100
AcDbEntity
8
0
100
AcDbLine
62
7
6
CONTINUOUS
10
92.3063186136
20
185.1269461889
11
92.3063186136
21
183.5269461889
0
LINE
5
2DF
100
AcDbEntity
8
0
100
AcDbLine
62
7
6
CONTINUOUS
10
92.3063186136
20
74.0269461889
11
92.3063186136
21
77.2769461889
0
LINE
5
2E0
100
AcDbEntity
8
0
100
AcDbLine
62
7
6
CONTINUOUS
10
92.3063186136
20
85.7769461889
11
92.3063186136
21
87.4192510343
0
LINE
5
2E1
100
AcDbEntity
8
0
100
AcDbLine
62
7
6
CONTINUOUS
10
92.6729615047
20
102.6741062092
11
92.6729899732
21
94.5976550308
0
LINE
5
2E2
100
AcDbEntity
8
0
100
AcDbLine
62
7
6
CONTINUOUS
10
95.3063186136
20
164.8378784883
11
95.3063186136
21
122.6063301703
0
LINE
5
2E3
100
AcDbEntity
8
0
100
AcDbLine
62
7
6
CONTINUOUS
10
95.8063186136
20
115.0269461889
11
95.8063186136
21
96.7652178649
0
LINE
5
2E4
100
AcDbEntity
8
0
100
AcDbLine
62
7
6
CONTINUOUS
10
92.8063186136
20
119.6269461889
11
95.3063186136
21
122.6063301703
0
LINE
5
2E5
100
AcDbEntity
8
0
100
AcDbLine
62
9
6
CONTINUOUS
10
58.4886255305
20
156.4797861685
11
46.5082923832
21
156.4797861685
0
LINE
5
2E6
100
AcDbEntity
8
0
100
AcDbLine
62
9
6
CONTINUOUS
10
80.1240116967
20
156.4797861685
11
92.1043448439
21
156.4797861685
0
LINE
5
2E7
100
AcDbEntity
8
0
100
AcDbLine
62
7
6
CONTINUOUS
10
52.5948292997
20
159.0810319375
11
52.9727015951
21
159.0092291477
0
LINE
5
2E8
100
AcDbEntity
8
0
100
AcDbLine
62
7
6
CONTINUOUS
10
51.7446165028
20
168.0563894974
11
51.3667442074
21
168.2717980723
0
LINE
5
2E9
100
AcDbEntity
8
0
100
AcDbLine
62
7
6
CONTINUOUS
10
50.0441909089
20
176.0265059457
11
50.3275951305
21
175.8110973708
0
LINE
5
2EA
100
AcDbEntity
8
0
100
AcDbLine
62
9
6
CONTINUOUS
10
80.8779221439
20
164.7275480099
11
78.9655768765
21
164.2151366399
0
LINE
5
2EB
100
AcDbEntity
8
0
100
AcDbLine
62
7
6
CONTINUOUS
10
52.9727015951
20
157.4295661798
11
52.5948292997
21
157.3577633386
0
LINE
5
2EC
100
AcDbEntity
8
0
100
AcDbLine
62
7
6
CONTINUOUS
10
52.5948292997
20
156.9269461889
11
53.0671696690
21
156.9987490493
0
LINE
5
2ED
100
AcDbEntity
8
0
100
AcDbLine
62
7
6
CONTINUOUS
10
49.6663186136
20
156.9269461889
11
52.5948292997
21
156.9269461889
0
LINE
5
2EE
100
AcDbEntity
8
0
100
AcDbLine
62
7
6
CONTINUOUS
10
52.5948292997
20
157.3577633386
11
49.6663186136
21
157.3577633386
0
LINE
5
2EF
100
AcDbEntity
8
0
100
AcDbLine
62
7
6
CONTINUOUS
10
49.6663186136
20
159.0810319375
11
52.5948292997
21
159.0810319375
0
LINE
5
2F0
100
AcDbEntity
8
0
100
AcDbLine
62
7
6
CONTINUOUS
10
52.5948292997
20
159.5118490872
11
49.6663186136
21
159.5118490872
0
LINE
5
2F1
100
AcDbEntity
8
0
100
AcDbLine
62
7
6
CONTINUOUS
10
49.6663186136
20
163.1019918647
11
53.0671696690
21
162.6711747150
0
LINE
5
2F2
100
AcDbEntity
8
0
100
AcDbLine
62
7
6
CONTINUOUS
10
54.1063186136
20
162.9583862851
11
49.6663186136
21
163.5328090144
0
LINE
5
2F3
100
AcDbEntity
8
0
100
AcDbLine
62
7
6
CONTINUOUS
10
53.0671696690
20
159.4400462974
11
52.5948292997
21
159.5118490872
0
LINE
5
2F4
100
AcDbEntity
8
0
100
AcDbLine
62
7
6
CONTINUOUS
10
54.1063186136
20
161.2351176861
11
50.5165312782
21
161.8095404155
0
LINE
5
2F5
100
AcDbEntity
8
0
100
AcDbLine
62
7
6
CONTINUOUS
10
49.6663186136
20
161.5223292563
11
53.0671696690
21
160.9479061160
0
LINE
5
2F6
100
AcDbEntity
8
0
100
AcDbLine
62
9
6
CONTINUOUS
10
57.7347150833
20
164.7275480099
11
59.6470603507
21
164.2151366399
0
LINE
5
2F7
100
AcDbEntity
8
0
100
AcDbLine
62
7
6
CONTINUOUS
10
51.7446165028
20
171.2875172987
11
51.3667442074
21
171.5029258735
0
LINE
5
2F8
100
AcDbEntity
8
0
100
AcDbLine
62
7
6
CONTINUOUS
10
51.7446165028
20
177.7497745446
11
51.4612122813
21
177.9651831195
0
LINE
5
2F9
100
AcDbEntity
8
0
100
AcDbLine
62
7
6
CONTINUOUS
10
53.7284462851
20
177.8215779507
11
53.4450420305
21
178.0369865256
0
LINE
5
2FA
100
AcDbEntity
8
0
100
AcDbLine
62
7
6
CONTINUOUS
10
53.0671696690
20
162.6711747150
11
49.6663186136
21
162.0967519856
0
LINE
5
2FB
100
AcDbEntity
8
0
100
AcDbLine
62
7
6
CONTINUOUS
10
50.5165312782
20
161.8095404155
11
54.1063186136
21
162.3839635557
0
LINE
5
2FC
100
AcDbEntity
8
0
100
AcDbLine
62
7
6
CONTINUOUS
10
49.6663186136
20
160.0862720220
11
54.1063186136
21
160.6606949568
0
LINE
5
2FD
100
AcDbEntity
8
0
100
AcDbLine
62
7
6
CONTINUOUS
10
53.0671696690
20
160.9479061160
11
49.6663186136
21
160.5170889663
0
LINE
5
2FE
100
AcDbEntity
8
0
100
AcDbLine
62
7
6
CONTINUOUS
10
52.0280207243
20
164.1072317438
11
52.5003612259
21
164.1072317438
0
LINE
5
2FF
100
AcDbEntity
8
0
100
AcDbLine
62
7
6
CONTINUOUS
10
52.5003612259
20
165.1124720337
11
52.0280207243
21
165.1124720337
0
LINE
5
300
100
AcDbEntity
8
0
100
AcDbLine
62
7
6
CONTINUOUS
10
50.9888719120
20
167.9127835069
11
51.2722761336
21
167.8409809226
0
LINE
5
301
100
AcDbEntity
8
0
100
AcDbLine
62
7
6
CONTINUOUS
10
51.3667442074
20
168.2717980723
11
51.0833399859
21
168.3436006567
0
LINE
5
302
100
AcDbEntity
8
0
100
AcDbLine
62
7
6
CONTINUOUS
10
50.9888719120
20
171.1439121299
11
51.2722761336
21
171.0721087238
0
LINE
5
303
100
AcDbEntity
8
0
100
AcDbLine
62
7
6
CONTINUOUS
10
50.7999357644
20
176.0265059457
11
50.5165312782
21
176.1701127579
0
LINE
5
304
100
AcDbEntity
8
0
100
AcDbLine
62
7
6
CONTINUOUS
10
50.9888719120
20
177.7497745446
11
51.2722761336
21
177.6061693758
0
LINE
5
305
100
AcDbEntity
8
0
100
AcDbLine
62
7
6
CONTINUOUS
10
52.6892973736
20
175.9547041830
11
52.3114249459
21
176.1701127579
0
LINE
5
306
100
AcDbEntity
8
0
100
AcDbLine
62
7
6
CONTINUOUS
10
52.9727015951
20
177.8215779507
11
53.3505739566
21
177.6061693758
0
LINE
5
307
100
AcDbEntity
8
0
100
AcDbLine
62
7
6
CONTINUOUS
10
93.1101661909
20
90.4192510343
11
94.9649231855
21
93.6317843847
0
LINE
5
308
100
AcDbEntity
8
0
100
AcDbLine
62
9
6
CONTINUOUS
10
79.4435002274
20
169.9228677366
11
77.5706588963
21
169.4210414144
0
LINE
5
309
100
AcDbEntity
8
0
100
AcDbLine
62
7
6
CONTINUOUS
10
49.6663186136
20
165.6868951739
11
54.1063186136
21
165.6868951739
0
LINE
5
30A
100
AcDbEntity
8
0
100
AcDbLine
62
7
6
CONTINUOUS
10
54.1063186136
20
166.1177123236
11
52.1224887982
21
166.1177123236
0
LINE
5
30B
100
AcDbEntity
8
0
100
AcDbLine
62
7
6
CONTINUOUS
10
51.5556803551
20
166.1177123236
11
50.1386589828
21
166.1177123236
0
LINE
5
30C
100
AcDbEntity
8
0
100
AcDbLine
62
7
6
CONTINUOUS
10
50.7054674259
20
167.9127835069
11
50.9888719120
21
167.9127835069
0
LINE
5
30D
100
AcDbEntity
8
0
100
AcDbLine
62
7
6
CONTINUOUS
10
51.0833399859
20
168.3436006567
11
50.7054674259
21
168.3436006567
0
LINE
5
30E
100
AcDbEntity
8
0
100
AcDbLine
62
7
6
CONTINUOUS
10
49.6663186136
20
168.9180237969
11
54.1063186136
21
168.9180237969
0
LINE
5
30F
100
AcDbEntity
8
0
100
AcDbLine
62
7
6
CONTINUOUS
10
54.1063186136
20
169.3488409466
11
52.1224887982
21
169.3488409466
0
LINE
5
310
100
AcDbEntity
8
0
100
AcDbLine
62
7
6
CONTINUOUS
10
51.5556803551
20
169.3488409466
11
50.1386589828
21
169.3488409466
0
LINE
5
311
100
AcDbEntity
8
0
100
AcDbLine
62
7
6
CONTINUOUS
10
51.3667442074
20
171.5029258735
11
51.0833399859
21
171.5747292796
0
LINE
5
312
100
AcDbEntity
8
0
100
AcDbLine
62
9
6
CONTINUOUS
10
59.1691369997
20
169.9228677366
11
61.0419783309
21
169.4210414144
0
LINE
5
313
100
AcDbEntity
8
0
100
AcDbLine
62
7
6
CONTINUOUS
10
50.3275951305
20
175.8110973708
11
50.7999357644
21
175.6674922021
0
LINE
5
314
100
AcDbEntity
8
0
100
AcDbLine
62
7
6
CONTINUOUS
10
52.2169568720
20
175.7392956082
11
52.6892973736
21
175.5956887960
0
LINE
5
315
100
AcDbEntity
8
0
100
AcDbLine
62
7
6
CONTINUOUS
10
51.4612122813
20
177.9651831195
11
51.0833399859
21
178.1087899317
0
LINE
5
316
100
AcDbEntity
8
0
100
AcDbLine
62
7
6
CONTINUOUS
10
93.1101661909
20
168.7346413434
11
94.9649231855
21
165.5221079930
0
LINE
5
317
100
AcDbEntity
8
0
100
AcDbLine
62
7
6
CONTINUOUS
10
91.0132456609
20
78.5535877996
11
90.0477918728
21
76.7192538812
0
LINE
5
318
100
AcDbEntity
8
0
100
AcDbLine
62
7
6
CONTINUOUS
10
50.4220632043
20
167.8409809226
11
50.7054674259
21
167.9127835069
0
LINE
5
319
100
AcDbEntity
8
0
100
AcDbLine
62
7
6
CONTINUOUS
10
50.7054674259
20
168.3436006567
11
50.4220632043
21
168.2717980723
0
LINE
5
31A
100
AcDbEntity
8
0
100
AcDbLine
62
7
6
CONTINUOUS
10
50.7054674259
20
171.1439121299
11
50.9888719120
21
171.1439121299
0
LINE
5
31B
100
AcDbEntity
8
0
100
AcDbLine
62
7
6
CONTINUOUS
10
51.0833399859
20
171.5747292796
11
50.7054674259
21
171.5747292796
0
LINE
5
31C
100
AcDbEntity
8
0
100
AcDbLine
62
9
6
CONTINUOUS
10
92.2990312307
20
171.7346414894
11
90.9925156727
21
171.7346413434
0
LINE
5
31D
100
AcDbEntity
8
0
100
AcDbLine
62
9
6
CONTINUOUS
10
46.3063186136
20
171.7346413434
11
47.6201215544
21
171.7346413434
0
LINE
5
31E
100
AcDbEntity
8
0
100
AcDbLine
62
7
6
CONTINUOUS
10
63.5975405424
20
172.8269461889
11
75.0150951708
21
172.8269461889
0
LINE
5
31F
100
AcDbEntity
8
0
100
AcDbLine
62
7
6
CONTINUOUS
10
53.4450420305
20
178.0369865256
11
52.9727015951
21
178.1805916943
0
LINE
5
320
100
AcDbEntity
8
0
100
AcDbLine
62
7
6
CONTINUOUS
10
91.0132456609
20
180.6003045781
11
90.0477918728
21
182.4346384965
0
LINE
5
321
100
AcDbEntity
8
0
100
AcDbLine
62
7
6
CONTINUOUS
10
50.4220632043
20
171.0721087238
11
50.7054674259
21
171.1439121299
0
LINE
5
322
100
AcDbEntity
8
0
100
AcDbLine
62
7
6
CONTINUOUS
10
50.7054674259
20
171.5747292796
11
50.4220632043
21
171.5029258735
0
LINE
5
323
100
AcDbEntity
8
0
100
AcDbLine
62
7
6
CONTINUOUS
10
85.7266244006
20
177.9302825142
11
85.1388475295
21
177.8266415932
0
LINE
5
324
100
AcDbEntity
8
0
100
AcDbLine
62
7
6
CONTINUOUS
10
52.6892973736
20
175.5956887960
11
52.9727015951
21
175.5956887960
0
LINE
5
325
100
AcDbEntity
8
0
100
AcDbLine
62
7
6
CONTINUOUS
10
50.7999357644
20
175.6674922021
11
51.0833399859
21
175.6674922021
0
LINE
5
326
100
AcDbEntity
8
0
100
AcDbLine
62
7
6
CONTINUOUS
10
52.9727015951
20
175.9547041830
11
52.6892973736
21
175.9547041830
0
LINE
5
327
100
AcDbEntity
8
0
100
AcDbLine
62
7
6
CONTINUOUS
10
50.9888719120
20
176.0265059457
11
50.7999357644
21
176.0265059457
0
LINE
5
328
100
AcDbEntity
8
0
100
AcDbLine
62
9
6
CONTINUOUS
10
81.9158388265
20
176.6269461889
11
77.7189335219
21
176.6269461889
0
LINE
5
329
100
AcDbEntity
8
0
100
AcDbLine
62
9
6
CONTINUOUS
10
56.6967984007
20
176.6269461889
11
60.8937037052
21
176.6269461889
0
LINE
5
32A
100
AcDbEntity
8
DEFAULT_1
100
AcDbLine
62
2
6
CENTER
10
84.0063186136
20
177.6269461889
11
44.7881022602
21
177.6269461889
0
LINE
5
32B
100
AcDbEntity
8
DEFAULT_1
100
AcDbLine
62
2
6
CENTER
10
84.0063186136
20
177.6269461889
11
87.4438186136
21
177.6269461889
0
LINE
5
32C
100
AcDbEntity
8
0
100
AcDbLine
62
7
6
CONTINUOUS
10
50.7999357644
20
177.7497745446
11
50.9888719120
21
177.7497745446
0
LINE
5
32D
100
AcDbEntity
8
0
100
AcDbLine
62
7
6
CONTINUOUS
10
52.6892973736
20
177.8215779507
11
52.9727015951
21
177.8215779507
0
LINE
5
32E
100
AcDbEntity
8
0
100
AcDbLine
62
7
6
CONTINUOUS
10
51.0833399859
20
178.1087899317
11
50.7999357644
21
178.1087899317
0
LINE
5
32F
100
AcDbEntity
8
0
100
AcDbLine
62
7
6
CONTINUOUS
10
52.9727015951
20
178.1805916943
11
52.6892973736
21
178.1805916943
0
LINE
5
330
100
AcDbEntity
8
0
100
AcDbLine
62
7
6
CONTINUOUS
10
92.3063186136
20
74.0269461889
11
88.1108204577
21
69.0269461889
0
LINE
5
331
100
AcDbEntity
8
0
100
AcDbLine
62
7
6
CONTINUOUS
10
56.2175387316
20
180.1269461889
11
47.6201215544
21
180.1269461889
0
LINE
5
332
100
AcDbEntity
8
0
100
AcDbLine
62
7
6
CONTINUOUS
10
82.3950984955
20
180.1269461889
11
90.9925156727
21
180.1269461889
0
LINE
5
333
100
AcDbEntity
8
0
100
AcDbLine
62
7
6
CONTINUOUS
10
64.6010190478
20
182.4269461889
11
74.0116181794
21
182.4269461889
0
LINE
5
334
100
AcDbEntity
8
0
100
AcDbLine
62
9
6
CONTINUOUS
10
56.6967984007
20
182.4346384965
11
48.5648453543
21
182.4346384965
0
LINE
5
335
100
AcDbEntity
8
0
100
AcDbLine
62
9
6
CONTINUOUS
10
81.9158388265
20
182.4346384965
11
90.0477918728
21
182.4346384965
0
LINE
5
336
100
AcDbEntity
8
0
100
AcDbLine
62
7
6
CONTINUOUS
10
85.7266244006
20
177.3236098635
11
85.1388475295
21
177.4272507845
0
LINE
5
337
100
AcDbEntity
8
0
100
AcDbLine
62
7
6
CONTINUOUS
10
88.1108204577
20
190.1269461889
11
92.3063186136
21
185.1269461889
0
LINE
5
338
100
AcDbEntity
8
0
100
AcDbLine
62
9
6
CONTINUOUS
10
91.8588943226
20
74.7143896806
11
88.1108204577
21
70.9263449869
0
LINE
5
339
100
AcDbEntity
8
0
100
AcDbLine
62
9
6
CONTINUOUS
10
91.8588943226
20
184.4395026971
11
88.1108204577
21
188.2275473908
0
LINE
5
33A
100
AcDbEntity
8
0
100
AcDbLine
62
7
6
CONTINUOUS
10
50.5018167695
20
190.1269461889
11
56.6967984007
21
190.1269461889
0
LINE
5
33B
100
AcDbEntity
8
0
100
AcDbLine
62
7
6
CONTINUOUS
10
81.9158388265
20
190.1269461889
11
88.1108204577
21
190.1269461889
0
LINE
5
33C
100
AcDbEntity
8
0
100
AcDbLine
62
7
6
CONTINUOUS
10
170.7227197820
20
184.4395026971
11
162.6769102143
21
180.6003045781
0
LINE
5
33D
100
AcDbEntity
8
0
100
AcDbLine
62
7
6
CONTINUOUS
10
170.4028335817
20
79.7769461889
11
179.5565216572
21
79.7769461889
0
LINE
5
33E
100
AcDbEntity
8
0
100
AcDbLine
62
7
6
CONTINUOUS
10
170.0947249784
20
81.2230618779
11
179.8646302164
21
81.2230618779
0
LINE
5
33F
100
AcDbEntity
8
0
100
AcDbLine
62
7
6
CONTINUOUS
10
170.0895658608
20
81.3272507845
11
179.8697893029
21
81.3272507845
0
LINE
5
340
100
AcDbEntity
8
DEFAULT_1
100
AcDbLine
62
2
6
CENTER
10
174.9796775521
20
81.5269461889
11
160.7506489358
21
81.5269461889
0
LINE
5
341
100
AcDbEntity
8
DEFAULT_1
100
AcDbLine
62
2
6
CENTER
10
174.9796775521
20
81.5269461889
11
188.7348843679
21
81.5269461889
0
LINE
5
342
100
AcDbEntity
8
0
100
AcDbLine
62
7
6
CONTINUOUS
10
170.7227197820
20
74.7143896806
11
162.6769102143
21
78.5535877996
0
LINE
5
343
100
AcDbEntity
8
0
100
AcDbLine
62
7
6
CONTINUOUS
10
171.8103676618
20
177.6338182077
11
171.7796775521
21
177.6230754095
0
LINE
5
344
100
AcDbEntity
8
0
100
AcDbLine
62
7
6
CONTINUOUS
10
177.6558478082
20
178.7494462604
11
177.5409540976
21
178.7119461889
0
LINE
5
345
100
AcDbEntity
8
0
100
AcDbLine
62
7
6
CONTINUOUS
10
178.3835073496
20
177.4744461889
11
178.4984009529
21
177.5119462067
0
LINE
5
346
100
AcDbEntity
8
0
100
AcDbLine
62
7
6
CONTINUOUS
10
170.0895658013
20
81.7266415932
11
179.8697892434
21
81.7266415932
0
LINE
5
347
100
AcDbEntity
8
0
100
AcDbLine
62
7
6
CONTINUOUS
10
170.0947248878
20
81.8308304998
11
179.8646301258
21
81.8308304998
0
LINE
5
348
100
AcDbEntity
8
0
100
AcDbLine
62
7
6
CONTINUOUS
10
170.4028335357
20
83.2769461889
11
179.5565215825
21
83.2769461889
0
LINE
5
349
100
AcDbEntity
8
0
100
AcDbLine
62
7
6
CONTINUOUS
10
177.4260604943
20
178.4119461531
11
177.6558478082
21
178.5619461173
0
LINE
5
34A
100
AcDbEntity
8
0
100
AcDbLine
62
7
6
CONTINUOUS
10
177.5409540976
20
178.7119461889
11
177.3877626265
21
178.6369462604
0
LINE
5
34B
100
AcDbEntity
8
0
100
AcDbLine
62
7
6
CONTINUOUS
10
178.4984009529
20
177.5119462067
11
178.6515924509
21
177.5869461889
0
LINE
5
34C
100
AcDbEntity
8
0
100
AcDbLine
62
9
6
CONTINUOUS
10
174.9796775521
20
90.4192510343
11
186.0711036509
21
91.0021289633
0
LINE
5
34D
100
AcDbEntity
8
0
100
AcDbLine
62
9
6
CONTINUOUS
10
162.4796775521
20
87.4192510343
11
187.4796775521
21
87.4192510343
0
LINE
5
34E
100
AcDbEntity
8
0
100
AcDbLine
62
9
6
CONTINUOUS
10
174.9796775521
20
90.4192510343
11
163.8882514533
21
91.0021289633
0
LINE
5
34F
100
AcDbEntity
8
0
100
AcDbLine
62
7
6
CONTINUOUS
10
178.6132945831
20
177.8119461889
11
178.3835073496
21
177.6619462246
0
LINE
5
350
100
AcDbEntity
8
0
100
AcDbLine
62
7
6
CONTINUOUS
10
162.4796775521
20
180.1269461889
11
163.4412160136
21
182.4346384965
0
LINE
5
351
100
AcDbEntity
8
0
100
AcDbLine
62
7
6
CONTINUOUS
10
177.3877626265
20
178.6369462604
11
177.2728690232
21
178.5244462604
0
LINE
5
352
100
AcDbEntity
8
0
100
AcDbLine
62
7
6
CONTINUOUS
10
178.6515924509
20
177.5869461889
11
178.7664860676
21
177.6994461889
0
LINE
5
353
100
AcDbEntity
8
0
100
AcDbLine
62
7
6
CONTINUOUS
10
162.4796775521
20
79.0269461889
11
163.4412160136
21
76.7192538812
0
LINE
5
354
100
AcDbEntity
8
0
100
AcDbLine
62
7
6
CONTINUOUS
10
148.4796775521
20
111.7241338575
11
148.4796775521
21
115.0269461889
0
LINE
5
355
100
AcDbEntity
8
0
100
AcDbLine
62
7
6
CONTINUOUS
10
148.9796775521
20
147.5181602639
11
148.9796775521
21
122.6063301703
0
LINE
5
356
100
AcDbEntity
8
0
100
AcDbLine
62
7
6
CONTINUOUS
10
177.2728690232
20
178.5244462604
11
177.1579754199
21
178.3369462246
0
LINE
5
357
100
AcDbEntity
8
0
100
AcDbLine
62
7
6
CONTINUOUS
10
178.7664860676
20
177.6994461889
11
178.8813796810
21
177.8869462246
0
LINE
5
358
100
AcDbEntity
8
0
100
AcDbLine
62
9
6
CONTINUOUS
10
179.2366353223
20
184.4395026971
11
181.6036683550
21
188.2275473908
0
LINE
5
359
100
AcDbEntity
8
0
100
AcDbLine
62
7
6
CONTINUOUS
10
177.3494647588
20
178.2994461531
11
177.4260604943
21
178.4119461531
0
LINE
5
35A
100
AcDbEntity
8
0
100
AcDbLine
62
7
6
CONTINUOUS
10
178.6898903186
20
177.9244461889
11
178.6132945831
21
177.8119461889
0
LINE
5
35B
100
AcDbEntity
8
0
100
AcDbLine
62
7
6
CONTINUOUS
10
194.2282018318
20
110.5756129340
11
201.4796775521
21
111.7241338575
0
LINE
5
35C
100
AcDbEntity
8
0
100
AcDbLine
62
7
6
CONTINUOUS
10
155.7311532724
20
110.5756129340
11
148.4796775521
21
111.7241338575
0
LINE
5
35D
100
AcDbEntity
8
0
100
AcDbLine
62
7
6
CONTINUOUS
10
151.4796775521
20
119.6269461889
11
148.9796775521
21
122.6063301703
0
LINE
5
35E
100
AcDbEntity
8
0
100
AcDbLine
62
9
6
CONTINUOUS
10
179.2366353223
20
74.7143896806
11
181.6036683550
21
70.9263449869
0
LINE
5
35F
100
AcDbEntity
8
0
100
AcDbLine
62
7
6
CONTINUOUS
10
156.7296775521
20
119.6269461889
11
156.7296775521
21
119.3269461889
0
LINE
5
360
100
AcDbEntity
8
0
100
AcDbLine
62
7
6
CONTINUOUS
10
156.7296775521
20
115.3269461889
11
156.7296775521
21
115.0269461889
0
LINE
5
361
100
AcDbEntity
8
0
100
AcDbLine
62
7
6
CONTINUOUS
10
148.4796775521
20
115.0269461889
11
201.4796775521
21
115.0269461889
0
LINE
5
362
100
AcDbEntity
8
0
100
AcDbLine
62
7
6
CONTINUOUS
10
197.4109922090
20
115.3269461889
11
152.5483548819
21
115.3269461889
0
LINE
5
363
100
AcDbEntity
8
0
100
AcDbLine
62
7
6
CONTINUOUS
10
162.4796775521
20
180.1269461889
11
162.4796775521
21
156.4797861685
0
LINE
5
364
100
AcDbEntity
8
0
100
AcDbLine
62
7
6
CONTINUOUS
10
162.4796775521
20
79.0269461889
11
162.4796775521
21
102.6741062092
0
LINE
5
365
100
AcDbEntity
8
0
100
AcDbLine
62
7
6
CONTINUOUS
10
197.4109922090
20
119.3269461889
11
152.5483548819
21
119.3269461889
0
LINE
5
366
100
AcDbEntity
8
0
100
AcDbLine
62
7
6
CONTINUOUS
10
151.4796775521
20
119.6269461889
11
198.4796775521
21
119.6269461889
0
LINE
5
367
100
AcDbEntity
8
0
100
AcDbLine
62
7
6
CONTINUOUS
10
177.1579754199
20
178.3369462246
11
177.1196775521
21
178.1119462246
0
LINE
5
368
100
AcDbEntity
8
0
100
AcDbLine
62
7
6
CONTINUOUS
10
178.8813796810
20
177.8869462246
11
178.9196775521
21
178.1119462246
0
LINE
5
369
100
AcDbEntity
8
0
100
AcDbLine
62
7
6
CONTINUOUS
10
177.3111668910
20
178.1119462246
11
177.3494647588
21
178.2994461531
0
LINE
5
36A
100
AcDbEntity
8
0
100
AcDbLine
62
7
6
CONTINUOUS
10
178.7281881864
20
178.1119462246
11
178.6898903186
21
177.9244461889
0
LINE
5
36B
100
AcDbEntity
8
0
100
AcDbLine
62
7
6
CONTINUOUS
10
200.9796775521
20
122.6063301703
11
148.9796775521
21
122.6063301703
0
LINE
5
36C
100
AcDbEntity
8
0
100
AcDbLine
62
7
6
CONTINUOUS
10
174.4796775521
20
177.7019461889
11
174.4796775521
21
177.5144461889
0
LINE
5
36D
100
AcDbEntity
8
0
100
AcDbLine
62
7
6
CONTINUOUS
10
174.9796775521
20
185.1269461889
11
174.9796775521
21
181.8769461889
0
LINE
5
36E
100
AcDbEntity
8
0
100
AcDbLine
62
7
6
CONTINUOUS
10
174.9796775521
20
173.3769461889
11
174.9796775521
21
165.5221079930
0
LINE
5
36F
100
AcDbEntity
8
DEFAULT_1
100
AcDbLine
62
2
6
CENTER
10
174.9796775521
20
81.5269461889
11
174.9796775521
21
76.6269461889
0
LINE
5
370
100
AcDbEntity
8
DEFAULT_1
100
AcDbLine
62
2
6
CENTER
10
174.9796775521
20
74.0269461889
11
174.9796775521
21
67.0749502865
0
LINE
5
371
100
AcDbEntity
8
0
100
AcDbLine
62
7
6
CONTINUOUS
10
174.9796775521
20
74.0269461889
11
174.9796775521
21
76.6269461889
0
LINE
5
372
100
AcDbEntity
8
DEFAULT_1
100
AcDbLine
62
2
6
CENTER
10
174.9796775521
20
81.5269461889
11
174.9796775521
21
86.4269461889
0
LINE
5
373
100
AcDbEntity
8
0
100
AcDbLine
62
7
6
CONTINUOUS
10
174.9796775521
20
86.4269461889
11
174.9796775521
21
93.6317843847
0
LINE
5
374
100
AcDbEntity
8
DEFAULT_1
100
AcDbLine
62
2
6
CENTER
10
174.9796775521
20
93.6317843847
11
174.9796775521
21
165.5221079930
0
LINE
5
375
100
AcDbEntity
8
DEFAULT_1
100
AcDbLine
62
2
6
CENTER
10
174.9796775521
20
185.1269461889
11
174.9796775521
21
194.0640186487
0
LINE
5
376
100
AcDbEntity
8
DEFAULT_1
100
AcDbLine
62
2
6
CENTER
10
174.9796775521
20
173.3769461889
11
174.9796775521
21
181.8769461889
0
LINE
5
377
100
AcDbEntity
8
0
100
AcDbLine
62
7
6
CONTINUOUS
10
175.9796775521
20
177.5144461889
11
175.9796775521
21
177.7019461889
0
LINE
5
378
100
AcDbEntity
8
0
100
AcDbLine
62
7
6
CONTINUOUS
10
177.1196775521
20
177.1369461889
11
177.1196775521
21
176.9119461889
0
LINE
5
379
100
AcDbEntity
8
0
100
AcDbLine
62
7
6
CONTINUOUS
10
178.9196775521
20
176.9119461889
11
178.9196775521
21
177.1369461889
0
LINE
5
37A
100
AcDbEntity
8
0
100
AcDbLine
62
7
6
CONTINUOUS
10
187.4796775521
20
180.1269461889
11
187.4796775521
21
156.4797861685
0
LINE
5
37B
100
AcDbEntity
8
0
100
AcDbLine
62
7
6
CONTINUOUS
10
187.4796775521
20
79.0269461889
11
187.4796775521
21
102.6741062092
0
LINE
5
37C
100
AcDbEntity
8
0
100
AcDbLine
62
7
6
CONTINUOUS
10
187.6796775521
20
178.1805916943
11
187.6796775521
21
175.5956887960
0
LINE
5
37D
100
AcDbEntity
8
0
100
AcDbLine
62
7
6
CONTINUOUS
10
187.6796775521
20
171.5747292796
11
187.6796775521
21
168.9180237969
0
LINE
5
37E
100
AcDbEntity
8
0
100
AcDbLine
62
7
6
CONTINUOUS
10
187.6796775521
20
168.3436006567
11
187.6796775521
21
165.6868951739
0
LINE
5
37F
100
AcDbEntity
8
0
100
AcDbLine
62
7
6
CONTINUOUS
10
187.6796775521
20
165.1124720337
11
187.6796775521
21
164.1072317438
0
LINE
5
380
100
AcDbEntity
8
0
100
AcDbLine
62
7
6
CONTINUOUS
10
187.6796775521
20
163.5328090144
11
187.6796775521
21
160.0862720220
0
LINE
5
381
100
AcDbEntity
8
0
100
AcDbLine
62
7
6
CONTINUOUS
10
187.6796775521
20
159.5118490872
11
187.6796775521
21
156.9269461889
0
LINE
5
382
100
AcDbEntity
8
0
100
AcDbLine
62
7
6
CONTINUOUS
10
172.5307788552
20
176.8255825061
11
172.5275483311
21
176.8358750342
0
LINE
5
383
100
AcDbEntity
8
0
100
AcDbLine
62
7
6
CONTINUOUS
10
177.3494647588
20
177.9244461889
11
177.3111668910
21
178.1119462246
0
LINE
5
384
100
AcDbEntity
8
0
100
AcDbLine
62
7
6
CONTINUOUS
10
178.6898903186
20
178.2994461531
11
178.7281881864
21
178.1119462246
0
LINE
5
385
100
AcDbEntity
8
0
100
AcDbLine
62
7
6
CONTINUOUS
10
177.1196775521
20
178.1119462246
11
177.1579754199
21
177.8869462246
0
LINE
5
386
100
AcDbEntity
8
0
100
AcDbLine
62
7
6
CONTINUOUS
10
178.9196775521
20
178.1119462246
11
178.8813796810
21
178.3369462246
0
LINE
5
387
100
AcDbEntity
8
0
100
AcDbLine
62
7
6
CONTINUOUS
10
193.2296775521
20
119.6269461889
11
193.2296775521
21
119.3269461889
0
LINE
5
388
100
AcDbEntity
8
0
100
AcDbLine
62
7
6
CONTINUOUS
10
193.2296775521
20
115.3269461889
11
193.2296775521
21
115.0269461889
0
LINE
5
389
100
AcDbEntity
8
0
100
AcDbLine
62
7
6
CONTINUOUS
10
155.7311532724
20
148.5782794437
11
148.9798570631
21
147.5089791722
0
LINE
5
38A
100
AcDbEntity
8
0
100
AcDbLine
62
7
6
CONTINUOUS
10
200.9794980411
20
147.5089791722
11
194.2282018318
21
148.5782794437
0
LINE
5
38B
100
AcDbEntity
8
0
100
AcDbLine
62
7
6
CONTINUOUS
10
200.9796775521
20
147.5181602640
11
200.9796775521
21
122.6063301703
0
LINE
5
38C
100
AcDbEntity
8
0
100
AcDbLine
62
7
6
CONTINUOUS
10
201.4796775521
20
115.0269461889
11
201.4796775521
21
111.7241338575
0
LINE
5
38D
100
AcDbEntity
8
0
100
AcDbLine
62
9
6
CONTINUOUS
10
170.7227197820
20
74.7143896806
11
168.3556867492
21
70.9263449869
0
LINE
5
38E
100
AcDbEntity
8
0
100
AcDbLine
62
7
6
CONTINUOUS
10
198.4796775521
20
119.6269461889
11
200.9796775521
21
122.6063301703
0
LINE
5
38F
100
AcDbEntity
8
0
100
AcDbLine
62
9
6
CONTINUOUS
10
170.7227197820
20
184.4395026971
11
168.3556867492
21
188.2275473908
0
LINE
5
390
100
AcDbEntity
8
0
100
AcDbLine
62
7
6
CONTINUOUS
10
187.4796775521
20
79.0269461889
11
186.5181390906
21
76.7192538812
0
LINE
5
391
100
AcDbEntity
8
0
100
AcDbLine
62
7
6
CONTINUOUS
10
187.4796775521
20
156.9269461889
11
187.6796775521
21
156.9269461889
0
LINE
5
392
100
AcDbEntity
8
0
100
AcDbLine
62
7
6
CONTINUOUS
10
187.4796775521
20
157.3577633386
11
187.6796775521
21
157.3577633386
0
LINE
5
393
100
AcDbEntity
8
0
100
AcDbLine
62
7
6
CONTINUOUS
10
187.4796775521
20
157.4295661798
11
187.6796775521
21
157.4295661798
0
LINE
5
394
100
AcDbEntity
8
0
100
AcDbLine
62
7
6
CONTINUOUS
10
187.4796775521
20
157.5731719135
11
187.6796775521
21
157.5731719135
0
LINE
5
395
100
AcDbEntity
8
0
100
AcDbLine
62
7
6
CONTINUOUS
10
187.4796775521
20
157.7885804883
11
187.6796775521
21
157.7885804883
0
LINE
5
396
100
AcDbEntity
8
0
100
AcDbLine
62
7
6
CONTINUOUS
10
187.4796775521
20
158.0757919557
11
187.6796775521
21
158.0757919557
0
LINE
5
397
100
AcDbEntity
8
0
100
AcDbLine
62
7
6
CONTINUOUS
10
187.4796775521
20
158.3630033204
11
187.6796775521
21
158.3630033204
0
LINE
5
398
100
AcDbEntity
8
0
100
AcDbLine
62
7
6
CONTINUOUS
10
187.4796775521
20
158.6502147878
11
187.6796775521
21
158.6502147878
0
LINE
5
399
100
AcDbEntity
8
0
100
AcDbLine
62
7
6
CONTINUOUS
10
187.4796775521
20
158.8656233626
11
187.6796775521
21
158.8656233626
0
LINE
5
39A
100
AcDbEntity
8
0
100
AcDbLine
62
7
6
CONTINUOUS
10
187.4796775521
20
159.0092291477
11
187.6796775521
21
159.0092291477
0
LINE
5
39B
100
AcDbEntity
8
0
100
AcDbLine
62
7
6
CONTINUOUS
10
187.4796775521
20
159.0810319375
11
187.6796775521
21
159.0810319375
0
LINE
5
39C
100
AcDbEntity
8
0
100
AcDbLine
62
7
6
CONTINUOUS
10
187.4796775521
20
159.5118490872
11
187.6796775521
21
159.5118490872
0
LINE
5
39D
100
AcDbEntity
8
0
100
AcDbLine
62
7
6
CONTINUOUS
10
187.4796775521
20
160.0862720220
11
187.6796775521
21
160.0862720220
0
LINE
5
39E
100
AcDbEntity
8
0
100
AcDbLine
62
7
6
CONTINUOUS
10
187.4796775521
20
160.5170889663
11
187.6796775521
21
160.5170889663
0
LINE
5
39F
100
AcDbEntity
8
0
100
AcDbLine
62
7
6
CONTINUOUS
10
187.4796775521
20
160.9479061160
11
187.6796775521
21
160.9479061160
0
LINE
5
3A0
100
AcDbEntity
8
0
100
AcDbLine
62
7
6
CONTINUOUS
10
173.0864323379
20
177.4551738064
11
172.9975924016
21
177.5617666989
0
LINE
5
3A1
100
AcDbEntity
8
0
100
AcDbLine
62
7
6
CONTINUOUS
10
172.9669022263
20
177.5609648750
11
173.0508963765
21
177.4598697403
0
LINE
5
3A2
100
AcDbEntity
8
0
100
AcDbLine
62
7
6
CONTINUOUS
10
177.4260604943
20
177.8119461889
11
177.3494647588
21
177.9244461889
0
LINE
5
3A3
100
AcDbEntity
8
0
100
AcDbLine
62
7
6
CONTINUOUS
10
178.6132945831
20
178.4119461531
11
178.6898903186
21
178.2994461531
0
LINE
5
3A4
100
AcDbEntity
8
0
100
AcDbLine
62
7
6
CONTINUOUS
10
177.1579754199
20
177.8869462246
11
177.2728690232
21
177.6994461889
0
LINE
5
3A5
100
AcDbEntity
8
0
100
AcDbLine
62
7
6
CONTINUOUS
10
178.8813796810
20
178.3369462246
11
178.7664860676
21
178.5244462604
0
LINE
5
3A6
100
AcDbEntity
8
0
100
AcDbLine
62
7
6
CONTINUOUS
10
187.4796775521
20
180.1269461889
11
186.5181390906
21
182.4346384965
0
LINE
5
3A7
100
AcDbEntity
8
0
100
AcDbLine
62
7
6
CONTINUOUS
10
187.4796775521
20
161.5223292563
11
187.6796775521
21
161.5223292563
0
LINE
5
3A8
100
AcDbEntity
8
0
100
AcDbLine
62
7
6
CONTINUOUS
10
187.4796775521
20
162.0967519856
11
187.6796775521
21
162.0967519856
0
LINE
5
3A9
100
AcDbEntity
8
0
100
AcDbLine
62
7
6
CONTINUOUS
10
187.4796775521
20
162.6711747150
11
187.6796775521
21
162.6711747150
0
LINE
5
3AA
100
AcDbEntity
8
0
100
AcDbLine
62
7
6
CONTINUOUS
10
187.4796775521
20
163.1019918647
11
187.6796775521
21
163.1019918647
0
LINE
5
3AB
100
AcDbEntity
8
0
100
AcDbLine
62
7
6
CONTINUOUS
10
187.4796775521
20
163.5328090144
11
187.6796775521
21
163.5328090144
0
LINE
5
3AC
100
AcDbEntity
8
0
100
AcDbLine
62
7
6
CONTINUOUS
10
187.4796775521
20
164.1072317438
11
187.6796775521
21
164.1072317438
0
LINE
5
3AD
100
AcDbEntity
8
0
100
AcDbLine
62
7
6
CONTINUOUS
10
187.4796775521
20
165.1124720337
11
187.6796775521
21
165.1124720337
0
LINE
5
3AE
100
AcDbEntity
8
0
100
AcDbLine
62
9
6
CONTINUOUS
10
174.9796775521
20
168.7346413434
11
163.8882514533
21
168.1517634144
0
LINE
5
3AF
100
AcDbEntity
8
0
100
AcDbLine
62
7
6
CONTINUOUS
10
187.4796775521
20
165.6868951739
11
187.6796775521
21
165.6868951739
0
LINE
5
3B0
100
AcDbEntity
8
0
100
AcDbLine
62
7
6
CONTINUOUS
10
187.4796775521
20
167.4101637728
11
187.6796775521
21
167.4101637728
0
LINE
5
3B1
100
AcDbEntity
8
0
100
AcDbLine
62
7
6
CONTINUOUS
10
187.4796775521
20
167.7691775165
11
187.6796775521
21
167.7691775165
0
LINE
5
3B2
100
AcDbEntity
8
0
100
AcDbLine
62
7
6
CONTINUOUS
10
187.4796775521
20
168.0563894974
11
187.6796775521
21
168.0563894974
0
LINE
5
3B3
100
AcDbEntity
8
0
100
AcDbLine
62
7
6
CONTINUOUS
10
187.4796775521
20
168.2717980723
11
187.6796775521
21
168.2717980723
0
LINE
5
3B4
100
AcDbEntity
8
0
100
AcDbLine
62
7
6
CONTINUOUS
10
187.4796775521
20
168.3436006567
11
187.6796775521
21
168.3436006567
0
LINE
5
3B5
100
AcDbEntity
8
0
100
AcDbLine
62
7
6
CONTINUOUS
10
187.4796775521
20
168.9180237969
11
187.6796775521
21
168.9180237969
0
LINE
5
3B6
100
AcDbEntity
8
0
100
AcDbLine
62
9
6
CONTINUOUS
10
174.9796775521
20
168.7346413434
11
186.0711036509
21
168.1517634144
0
LINE
5
3B7
100
AcDbEntity
8
0
100
AcDbLine
62
7
6
CONTINUOUS
10
174.4796775521
20
177.5144461889
11
174.7030817808
21
177.3269461889
0
LINE
5
3B8
100
AcDbEntity
8
0
100
AcDbLine
62
7
6
CONTINUOUS
10
174.9584009887
20
177.3269461889
11
174.7349966706
21
177.5144461889
0
LINE
5
3B9
100
AcDbEntity
8
0
100
AcDbLine
62
7
6
CONTINUOUS
10
177.1196775521
20
176.9119461889
11
177.3877626265
21
176.6869461889
0
LINE
5
3BA
100
AcDbEntity
8
0
100
AcDbLine
62
7
6
CONTINUOUS
10
177.6941456760
20
176.6869461889
11
177.4260604943
21
176.9119461889
0
LINE
5
3BB
100
AcDbEntity
8
0
100
AcDbLine
62
7
6
CONTINUOUS
10
177.2728690232
20
177.6994461889
11
177.3877626265
21
177.5869461889
0
LINE
5
3BC
100
AcDbEntity
8
0
100
AcDbLine
62
7
6
CONTINUOUS
10
178.7664860676
20
178.5244462604
11
178.6515924509
21
178.6369462604
0
LINE
5
3BD
100
AcDbEntity
8
0
100
AcDbLine
62
7
6
CONTINUOUS
10
187.4796775521
20
170.6412923958
11
187.6796775521
21
170.6412923958
0
LINE
5
3BE
100
AcDbEntity
8
0
100
AcDbLine
62
7
6
CONTINUOUS
10
187.4796775521
20
171.0003069611
11
187.6796775521
21
171.0003069611
0
LINE
5
3BF
100
AcDbEntity
8
0
100
AcDbLine
62
7
6
CONTINUOUS
10
187.4796775521
20
171.2875172987
11
187.6796775521
21
171.2875172987
0
LINE
5
3C0
100
AcDbEntity
8
0
100
AcDbLine
62
7
6
CONTINUOUS
10
187.4796775521
20
171.5029258735
11
187.6796775521
21
171.5029258735
0
LINE
5
3C1
100
AcDbEntity
8
0
100
AcDbLine
62
7
6
CONTINUOUS
10
187.4796775521
20
171.5747292796
11
187.6796775521
21
171.5747292796
0
LINE
5
3C2
100
AcDbEntity
8
0
100
AcDbLine
62
9
6
CONTINUOUS
10
162.4796775521
20
171.7346413434
11
187.4796775521
21
171.7346413434
0
LINE
5
3C3
100
AcDbEntity
8
0
100
AcDbLine
62
7
6
CONTINUOUS
10
177.3877626265
20
177.5869461889
11
177.5409540976
21
177.5119462067
0
LINE
5
3C4
100
AcDbEntity
8
0
100
AcDbLine
62
7
6
CONTINUOUS
10
177.6558478082
20
177.6619462246
11
177.4260604943
21
177.8119461889
0
LINE
5
3C5
100
AcDbEntity
8
0
100
AcDbLine
62
7
6
CONTINUOUS
10
178.3835073496
20
178.5619461173
11
178.6132945831
21
178.4119461531
0
LINE
5
3C6
100
AcDbEntity
8
0
100
AcDbLine
62
7
6
CONTINUOUS
10
173.6824675680
20
178.3322068772
11
173.6550079496
21
178.3244260933
0
LINE
5
3C7
100
AcDbEntity
8
0
100
AcDbLine
62
7
6
CONTINUOUS
10
178.1920179571
20
177.4369461710
11
178.3835073496
21
177.4744461889
0
LINE
5
3C8
100
AcDbEntity
8
0
100
AcDbLine
62
7
6
CONTINUOUS
10
177.8473371471
20
178.7869461173
11
177.6558478082
21
178.7494462604
0
LINE
5
3C9
100
AcDbEntity
8
0
100
AcDbLine
62
7
6
CONTINUOUS
10
178.3835073496
20
177.6619462246
11
178.1537200893
21
177.6244461531
0
LINE
5
3CA
100
AcDbEntity
8
0
100
AcDbLine
62
7
6
CONTINUOUS
10
177.6558478082
20
178.5619461173
11
177.8856350149
21
178.5994461889
0
LINE
5
3CB
100
AcDbEntity
8
0
100
AcDbLine
62
7
6
CONTINUOUS
10
172.9152135135
20
177.6593723470
11
172.5566231788
21
177.6329551095
0
LINE
5
3CC
100
AcDbEntity
8
0
100
AcDbLine
62
7
6
CONTINUOUS
10
172.9975924016
20
177.5617666989
11
173.1995013357
21
177.5737567363
0
LINE
5
3CD
100
AcDbEntity
8
0
100
AcDbLine
62
7
6
CONTINUOUS
10
187.4796775521
20
175.5956887960
11
187.6796775521
21
175.5956887960
0
LINE
5
3CE
100
AcDbEntity
8
0
100
AcDbLine
62
7
6
CONTINUOUS
10
187.4796775521
20
175.6674922021
11
187.6796775521
21
175.6674922021
0
LINE
5
3CF
100
AcDbEntity
8
0
100
AcDbLine
62
7
6
CONTINUOUS
10
187.4796775521
20
175.8110973708
11
187.6796775521
21
175.8110973708
0
LINE
5
3D0
100
AcDbEntity
8
0
100
AcDbLine
62
7
6
CONTINUOUS
10
187.4796775521
20
176.0265059457
11
187.6796775521
21
176.0265059457
0
LINE
5
3D1
100
AcDbEntity
8
0
100
AcDbLine
62
7
6
CONTINUOUS
10
187.4796775521
20
176.3855213328
11
187.6796775521
21
176.3855213328
0
LINE
5
3D2
100
AcDbEntity
8
0
100
AcDbLine
62
7
6
CONTINUOUS
10
177.3877626265
20
176.6869461889
11
177.6941456760
21
176.6869461889
0
LINE
5
3D3
100
AcDbEntity
8
0
100
AcDbLine
62
7
6
CONTINUOUS
10
187.4796775521
20
176.7445350764
11
187.6796775521
21
176.7445350764
0
LINE
5
3D4
100
AcDbEntity
8
0
100
AcDbLine
62
7
6
CONTINUOUS
10
177.4260604943
20
176.9119461889
11
178.9196775521
21
176.9119461889
0
LINE
5
3D5
100
AcDbEntity
8
0
100
AcDbLine
62
7
6
CONTINUOUS
10
187.4796775521
20
177.0317470574
11
187.6796775521
21
177.0317470574
0
LINE
5
3D6
100
AcDbEntity
8
0
100
AcDbLine
62
7
6
CONTINUOUS
10
178.9196775521
20
177.1369461889
11
177.1196775521
21
177.1369461889
0
LINE
5
3D7
100
AcDbEntity
8
0
100
AcDbLine
62
7
6
CONTINUOUS
10
174.7030817808
20
177.3269461889
11
174.9584009887
21
177.3269461889
0
LINE
5
3D8
100
AcDbEntity
8
0
100
AcDbLine
62
7
6
CONTINUOUS
10
187.4796775521
20
177.3907608010
11
187.6796775521
21
177.3907608010
0
LINE
5
3D9
100
AcDbEntity
8
0
100
AcDbLine
62
7
6
CONTINUOUS
10
177.8473371471
20
177.4369461710
11
178.1920179571
21
177.4369461710
0
LINE
5
3DA
100
AcDbEntity
8
0
100
AcDbLine
62
7
6
CONTINUOUS
10
174.7349966706
20
177.5144461889
11
175.9796775521
21
177.5144461889
0
LINE
5
3DB
100
AcDbEntity
8
0
100
AcDbLine
62
7
6
CONTINUOUS
10
178.1537200893
20
177.6244461531
11
177.8856350149
21
177.6244461531
0
LINE
5
3DC
100
AcDbEntity
8
DEFAULT_1
100
AcDbLine
62
2
6
CENTER
10
190.4308986365
20
177.6269461889
11
178.1537200893
21
177.6244461531
0
LINE
5
3DD
100
AcDbEntity
8
DEFAULT_1
100
AcDbLine
62
2
6
CENTER
10
177.8856350149
20
177.6244461531
11
159.9026418015
21
177.6269461889
0
LINE
5
3DE
100
AcDbEntity
8
0
100
AcDbLine
62
7
6
CONTINUOUS
10
175.9796775521
20
177.7019461889
11
174.4796775521
21
177.7019461889
0
LINE
5
3DF
100
AcDbEntity
8
0
100
AcDbLine
62
7
6
CONTINUOUS
10
187.4796775521
20
177.7497745446
11
187.6796775521
21
177.7497745446
0
LINE
5
3E0
100
AcDbEntity
8
0
100
AcDbLine
62
7
6
CONTINUOUS
10
187.4796775521
20
177.9651831195
11
187.6796775521
21
177.9651831195
0
LINE
5
3E1
100
AcDbEntity
8
0
100
AcDbLine
62
7
6
CONTINUOUS
10
187.4796775521
20
178.1087899317
11
187.6796775521
21
178.1087899317
0
LINE
5
3E2
100
AcDbEntity
8
0
100
AcDbLine
62
7
6
CONTINUOUS
10
187.4796775521
20
178.1805916943
11
187.6796775521
21
178.1805916943
0
LINE
5
3E3
100
AcDbEntity
8
0
100
AcDbLine
62
7
6
CONTINUOUS
10
177.8856350149
20
178.5994461889
11
178.1537200893
21
178.5994461889
0
LINE
5
3E4
100
AcDbEntity
8
0
100
AcDbLine
62
7
6
CONTINUOUS
10
172.4968582214
20
176.8267890471
11
172.5307788552
21
176.8255825061
0
LINE
5
3E5
100
AcDbEntity
8
0
100
AcDbLine
62
7
6
CONTINUOUS
10
172.5275483311
20
176.8358750342
11
172.4209403814
21
176.8433356324
0
LINE
5
3E6
100
AcDbEntity
8
0
100
AcDbLine
62
7
6
CONTINUOUS
10
177.8856350149
20
177.6244461531
11
177.6558478082
21
177.6619462246
0
LINE
5
3E7
100
AcDbEntity
8
0
100
AcDbLine
62
7
6
CONTINUOUS
10
178.1537200893
20
178.5994461889
11
178.3835073496
21
178.5619461173
0
LINE
5
3E8
100
AcDbEntity
8
0
100
AcDbLine
62
7
6
CONTINUOUS
10
177.6558478082
20
177.4744461889
11
177.8473371471
21
177.4369461710
0
LINE
5
3E9
100
AcDbEntity
8
0
100
AcDbLine
62
7
6
CONTINUOUS
10
178.3835073496
20
178.7494462604
11
178.1920179571
21
178.7869461173
0
LINE
5
3EA
100
AcDbEntity
8
0
100
AcDbLine
62
7
6
CONTINUOUS
10
173.6550079496
20
178.3244260933
11
173.7276951672
21
178.3098878738
0
LINE
5
3EB
100
AcDbEntity
8
0
100
AcDbLine
62
7
6
CONTINUOUS
10
171.7796775521
20
177.6230754095
11
171.8394426407
21
177.6082867442
0
LINE
5
3EC
100
AcDbEntity
8
0
100
AcDbLine
62
7
6
CONTINUOUS
10
177.5409540976
20
177.5119462067
11
177.6558478082
21
177.4744461889
0
LINE
5
3ED
100
AcDbEntity
8
0
100
AcDbLine
62
7
6
CONTINUOUS
10
178.4984009529
20
178.7119461889
11
178.3835073496
21
178.7494462604
0
LINE
5
3EE
100
AcDbEntity
8
0
100
AcDbLine
62
7
6
CONTINUOUS
10
178.6515924509
20
178.6369462604
11
178.4984009529
21
178.7119461889
0
LINE
5
3EF
100
AcDbEntity
8
0
100
AcDbLine
62
7
6
CONTINUOUS
10
179.2366353223
20
74.7143896806
11
187.2824448899
21
78.5535877996
0
LINE
5
3F0
100
AcDbEntity
8
0
100
AcDbLine
62
7
6
CONTINUOUS
10
178.1920179571
20
178.7869461173
11
177.8473371471
21
178.7869461173
0
LINE
5
3F1
100
AcDbEntity
8
0
100
AcDbLine
62
7
6
CONTINUOUS
10
179.2366353223
20
184.4395026971
11
187.2824448899
21
180.6003045781
0
ARC
5
3F2
100
AcDbEntity
8
0
100
AcDbCircle
62
7
6
CONTINUOUS
10
84.0063186136
20
177.6269461889
40
1.1500000000
100
AcDbArc
50
10.0000000000
51
350.0000000000
0
ARC
5
3F3
100
AcDbEntity
8
0
100
AcDbCircle
62
7
6
CONTINUOUS
10
84.0063186136
20
177.6269461889
40
1.5356406461
100
AcDbArc
50
10.0000000000
51
350.0000000000
0
ARC
5
3F4
100
AcDbEntity
8
0
100
AcDbCircle
62
7
6
CONTINUOUS
10
54.6063186136
20
81.5269461889
40
1.1500000000
100
AcDbArc
50
190.0000000000
51
170.0000000000
0
ARC
5
3F5
100
AcDbEntity
8
0
100
AcDbCircle
62
7
6
CONTINUOUS
10
54.6063186136
20
81.5269461889
40
1.5356406461
100
AcDbArc
50
190.0000000000
51
170.0000000000
0
ARC
5
3F6
100
AcDbEntity
8
0
100
AcDbCircle
62
7
6
CONTINUOUS
10
90.1563186136
20
117.3269461889
40
2.5500000000
100
AcDbArc
50
308.3427492605
51
51.6572507395
0
ARC
5
3F7
100
AcDbEntity
8
0
100
AcDbCircle
62
7
6
CONTINUOUS
10
48.4563186136
20
117.3269461889
40
2.5500000000
100
AcDbArc
50
128.3427492605
51
231.6572507395
0
ARC
5
3F8
100
AcDbEntity
8
0
100
AcDbCircle
62
7
6
CONTINUOUS
10
69.3063186136
20
215.1269461889
40
28.0000000000
100
AcDbArc
50
279.3520350576
51
296.7655005768
0
ARC
5
3F9
100
AcDbEntity
8
0
100
AcDbCircle
62
7
6
CONTINUOUS
10
69.3063186136
20
215.1269461889
40
28.0000000000
100
AcDbArc
50
243.2344994232
51
260.6479649424
0
ARC
5
3FA
100
AcDbEntity
8
0
100
AcDbCircle
62
7
6
CONTINUOUS
10
65.8716074623
20
168.1269461889
40
5.0000000000
100
AcDbArc
50
120.8063316542
51
165.0000000000
0
CIRCLE
5
3FB
100
AcDbEntity
8
0
100
AcDbCircle
62
7
6
CONTINUOUS
10
84.0063186136
20
177.6269461889
40
1.7500000000
0
ARC
5
3FC
100
AcDbEntity
8
0
100
AcDbCircle
62
7
6
CONTINUOUS
10
72.7410297648
20
168.1269461889
40
5.0000000000
100
AcDbArc
50
15.0000000000
51
59.1936683458
0
ARC
5
3FD
100
AcDbEntity
8
0
100
AcDbCircle
62
7
6
CONTINUOUS
10
98.3063186136
20
171.7346413434
40
6.0000000000
100
AcDbArc
50
180.0735305439
51
210.0000000000
0
ARC
5
3FE
100
AcDbEntity
8
0
100
AcDbCircle
62
7
6
CONTINUOUS
10
40.3063186136
20
171.7346413434
40
6.0000000000
100
AcDbArc
50
330.0000000000
51
360.0000000000
0
ARC
5
3FF
100
AcDbEntity
8
0
100
AcDbCircle
62
7
6
CONTINUOUS
10
69.3063186136
20
161.6269461889
40
10.0000000000
100
AcDbArc
50
165.0000000000
51
15.0000000000
0
ARC
5
400
100
AcDbEntity
8
0
100
AcDbCircle
62
7
6
CONTINUOUS
10
69.3063186136
20
161.6269461889
40
11.9798055041
100
AcDbArc
50
334.5544559087
51
15.0000000000
0
ARC
5
401
100
AcDbEntity
8
0
100
AcDbCircle
62
7
6
CONTINUOUS
10
98.3063186136
20
171.7346413434
40
7.3138029408
100
AcDbArc
50
180.0000000000
51
202.2933411327
0
ARC
5
402
100
AcDbEntity
8
0
100
AcDbCircle
62
7
6
CONTINUOUS
10
40.3063186136
20
171.7346413434
40
7.3138029408
100
AcDbArc
50
337.7066588673
51
360.0000000000
0
ARC
5
403
100
AcDbEntity
8
0
100
AcDbCircle
62
7
6
CONTINUOUS
10
69.3063186136
20
161.6269461889
40
11.9798055041
100
AcDbArc
50
165.0000000000
51
205.4455440913
0
ARC
5
404
100
AcDbEntity
8
0
100
AcDbCircle
62
7
6
CONTINUOUS
10
72.7410297648
20
91.0269461889
40
5.0000000000
100
AcDbArc
50
300.8063316542
51
345.0000000000
0
ARC
5
405
100
AcDbEntity
8
0
100
AcDbCircle
62
7
6
CONTINUOUS
10
65.8716074623
20
91.0269461889
40
5.0000000000
100
AcDbArc
50
195.0000000000
51
239.1936683458
0
ARC
5
406
100
AcDbEntity
8
0
100
AcDbCircle
62
7
6
CONTINUOUS
10
40.3063186136
20
87.4192510343
40
6.0000000000
100
AcDbArc
50
0.0000000000
51
30.0000000000
0
ARC
5
407
100
AcDbEntity
8
0
100
AcDbCircle
62
7
6
CONTINUOUS
10
69.3063186136
20
44.0269461889
40
28.0000000000
100
AcDbArc
50
99.3520350576
51
116.7655005768
0
ARC
5
408
100
AcDbEntity
8
0
100
AcDbCircle
62
7
6
CONTINUOUS
10
69.3063186136
20
44.0269461889
40
28.0000000000
100
AcDbArc
50
63.2344994232
51
80.6479649424
0
CIRCLE
5
409
100
AcDbEntity
8
0
100
AcDbCircle
62
7
6
CONTINUOUS
10
54.6063186136
20
81.5269461889
40
1.7500000000
0
ARC
5
40A
100
AcDbEntity
8
0
100
AcDbCircle
62
7
6
CONTINUOUS
10
98.3063186136
20
87.4192510343
40
6.0000000000
100
AcDbArc
50
150.0000000000
51
180.0000000000
0
ARC
5
40B
100
AcDbEntity
8
0
100
AcDbCircle
62
7
6
CONTINUOUS
10
69.3063186136
20
97.5269461889
40
10.0000000000
100
AcDbArc
50
345.0000000000
51
195.0000000000
0
ARC
5
40C
100
AcDbEntity
8
0
100
AcDbCircle
62
7
6
CONTINUOUS
10
40.3063186136
20
87.4192510343
40
7.3138029408
100
AcDbArc
50
0.0000000000
51
22.2933411327
0
ARC
5
40D
100
AcDbEntity
8
0
100
AcDbCircle
62
7
6
CONTINUOUS
10
69.3063186136
20
97.5269461889
40
11.9798055041
100
AcDbArc
50
154.5544559087
51
195.0000000000
0
ARC
5
40E
100
AcDbEntity
8
0
100
AcDbCircle
62
7
6
CONTINUOUS
10
54.6063186136
20
81.5269461889
40
2.2500000000
100
AcDbArc
50
21.7047170907
51
333.2830905566
0
ARC
5
40F
100
AcDbEntity
8
0
100
AcDbCircle
62
7
6
CONTINUOUS
10
69.3063186136
20
97.5269461889
40
11.9798055041
100
AcDbArc
50
345.0000000000
51
25.4455440913
0
ARC
5
410
100
AcDbEntity
8
0
100
AcDbCircle
62
7
6
CONTINUOUS
10
98.3063186136
20
87.4192510343
40
7.3138029408
100
AcDbArc
50
157.7066588673
51
180.0000000000
0
ARC
5
411
100
AcDbEntity
8
0
100
AcDbCircle
62
7
6
CONTINUOUS
10
174.9796775521
20
81.5269461889
40
4.8000000000
100
AcDbArc
50
21.4282320849
51
158.5717679151
0
ARC
5
412
100
AcDbEntity
8
0
100
AcDbCircle
62
7
6
CONTINUOUS
10
174.9796775521
20
81.5269461889
40
4.8000000000
100
AcDbArc
50
201.4282320849
51
338.5717679151
0
ARC
5
413
100
AcDbEntity
8
0
100
AcDbCircle
62
7
6
CONTINUOUS
10
174.9796775521
20
81.5269461889
40
4.3000000000
100
AcDbArc
50
24.1511207810
51
155.8488792190
0
ARC
5
414
100
AcDbEntity
8
0
100
AcDbCircle
62
7
6
CONTINUOUS
10
174.9796775521
20
81.5269461889
40
4.3000000000
100
AcDbArc
50
204.1511207810
51
335.8488792190
0
ARC
5
415
100
AcDbEntity
8
0
100
AcDbCircle
62
7
6
CONTINUOUS
10
195.8296775521
20
117.3269461889
40
2.5500000000
100
AcDbArc
50
308.3427492605
51
51.6572507395
0
ARC
5
416
100
AcDbEntity
8
0
100
AcDbCircle
62
7
6
CONTINUOUS
10
154.1296775521
20
117.3269461889
40
2.5500000000
100
AcDbArc
50
128.3427492605
51
231.6572507395
0
ARC
5
417
100
AcDbEntity
8
0
100
AcDbCircle
62
7
6
CONTINUOUS
10
195.4796775521
20
156.4797861685
40
8.0000000000
100
AcDbArc
50
180.0000000000
51
261.0000000000
0
CIRCLE
5
418
100
AcDbEntity
8
0
100
AcDbCircle
62
7
6
CONTINUOUS
10
174.9796775521
20
177.6269461889
40
4.2500000000
0
ARC
5
419
100
AcDbEntity
8
0
100
AcDbCircle
62
7
6
CONTINUOUS
10
174.9796775521
20
177.6269461889
40
12.5000000000
100
AcDbArc
50
22.6198649480
51
157.3801350520
0
ARC
5
41A
100
AcDbEntity
8
0
100
AcDbCircle
62
7
6
CONTINUOUS
10
154.4796775521
20
156.4797861685
40
8.0000000000
100
AcDbArc
50
279.0000000000
51
360.0000000000
0
ARC
5
41B
100
AcDbEntity
8
0
100
AcDbCircle
62
7
6
CONTINUOUS
10
195.4796775521
20
102.6741062092
40
8.0000000000
100
AcDbArc
50
99.0000000000
51
180.0000000000
0
ARC
5
41C
100
AcDbEntity
8
0
100
AcDbCircle
62
7
6
CONTINUOUS
10
174.9796775521
20
81.5269461889
40
12.5000000000
100
AcDbArc
50
202.6198649480
51
337.3801350520
0
CIRCLE
5
41D
100
AcDbEntity
8
0
100
AcDbCircle
62
7
6
CONTINUOUS
10
174.9796775521
20
81.5269461889
40
4.9000000000
0
ARC
5
41E
100
AcDbEntity
8
0
100
AcDbCircle
62
7
6
CONTINUOUS
10
154.4796775521
20
102.6741062092
40
8.0000000000
100
AcDbArc
50
0.0000000000
51
81.0000000000
0
ARC
5
41F
100
AcDbEntity
8
0
100
AcDbCircle
62
7
6
CONTINUOUS
10
174.9796775521
20
81.5269461889
40
4.8750000000
100
AcDbArc
50
21.0740389039
51
158.9259610961
0
ARC
5
420
100
AcDbEntity
8
0
100
AcDbCircle
62
7
6
CONTINUOUS
10
174.9796775521
20
81.5269461889
40
4.8750000000
100
AcDbArc
50
201.0740389039
51
338.9259610961
0
SPLINE
5
421
100
AcDbEntity
8
0
100
AcDbSpline
62
7
6
CONTINUOUS
70
0
71
3
72
14
73
10
74
8
42
0.0000001000
43
0.0000001000
44
0.0000000001
12
4.3161727637
22
0.0000000000
32
0.0000000000
13
0.0000000000
23
4.3161727637
33
0.0000000000
40
0.0000000000
40
0.0000000000
40
0.0000000000
40
0.0000000000
40
0.0339196898
40
0.1103384964
40
0.2296981476
40
0.3867088554
40
0.5737182281
40
0.7815300965
40
1.0000000000
40
1.0000000000
40
1.0000000000
40
1.0000000000
10
46.3063186136
20
173.3769461889
30
0.0000000000
10
46.3551196940
20
173.3769461889
30
0.0000000000
10
46.4470053464
20
173.5576064176
30
0.0000000000
10
46.5150184941
20
173.8485539320
30
0.0000000000
10
46.5997205080
20
174.3660041821
30
0.0000000000
10
46.6632399932
20
175.0232941737
30
0.0000000000
10
46.7147219743
20
175.8179505751
30
0.0000000000
10
46.7458684452
20
176.6991307119
30
0.0000000000
10
46.7530116134
20
177.3126282397
30
0.0000000000
10
46.7530116134
20
177.6269461889
30
0.0000000000
11
46.3063186136
21
173.3769461889
31
0.0000000000
11
46.4060177038
21
173.4841562650
31
0.0000000000
11
46.5006332227
21
173.8001312633
31
0.0000000000
11
46.5853704761
21
174.3082914851
31
0.0000000000
11
46.6559901381
21
174.9822872450
31
0.0000000000
11
46.7090160548
21
175.7877083795
31
0.0000000000
11
46.7418797707
21
176.6840580511
31
0.0000000000
11
46.7530116134
21
177.6269461889
31
0.0000000000
0
SPLINE
5
422
100
AcDbEntity
8
0
100
AcDbSpline
62
7
6
CONTINUOUS
70
0
71
3
72
14
73
10
74
8
42
0.0000001000
43
0.0000001000
44
0.0000000001
12
-2.7700687482
22
0.0000000000
32
0.0000000000
13
-0.2299673617
23
2.7605064539
33
0.0000000000
40
0.0000000000
40
0.0000000000
40
0.0000000000
40
0.0000000000
40
0.0510203644
40
0.1170196270
40
0.2306268328
40
0.3833619450
40
0.5642459389
40
0.7708966502
40
1.0000000000
40
1.0000000000
40
1.0000000000
40
1.0000000000
10
63.7339608900
20
172.7269461889
30
0.0000000000
10
63.6868509177
20
172.7269461889
30
0.0000000000
10
63.5571543899
20
172.7751046380
30
0.0000000000
10
63.6215619192
20
173.0253064738
30
0.0000000000
10
63.7253655810
20
173.2903320985
30
0.0000000000
10
63.8732954368
20
173.6860535795
30
0.0000000000
10
64.0044709584
20
174.1650209591
30
0.0000000000
10
64.0878280955
20
174.7309761176
30
0.0000000000
10
64.0870135018
20
175.1351330516
30
0.0000000000
10
64.0694514041
20
175.3459468102
30
0.0000000000
11
63.7339608900
21
172.7269461889
31
0.0000000000
11
63.6046229177
21
172.7839184131
31
0.0000000000
11
63.6090683688
21
172.9666868529
31
0.0000000000
11
63.7140375274
21
173.2633641544
31
0.0000000000
11
63.8578329736
21
173.6612652440
31
0.0000000000
11
63.9891289982
21
174.1448183210
31
0.0000000000
11
64.0713619123
21
174.7113176565
31
0.0000000000
11
64.0694514041
21
175.3459468102
31
0.0000000000
0
SPLINE
5
423
100
AcDbEntity
8
0
100
AcDbSpline
62
7
6
CONTINUOUS
70
0
71
3
72
10
73
6
74
4
42
0.0000001000
43
0.0000001000
44
0.0000000001
12
-0.1895570045
22
2.2754243496
32
0.0000000000
13
0.0000000000
23
2.2833063370
33
0.0000000000
40
0.0000000000
40
0.0000000000
40
0.0000000000
40
0.0000000000
40
0.3192583560
40
0.6552819786
40
1.0000000000
40
1.0000000000
40
1.0000000000
40
1.0000000000
10
64.0694511745
20
175.3459500977
30
0.0000000000
10
64.0492786219
20
175.5880995100
30
0.0000000000
10
64.0161293109
20
176.0858243625
30
0.0000000000
10
63.9867845767
20
176.8464395765
30
0.0000000000
10
63.9802348560
20
177.3645805746
30
0.0000000000
10
63.9802348560
20
177.6269461889
30
0.0000000000
11
64.0694511745
21
175.3459500977
31
0.0000000000
11
64.0202816934
21
176.0732545662
31
0.0000000000
11
63.9903111335
21
176.8399138462
31
0.0000000000
11
63.9802348560
21
177.6269461889
31
0.0000000000
0
SPLINE
5
424
100
AcDbEntity
8
0
100
AcDbSpline
62
7
6
CONTINUOUS
70
0
71
3
72
15
73
11
74
9
42
0.0000001000
43
0.0000001000
44
0.0000000001
12
0.0000000000
22
5.0609203251
32
0.0000000000
13
5.0609203251
23
0.0000000000
33
0.0000000000
40
0.0000000000
40
0.0000000000
40
0.0000000000
40
0.0000000000
40
0.1875595144
40
0.3683846761
40
0.5359424866
40
0.6840948727
40
0.8074054911
40
0.9015849121
40
0.9644443054
40
1.0000000000
40
1.0000000000
40
1.0000000000
40
1.0000000000
10
63.9802348560
20
177.6269461889
30
0.0000000000
10
63.9802348560
20
177.9433541083
30
0.0000000000
10
63.9896603308
20
178.5648492600
30
0.0000000000
10
64.0319956651
20
179.4681609915
30
0.0000000000
10
64.1002459419
20
180.3031284972
30
0.0000000000
10
64.1933338311
20
181.0384986524
30
0.0000000000
10
64.3020513636
20
181.6450340683
30
0.0000000000
10
64.4343684607
20
182.1035070594
30
0.0000000000
10
64.5534942004
20
182.3988721141
30
0.0000000000
10
64.6963371010
20
182.5269461889
30
0.0000000000
10
64.7563186136
20
182.5269461889
30
0.0000000000
11
63.9802348560
21
177.6269461889
31
0.0000000000
11
63.9949326283
21
178.5760561504
31
0.0000000000
11
64.0385305552
21
179.4901587802
31
0.0000000000
11
64.1095457598
21
180.3351767051
31
0.0000000000
11
64.2054979014
21
181.0787991663
31
0.0000000000
11
64.3229226753
21
181.6917174437
31
0.0000000000
11
64.4574285041
21
182.1489795922
31
0.0000000000
11
64.6038228644
21
182.4314208878
31
0.0000000000
11
64.7563186136
21
182.5269461889
31
0.0000000000
0
SPLINE
5
425
100
AcDbEntity
8
0
100
AcDbSpline
62
7
6
CONTINUOUS
70
0
71
3
72
14
73
10
74
8
42
0.0000001000
43
0.0000001000
44
0.0000000001
12
0.0000000000
22
4.3161727307
32
0.0000000000
13
-4.3161727307
23
0.0000000000
33
0.0000000000
40
0.0000000000
40
0.0000000000
40
0.0000000000
40
0.0000000000
40
0.2184705770
40
0.4262824124
40
0.6132913583
40
0.7703016548
40
0.8896611833
40
0.9660801448
40
1.0000000000
40
1.0000000000
40
1.0000000000
40
1.0000000000
10
46.7530116134
20
177.6269461889
30
0.0000000000
10
46.7530116134
20
177.9412651045
30
0.0000000000
10
46.7458684140
20
178.5547635509
30
0.0000000000
10
46.7147218587
20
179.4359439823
30
0.0000000000
10
46.6632399096
20
180.2305991273
30
0.0000000000
10
46.5997205156
20
180.8878877245
30
0.0000000000
10
46.5150187209
20
181.4053374969
30
0.0000000000
10
46.4470055426
20
181.6962851006
30
0.0000000000
10
46.3551199315
20
181.8769461889
30
0.0000000000
10
46.3063186136
20
181.8769461889
30
0.0000000000
11
46.7530116134
21
177.6269461889
31
0.0000000000
11
46.7418797013
21
178.5698372257
31
0.0000000000
11
46.7090159162
21
179.4661867457
31
0.0000000000
11
46.6559900630
21
180.2716060316
31
0.0000000000
11
46.5853705906
21
180.9456000212
31
0.0000000000
11
46.5006335232
21
181.4537597330
31
0.0000000000
11
46.4060180169
21
181.7697354306
31
0.0000000000
11
46.3063186136
21
181.8769461889
31
0.0000000000
0
SPLINE
5
426
100
AcDbEntity
8
0
100
AcDbSpline
62
7
6
CONTINUOUS
70
0
71
3
72
9
73
5
74
3
42
0.0000001000
43
0.0000001000
44
0.0000000001
12
0.2998120087
22
0.7049568967
32
0.0000000000
13
0.3830321369
23
0.6634288574
33
0.0000000000
40
0.0000000000
40
0.0000000000
40
0.0000000000
40
0.0000000000
40
0.4997842368
40
1.0000000000
40
1.0000000000
40
1.0000000000
40
1.0000000000
10
43.3063186013
20
164.8378784617
30
0.0000000000
10
43.3562657066
20
164.9553205765
30
0.0000000000
10
43.4633727612
20
165.1873209034
30
0.0000000000
10
43.5843680632
20
165.4123899176
30
0.0000000000
10
43.6482343008
20
165.5230091083
30
0.0000000000
11
43.3063186013
21
164.8378784617
31
0.0000000000
11
43.4667956076
21
165.1854894562
31
0.0000000000
11
43.6482343008
21
165.5230091083
31
0.0000000000
0
SPLINE
5
427
100
AcDbEntity
8
0
100
AcDbSpline
62
7
6
CONTINUOUS
70
0
71
3
72
9
73
5
74
3
42
0.0000001000
43
0.0000001000
44
0.0000000001
12
-0.3950770905
22
-0.3418359834
32
0.0000000000
13
-0.4487141155
23
-0.2675694107
33
0.0000000000
40
0.0000000000
40
0.0000000000
40
0.0000000000
40
0.0000000000
40
0.5002017736
40
1.0000000000
40
1.0000000000
40
1.0000000000
40
1.0000000000
10
63.7339608900
20
172.7269461889
30
0.0000000000
10
63.6680881362
20
172.6699505338
30
0.0000000000
10
63.5313096878
20
172.5617547379
30
0.0000000000
10
63.3855689850
20
172.4659769707
30
0.0000000000
10
63.3108134787
20
172.4214000651
30
0.0000000000
11
63.7339608900
21
172.7269461889
31
0.0000000000
11
63.5290121189
21
172.5648180891
31
0.0000000000
11
63.3108134787
21
172.4214000651
31
0.0000000000
0
SPLINE
5
428
100
AcDbEntity
8
0
100
AcDbSpline
62
7
6
CONTINUOUS
70
0
71
3
72
10
73
6
74
4
42
0.0000001000
43
0.0000001000
44
0.0000000001
12
0.1895570060
22
2.2754243495
32
0.0000000000
13
0.0000000000
23
2.2833063370
33
0.0000000000
40
0.0000000000
40
0.0000000000
40
0.0000000000
40
0.0000000000
40
0.3192583560
40
0.6552819786
40
1.0000000000
40
1.0000000000
40
1.0000000000
40
1.0000000000
10
74.5431860527
20
175.3459500977
30
0.0000000000
10
74.5633586054
20
175.5880995100
30
0.0000000000
10
74.5965079162
20
176.0858243625
30
0.0000000000
10
74.6258526505
20
176.8464395764
30
0.0000000000
10
74.6324023712
20
177.3645805746
30
0.0000000000
10
74.6324023712
20
177.6269461889
30
0.0000000000
11
74.5431860527
21
175.3459500977
31
0.0000000000
11
74.5923555338
21
176.0732545662
31
0.0000000000
11
74.6223260937
21
176.8399138462
31
0.0000000000
11
74.6324023712
21
177.6269461889
31
0.0000000000
0
SPLINE
5
429
100
AcDbEntity
8
0
100
AcDbSpline
62
7
6
CONTINUOUS
70
0
71
3
72
15
73
11
74
9
42
0.0000001000
43
0.0000001000
44
0.0000000001
12
0.0000000000
22
5.0609203251
32
0.0000000000
13
-5.0609203251
23
0.0000000000
33
0.0000000000
40
0.0000000000
40
0.0000000000
40
0.0000000000
40
0.0000000000
40
0.1875595144
40
0.3683846761
40
0.5359424866
40
0.6840948727
40
0.8074054911
40
0.9015849121
40
0.9644443054
40
1.0000000000
40
1.0000000000
40
1.0000000000
40
1.0000000000
10
74.6324023712
20
177.6269461889
30
0.0000000000
10
74.6324023712
20
177.9433541083
30
0.0000000000
10
74.6229768964
20
178.5648492600
30
0.0000000000
10
74.5806415621
20
179.4681609915
30
0.0000000000
10
74.5123912853
20
180.3031284972
30
0.0000000000
10
74.4193033960
20
181.0384986524
30
0.0000000000
10
74.3105858636
20
181.6450340683
30
0.0000000000
10
74.1782687665
20
182.1035070594
30
0.0000000000
10
74.0591430267
20
182.3988721141
30
0.0000000000
10
73.9163001261
20
182.5269461889
30
0.0000000000
10
73.8563186136
20
182.5269461889
30
0.0000000000
11
74.6324023712
21
177.6269461889
31
0.0000000000
11
74.6177045989
21
178.5760561504
31
0.0000000000
11
74.5741066719
21
179.4901587802
31
0.0000000000
11
74.5030914674
21
180.3351767051
31
0.0000000000
11
74.4071393258
21
181.0787991663
31
0.0000000000
11
74.2897145519
21
181.6917174437
31
0.0000000000
11
74.1552087231
21
182.1489795922
31
0.0000000000
11
74.0088143627
21
182.4314208878
31
0.0000000000
11
73.8563186136
21
182.5269461889
31
0.0000000000
0
SPLINE
5
42A
100
AcDbEntity
8
0
100
AcDbSpline
62
7
6
CONTINUOUS
70
0
71
3
72
14
73
10
74
8
42
0.0000001000
43
0.0000001000
44
0.0000000001
12
0.0000000000
22
5.9585867170
32
0.0000000000
13
4.2133570739
23
4.2133570739
33
0.0000000000
40
0.0000000000
40
0.0000000000
40
0.0000000000
40
0.0000000000
40
0.2057232512
40
0.4028826756
40
0.5831849951
40
0.7389101576
40
0.8633092330
40
0.9511485018
40
1.0000000000
40
1.0000000000
40
1.0000000000
40
1.0000000000
10
91.7451815115
20
177.6269461889
30
0.0000000000
10
91.7451815115
20
178.0355527994
30
0.0000000000
10
91.7538096670
20
178.8358293485
30
0.0000000000
10
91.7924856484
20
179.9934271435
30
0.0000000000
10
91.8545962636
20
181.0513245760
30
0.0000000000
10
91.9383438017
20
181.9605243295
30
0.0000000000
10
92.0354185090
20
182.6895842498
30
0.0000000000
10
92.1476630863
20
183.1873979831
30
0.0000000000
10
92.2377090118
20
183.4583365871
30
0.0000000000
10
92.3063186136
20
183.5269461889
30
0.0000000000
11
91.7451815115
21
177.6269461889
31
0.0000000000
11
91.7587099920
21
178.8526913663
31
0.0000000000
11
91.7987702902
21
180.0267996687
31
0.0000000000
11
91.8637865296
21
181.0991775767
31
0.0000000000
11
91.9511339738
21
182.0229591157
31
0.0000000000
11
92.0571739756
21
182.7565776993
31
0.0000000000
11
92.1773419741
21
183.2659940464
31
0.0000000000
11
92.3063186136
21
183.5269461889
31
0.0000000000
0
SPLINE
5
42B
100
AcDbEntity
8
0
100
AcDbSpline
62
7
6
CONTINUOUS
70
0
71
3
72
14
73
10
74
8
42
0.0000001000
43
0.0000001000
44
0.0000000001
12
-3.9774212270
22
4.4229912994
32
0.0000000000
13
0.0000000000
23
5.9483385623
33
0.0000000000
40
0.0000000000
40
0.0000000000
40
0.0000000000
40
0.0000000000
40
0.0504458821
40
0.1393895557
40
0.2642304938
40
0.4197793997
40
0.5993965612
40
0.7955102711
40
1.0000000000
40
1.0000000000
40
1.0000000000
40
1.0000000000
10
92.2990312307
20
171.7346414894
30
0.0000000000
10
92.2321497232
20
171.8090153886
30
0.0000000000
10
92.1427927389
20
172.0828455127
30
0.0000000000
10
92.0317492552
20
172.5881182083
30
0.0000000000
10
91.9356364826
20
173.3179048450
30
0.0000000000
10
91.8530391178
20
174.2251240517
30
0.0000000000
10
91.7917845872
20
175.2773397153
30
0.0000000000
10
91.7536829349
20
176.4271165977
30
0.0000000000
10
91.7451815115
20
177.2214881422
30
0.0000000000
10
91.7451815115
20
177.6269461889
30
0.0000000000
11
92.2990312307
21
171.7346414894
31
0.0000000000
11
92.1715033080
21
172.0062628163
31
0.0000000000
11
92.0527565884
21
172.5218316237
31
0.0000000000
11
91.9481120387
21
173.2570177125
31
0.0000000000
11
91.8619996725
21
174.1782593763
31
0.0000000000
11
91.7979479663
21
175.2447613957
31
0.0000000000
11
91.7585000766
21
176.4106449664
31
0.0000000000
11
91.7451815115
21
177.6269461889
31
0.0000000000
0
SPLINE
5
42C
100
AcDbEntity
8
0
100
AcDbSpline
62
7
6
CONTINUOUS
70
0
71
3
72
8
73
4
74
2
42
0.0000001000
43
0.0000001000
44
0.0000000001
12
-0.0037132073
22
0.0037132073
32
0.0000000000
13
-0.0036106429
23
0.0038133327
33
0.0000000000
40
0.0000000000
40
0.0000000000
40
0.0000000000
40
0.0000000000
40
1.0000000000
40
1.0000000000
40
1.0000000000
40
1.0000000000
10
92.3063235545
20
171.7269412450
30
0.0000000000
10
92.3050858188
20
171.7281789808
30
0.0000000000
10
92.3038656056
20
171.7294343408
30
0.0000000000
10
92.3026620580
20
171.7307054517
30
0.0000000000
11
92.3063235545
21
171.7269412450
31
0.0000000000
11
92.3026620580
21
171.7307054517
31
0.0000000000
0
SPLINE
5
42D
100
AcDbEntity
8
0
100
AcDbSpline
62
7
6
CONTINUOUS
70
0
71
3
72
8
73
4
74
2
42
0.0000001000
43
0.0000001000
44
0.0000000001
12
-0.0036819194
22
0.0038886104
32
0.0000000000
13
-0.0035806332
23
0.0039817532
33
0.0000000000
40
0.0000000000
40
0.0000000000
40
0.0000000000
40
0.0000000000
40
1.0000000000
40
1.0000000000
40
1.0000000000
40
1.0000000000
10
92.3026620580
20
171.7307054517
30
0.0000000000
10
92.3014347515
20
171.7320016552
30
0.0000000000
10
92.3002247751
20
171.7333142384
30
0.0000000000
10
92.2990312307
20
171.7346414894
30
0.0000000000
11
92.3026620580
21
171.7307054517
31
0.0000000000
11
92.2990312307
21
171.7346414894
31
0.0000000000
0
SPLINE
5
42E
100
AcDbEntity
8
0
100
AcDbSpline
62
7
6
CONTINUOUS
70
0
71
3
72
9
73
5
74
3
42
0.0000001000
43
0.0000001000
44
0.0000000001
12
0.3830317532
22
-0.6634290811
32
0.0000000000
13
0.2998118257
23
-0.7049569766
33
0.0000000000
40
0.0000000000
40
0.0000000000
40
0.0000000000
40
0.0000000000
40
0.5000969103
40
1.0000000000
40
1.0000000000
40
1.0000000000
40
1.0000000000
10
94.9644029264
20
165.5230091083
30
0.0000000000
10
95.0282539251
20
165.4124161637
30
0.0000000000
10
95.1492508418
20
165.1873481503
30
0.0000000000
10
95.2563596746
20
164.9553485156
30
0.0000000000
10
95.3063186272
20
164.8378784587
30
0.0000000000
11
94.9644029264
21
165.5230091083
31
0.0000000000
11
95.1458009265
21
165.1855709503
31
0.0000000000
11
95.3063186272
21
164.8378784587
31
0.0000000000
0
SPLINE
5
42F
100
AcDbEntity
8
0
100
AcDbSpline
62
7
6
CONTINUOUS
70
0
71
3
72
14
73
10
74
8
42
0.0000001000
43
0.0000001000
44
0.0000000001
12
-0.2299659085
22
-2.7604889889
32
0.0000000000
13
-2.7700512228
23
0.0000000000
33
0.0000000000
40
0.0000000000
40
0.0000000000
40
0.0000000000
40
0.0000000000
40
0.2282552956
40
0.4349253268
40
0.6160991094
40
0.7690871374
40
0.8828461186
40
0.9489364350
40
1.0000000000
40
1.0000000000
40
1.0000000000
40
1.0000000000
10
74.5431858220
20
175.3459467964
30
0.0000000000
10
74.5256888432
20
175.1359147197
30
0.0000000000
10
74.5247528314
20
174.7325445634
30
0.0000000000
10
74.6077272119
20
174.1670393569
30
0.0000000000
10
74.7388285982
20
173.6875168396
30
0.0000000000
10
74.8869650179
20
173.2911645458
30
0.0000000000
10
74.9908598785
20
173.0257377509
30
0.0000000000
10
75.0556439698
20
172.7753009950
30
0.0000000000
10
74.9258259008
20
172.7269461889
30
0.0000000000
10
74.8786763372
20
172.7269461889
30
0.0000000000
11
74.5431858220
21
175.3459467964
31
0.0000000000
11
74.5410973817
21
174.7136713848
31
0.0000000000
11
74.6230250624
21
174.1470774112
31
0.0000000000
11
74.7543358207
21
173.6626998673
31
0.0000000000
11
74.8983093622
21
173.2641210555
31
0.0000000000
11
75.0034663518
21
172.9670663624
31
0.0000000000
11
75.0080856213
21
172.7840510863
31
0.0000000000
11
74.8786763372
21
172.7269461889
31
0.0000000000
0
SPLINE
5
430
100
AcDbEntity
8
0
100
AcDbSpline
62
7
6
CONTINUOUS
70
0
71
3
72
9
73
5
74
3
42
0.0000001000
43
0.0000001000
44
0.0000000001
12
-0.4487141151
22
0.2675694105
32
0.0000000000
13
-0.3950770902
23
0.3418359831
33
0.0000000000
40
0.0000000000
40
0.0000000000
40
0.0000000000
40
0.0000000000
40
0.4996769307
40
1.0000000000
40
1.0000000000
40
1.0000000000
40
1.0000000000
10
75.3018237485
20
172.4214000651
30
0.0000000000
10
75.2270863845
20
172.4659661523
30
0.0000000000
10
75.0813447990
20
172.5617422800
30
0.0000000000
10
74.9445650647
20
172.6699367128
30
0.0000000000
10
74.8786763372
20
172.7269461889
30
0.0000000000
11
75.3018237485
21
172.4214000651
31
0.0000000000
11
75.0836765367
21
172.5647809609
31
0.0000000000
11
74.8786763372
21
172.7269461889
31
0.0000000000
0
SPLINE
5
431
100
AcDbEntity
8
0
100
AcDbSpline
62
7
6
CONTINUOUS
70
0
71
3
72
11
73
7
74
5
42
0.0000001000
43
0.0000001000
44
0.0000000001
12
2.4617835904
22
0.4054285696
32
0.0000000000
13
0.4878682700
23
-2.4467806036
33
0.0000000000
40
0.0000000000
40
0.0000000000
40
0.0000000000
40
0.0000000000
40
0.1183368070
40
0.3129814821
40
0.6076566231
40
1.0000000000
40
1.0000000000
40
1.0000000000
40
1.0000000000
10
73.8563186136
20
187.4991069682
30
0.0000000000
10
73.9534251501
20
187.5150993424
30
0.0000000000
10
74.2167821398
20
187.3696010044
30
0.0000000000
10
74.4432596437
20
186.9148232052
30
0.0000000000
10
74.6904149069
20
186.2231782134
30
0.0000000000
10
74.8146680769
20
185.6641448732
30
0.0000000000
10
74.8784720384
20
185.3441521517
30
0.0000000000
11
73.8563186136
21
187.4991069682
31
0.0000000000
11
74.1316005788
21
187.3923888398
31
0.0000000000
11
74.3988251056
21
186.9868948442
31
0.0000000000
11
74.6504635547
21
186.2961021069
31
0.0000000000
11
74.8784720384
21
185.3441521517
31
0.0000000000
0
SPLINE
5
432
100
AcDbEntity
8
0
100
AcDbSpline
62
9
6
CONTINUOUS
70
0
71
3
72
10
73
6
74
4
42
0.0000001000
43
0.0000001000
44
0.0000000001
12
-1.0420546360
22
0.8609697741
32
0.0000000000
13
-1.1035582522
23
0.7805805533
33
0.0000000000
40
0.0000000000
40
0.0000000000
40
0.0000000000
40
0.0000000000
40
0.3574000274
40
0.6907140418
40
1.0000000000
40
1.0000000000
40
1.0000000000
40
1.0000000000
10
63.3109185430
20
172.4214627226
30
0.0000000000
10
63.1867750912
20
172.5240329295
30
0.0000000000
10
62.9436406241
20
172.7183926022
30
0.0000000000
10
62.5844762358
20
172.9905186669
30
0.0000000000
10
62.3496657991
20
173.1599625420
30
0.0000000000
10
62.2358941086
20
173.2404367435
30
0.0000000000
11
63.3109185430
21
172.4214627226
31
0.0000000000
11
62.9338381540
21
172.7234570539
31
0.0000000000
11
62.5747669617
21
172.9955979366
31
0.0000000000
11
62.2358941086
21
173.2404367435
31
0.0000000000
0
SPLINE
5
433
100
AcDbEntity
8
0
100
AcDbSpline
62
7
6
CONTINUOUS
70
0
71
3
72
13
73
9
74
7
42
0.0000001000
43
0.0000001000
44
0.0000000001
12
2.6387959539
22
1.1727790682
32
0.0000000000
13
-0.0000434897
23
2.8876729087
33
0.0000000000
40
0.0000000000
40
0.0000000000
40
0.0000000000
40
0.0000000000
40
0.1588275484
40
0.3232320596
40
0.4879788106
40
0.6561751002
40
0.8283857172
40
1.0000000000
40
1.0000000000
40
1.0000000000
40
1.0000000000
10
62.2360093966
20
173.2404797766
30
0.0000000000
10
62.3757138939
20
173.3025696514
30
0.0000000000
10
62.6498749013
20
173.4535049079
30
0.0000000000
10
63.0158713548
20
173.7521748168
30
0.0000000000
10
63.3243531065
20
174.1222120488
30
0.0000000000
10
63.5578531037
20
174.5524613581
30
0.0000000000
10
63.7023049455
20
175.0270762845
30
0.0000000000
10
63.7341676765
20
175.3589850961
30
0.0000000000
10
63.7341651887
20
175.5241737345
30
0.0000000000
11
62.2360093966
21
173.2404797766
31
0.0000000000
11
62.6374837604
21
173.4622247369
31
0.0000000000
11
63.0049582550
21
173.7628019989
31
0.0000000000
11
63.3093318767
21
174.1284250719
31
0.0000000000
11
63.5410288499
21
174.5552938922
31
0.0000000000
11
63.6861322887
21
175.0309411152
31
0.0000000000
11
63.7341651887
21
175.5241737345
31
0.0000000000
0
SPLINE
5
434
100
AcDbEntity
8
0
100
AcDbSpline
62
9
6
CONTINUOUS
70
0
71
3
72
9
73
5
74
3
42
0.0000001000
43
0.0000001000
44
0.0000000001
12
-0.3343548278
22
0.1799254607
32
0.0000000000
13
-0.3361574915
23
0.1765345950
33
0.0000000000
40
0.0000000000
40
0.0000000000
40
0.0000000000
40
0.0000000000
40
0.5082320374
40
1.0000000000
40
1.0000000000
40
1.0000000000
40
1.0000000000
10
64.0694511745
20
175.3459500977
30
0.0000000000
10
64.0128078960
20
175.3764313922
30
0.0000000000
10
63.9012057908
20
175.4361276415
30
0.0000000000
10
63.7892690170
20
175.4951935492
30
0.0000000000
10
63.7341651887
20
175.5241315686
30
0.0000000000
11
64.0694511745
21
175.3459500977
31
0.0000000000
11
63.8992819205
21
175.4369476679
31
0.0000000000
11
63.7341651887
21
175.5241315686
31
0.0000000000
0
SPLINE
5
435
100
AcDbEntity
8
0
100
AcDbSpline
62
7
6
CONTINUOUS
70
0
71
3
72
10
73
6
74
4
42
0.0000001000
43
0.0000001000
44
0.0000000001
12
-0.8835957781
22
2.1991717634
32
0.0000000000
13
0.0000000000
23
2.3700417600
33
0.0000000000
40
0.0000000000
40
0.0000000000
40
0.0000000000
40
0.0000000000
40
0.3541695805
40
0.6874142673
40
1.0000000000
40
1.0000000000
40
1.0000000000
40
1.0000000000
10
82.3950984955
20
180.1269461889
30
0.0000000000
10
82.2907842468
20
180.3865727692
30
0.0000000000
10
82.1137018265
20
180.9014614611
30
0.0000000000
10
81.9514274466
20
181.6768179296
30
0.0000000000
10
81.9158388265
20
182.1876914166
30
0.0000000000
10
81.9158388265
20
182.4346384965
30
0.0000000000
11
82.3950984955
21
180.1269461889
31
0.0000000000
11
82.1257071992
21
180.9219399892
31
0.0000000000
11
81.9665030123
21
181.6955316821
31
0.0000000000
11
81.9158388265
21
182.4346384965
31
0.0000000000
0
SPLINE
5
436
100
AcDbEntity
8
0
100
AcDbSpline
62
7
6
CONTINUOUS
70
0
71
3
72
16
73
12
74
10
42
0.0000001000
43
0.0000001000
44
0.0000000001
12
10.4178831592
22
1.4982910566
32
0.0000000000
13
0.0000000000
23
10.5250731878
33
0.0000000000
40
0.0000000000
40
0.0000000000
40
0.0000000000
40
0.0000000000
40
0.1043737356
40
0.2112865884
40
0.3172964242
40
0.4196051951
40
0.5203001174
40
0.6301840822
40
0.7483544562
40
0.8731399986
40
1.0000000000
40
1.0000000000
40
1.0000000000
40
1.0000000000
10
86.7847143977
20
148.5782794688
30
0.0000000000
10
87.1471655253
20
148.6304068803
30
0.0000000000
10
87.8756250556
20
148.7836866666
30
0.0000000000
10
88.9147696251
20
149.2034095639
30
0.0000000000
10
89.8325853974
20
149.8382940108
30
0.0000000000
10
90.5681622898
20
150.6458694216
30
0.0000000000
10
91.1397437830
20
151.5893868239
30
0.0000000000
10
91.5734175354
20
152.6626094333
30
0.0000000000
10
91.8817574512
20
153.8645700189
30
0.0000000000
10
92.0643253124
20
155.1512874546
30
0.0000000000
10
92.1043448439
20
156.0347159021
30
0.0000000000
10
92.1043448439
20
156.4797861685
30
0.0000000000
11
86.7847143977
21
148.5782794688
31
0.0000000000
11
87.8579646494
21
148.8126438846
31
0.0000000000
11
88.8982166877
21
149.2417107408
31
0.0000000000
11
89.8147070980
21
149.8780821451
31
0.0000000000
11
90.5434592422
21
150.6708206116
31
0.0000000000
11
91.0985145839
21
151.5736688952
31
0.0000000000
11
91.5389106625
21
152.6430746179
31
0.0000000000
11
91.8541235704
21
153.8462202657
31
0.0000000000
11
92.0425941549
21
155.1460040532
31
0.0000000000
11
92.1043448439
21
156.4797861685
31
0.0000000000
0
SPLINE
5
437
100
AcDbEntity
8
0
100
AcDbSpline
62
7
6
CONTINUOUS
70
0
71
3
72
15
73
11
74
9
42
0.0000001000
43
0.0000001000
44
0.0000000001
12
13.8694293522
22
1.6883517200
32
0.0000000000
13
6.0030327945
23
12.6164654065
33
0.0000000000
40
0.0000000000
40
0.0000000000
40
0.0000000000
40
0.0000000000
40
0.1214580740
40
0.2412988183
40
0.3592327209
40
0.4776672711
40
0.5994050416
40
0.7267023519
40
0.8603769187
40
1.0000000000
40
1.0000000000
40
1.0000000000
40
1.0000000000
10
69.3063169888
20
148.5782794437
30
0.0000000000
10
69.8678350479
20
148.6466340932
30
0.0000000000
10
70.9760837206
20
148.8530404740
30
0.0000000000
10
72.5739113700
20
149.3624784171
30
0.0000000000
10
74.0851742109
20
150.0565768529
30
0.0000000000
10
75.5094751055
20
150.9319839533
30
0.0000000000
10
76.8512958848
20
152.0011690688
30
0.0000000000
10
78.0990711736
20
153.2807680892
30
0.0000000000
10
79.2211443641
20
154.7777508112
30
0.0000000000
10
79.8446243847
20
155.8926029100
30
0.0000000000
10
80.1240116967
20
156.4797861685
30
0.0000000000
11
69.3063169888
21
148.5782794437
31
0.0000000000
11
70.9746497406
21
148.8888270703
31
0.0000000000
11
72.5699947316
21
149.3972217256
31
0.0000000000
11
74.0674385738
21
150.0847855669
31
0.0000000000
11
75.4773095640
21
150.9510688352
31
0.0000000000
11
76.8077181443
21
152.0108166823
31
0.0000000000
11
78.0497561566
21
153.2838714805
31
0.0000000000
11
79.1705035409
21
154.7779062553
31
0.0000000000
11
80.1240116967
21
156.4797861685
31
0.0000000000
0
SPLINE
5
438
100
AcDbEntity
8
0
100
AcDbSpline
62
7
6
CONTINUOUS
70
0
71
3
72
10
73
6
74
4
42
0.0000001000
43
0.0000001000
44
0.0000000001
12
-0.6135876506
22
0.7312452870
32
0.0000000000
13
-0.2053386501
23
-0.9322261064
33
0.0000000000
40
0.0000000000
40
0.0000000000
40
0.0000000000
40
0.0000000000
40
0.1665482707
40
0.4568239979
40
1.0000000000
40
1.0000000000
40
1.0000000000
40
1.0000000000
10
92.3063186136
20
185.1269461889
30
0.0000000000
10
92.2722546262
20
185.1675420682
30
0.0000000000
10
92.0842299912
20
185.2105974831
30
0.0000000000
10
91.9715384578
20
184.8298993669
30
0.0000000000
10
91.8960726649
20
184.6082903136
30
0.0000000000
10
91.8588943226
20
184.4395026971
30
0.0000000000
11
92.3063186136
21
185.1269461889
31
0.0000000000
11
92.1533042525
21
185.1700974481
31
0.0000000000
11
92.0022770298
21
184.9377845419
31
0.0000000000
11
91.8588943226
21
184.4395026971
31
0.0000000000
0
SPLINE
5
439
100
AcDbEntity
8
0
100
AcDbSpline
62
7
6
CONTINUOUS
70
0
71
3
72
11
73
7
74
5
42
0.0000001000
43
0.0000001000
44
0.0000000001
12
4.3940526496
22
6.4327752296
32
0.0000000000
13
0.0000000000
23
7.7902693048
33
0.0000000000
40
0.0000000000
40
0.0000000000
40
0.0000000000
40
0.0000000000
40
0.2505706879
40
0.4999726847
40
0.7493683759
40
1.0000000000
40
1.0000000000
40
1.0000000000
40
1.0000000000
10
79.6567257760
20
169.2851149006
30
0.0000000000
10
80.0237327078
20
169.8224032055
30
0.0000000000
10
80.6753995778
20
170.9521096503
30
0.0000000000
10
81.3861450025
20
172.7711176246
30
0.0000000000
10
81.8188580568
20
174.6756003925
30
0.0000000000
10
81.9158388265
20
175.9761169061
30
0.0000000000
10
81.9158388265
20
176.6269461889
30
0.0000000000
11
79.6567257760
21
169.2851149006
31
0.0000000000
11
80.6323494236
21
170.9758288896
31
0.0000000000
11
81.3398776934
21
172.7853310431
31
0.0000000000
11
81.7704485899
21
174.6798790414
31
0.0000000000
11
81.9158388265
21
176.6269461889
31
0.0000000000
0
SPLINE
5
43A
100
AcDbEntity
8
0
100
AcDbSpline
62
7
6
CONTINUOUS
70
0
71
3
72
10
73
6
74
4
42
0.0000001000
43
0.0000001000
44
0.0000000001
12
0.0000000000
22
2.5577373278
32
0.0000000000
13
0.8894116590
23
2.3981174156
33
0.0000000000
40
0.0000000000
40
0.0000000000
40
0.0000000000
40
0.0000000000
40
0.3148468375
40
0.6484356138
40
1.0000000000
40
1.0000000000
40
1.0000000000
40
1.0000000000
10
81.9158388265
20
177.6269461889
30
0.0000000000
10
81.9158388265
20
177.8953780251
30
0.0000000000
10
81.9515155570
20
178.4488375843
30
0.0000000000
10
82.1137793836
20
179.2878580895
30
0.0000000000
10
82.2908700076
20
179.8459152965
30
0.0000000000
10
82.3950984955
20
180.1269461889
30
0.0000000000
11
81.9158388265
21
177.6269461889
31
0.0000000000
11
81.9668791518
21
178.4306225800
31
0.0000000000
11
82.1264880272
21
179.2687935929
31
0.0000000000
11
82.3950984955
21
180.1269461889
31
0.0000000000
0
SPLINE
5
43B
100
AcDbEntity
8
0
100
AcDbSpline
62
7
6
CONTINUOUS
70
0
71
3
72
10
73
6
74
4
42
0.0000001000
43
0.0000001000
44
0.0000000001
12
0.6135876506
22
0.7312452870
32
0.0000000000
13
0.2053386501
23
-0.9322261064
33
0.0000000000
40
0.0000000000
40
0.0000000000
40
0.0000000000
40
0.0000000000
40
0.1665482707
40
0.4568239979
40
1.0000000000
40
1.0000000000
40
1.0000000000
40
1.0000000000
10
46.3063186136
20
185.1269461889
30
0.0000000000
10
46.3403826009
20
185.1675420682
30
0.0000000000
10
46.5284072359
20
185.2105974831
30
0.0000000000
10
46.6410987693
20
184.8298993669
30
0.0000000000
10
46.7165645622
20
184.6082903136
30
0.0000000000
10
46.7537429046
20
184.4395026971
30
0.0000000000
11
46.3063186136
21
185.1269461889
31
0.0000000000
11
46.4593329747
21
185.1700974481
31
0.0000000000
11
46.6103601973
21
184.9377845419
31
0.0000000000
11
46.7537429046
21
184.4395026971
31
0.0000000000
0
SPLINE
5
43C
100
AcDbEntity
8
0
100
AcDbSpline
62
7
6
CONTINUOUS
70
0
71
3
72
11
73
7
74
5
42
0.0000001000
43
0.0000001000
44
0.0000000001
12
1.4293886603
22
-0.6353027709
32
0.0000000000
13
1.5454130355
23
-0.2417852407
33
0.0000000000
40
0.0000000000
40
0.0000000000
40
0.0000000000
40
0.0000000000
40
0.3398065448
40
0.6239019804
40
0.8447221839
40
1.0000000000
40
1.0000000000
40
1.0000000000
40
1.0000000000
10
76.3766278306
20
173.2404797766
30
0.0000000000
10
76.5385330379
20
173.1685197634
30
0.0000000000
10
76.8325381193
20
173.0292529347
30
0.0000000000
10
77.2264690616
20
172.8316571003
30
0.0000000000
10
77.5373017307
20
172.6852428362
30
0.0000000000
10
77.7240818877
20
172.6191278588
30
0.0000000000
10
77.8040713414
20
172.6066132307
30
0.0000000000
11
76.3766278306
21
173.2404797766
31
0.0000000000
11
76.8578857730
21
173.0148370288
31
0.0000000000
11
77.2566926843
21
172.8187969763
31
0.0000000000
11
77.5715061742
21
172.6766689269
31
0.0000000000
11
77.8040713414
21
172.6066132307
31
0.0000000000
0
SPLINE
5
43D
100
AcDbEntity
8
0
100
AcDbSpline
62
7
6
CONTINUOUS
70
0
71
3
72
10
73
6
74
4
42
0.0000001000
43
0.0000001000
44
0.0000000001
12
2.2214144161
22
-2.2604547931
32
0.0000000000
13
0.9975457096
23
-3.0081955450
33
0.0000000000
40
0.0000000000
40
0.0000000000
40
0.0000000000
40
0.0000000000
40
0.3332893299
40
0.6660986432
40
1.0000000000
40
1.0000000000
40
1.0000000000
40
1.0000000000
10
77.8040713414
20
172.6066132307
30
0.0000000000
10
78.0508625821
20
172.3554847429
30
0.0000000000
10
78.5065900864
20
171.8150336424
30
0.0000000000
10
79.0593065344
20
170.9104298045
30
0.0000000000
10
79.3324729388
20
170.2576812612
30
0.0000000000
10
79.4435002274
20
169.9228677366
30
0.0000000000
11
77.8040713414
21
172.6066132307
31
0.0000000000
11
78.4849959820
21
171.7990957147
31
0.0000000000
11
79.0349470706
21
170.8990484135
31
0.0000000000
11
79.4435002274
21
169.9228677366
31
0.0000000000
0
SPLINE
5
43E
100
AcDbEntity
8
0
100
AcDbSpline
62
7
6
CONTINUOUS
70
0
71
3
72
10
73
6
74
4
42
0.0000001000
43
0.0000001000
44
0.0000000001
12
0.2116580787
22
-0.6382754025
32
0.0000000000
13
0.2148085601
23
-0.6372220290
33
0.0000000000
40
0.0000000000
40
0.0000000000
40
0.0000000000
40
0.0000000000
40
0.3344936666
40
0.6678359767
40
1.0000000000
40
1.0000000000
40
1.0000000000
40
1.0000000000
10
79.4435002274
20
169.9228677366
30
0.0000000000
10
79.4670996564
20
169.8517013767
30
0.0000000000
10
79.5143328786
20
169.7096519183
30
0.0000000000
10
79.5854075495
20
169.4970671587
30
0.0000000000
10
79.6329418842
20
169.3556689783
30
0.0000000000
10
79.6567257760
20
169.2851149006
30
0.0000000000
11
79.4435002274
21
169.9228677366
31
0.0000000000
11
79.5144727602
21
169.7094265174
31
0.0000000000
11
79.5855499257
21
169.4968363232
31
0.0000000000
11
79.6567257760
21
169.2851149006
31
0.0000000000
0
SPLINE
5
43F
100
AcDbEntity
8
0
100
AcDbSpline
62
7
6
CONTINUOUS
70
0
71
3
72
12
73
8
74
6
42
0.0000001000
43
0.0000001000
44
0.0000000001
12
0.0000000000
22
-6.1560210533
32
0.0000000000
13
2.8671794589
23
-5.4475569900
33
0.0000000000
40
0.0000000000
40
0.0000000000
40
0.0000000000
40
0.0000000000
40
0.1393461184
40
0.3062166935
40
0.5035644647
40
0.7340519512
40
1.0000000000
40
1.0000000000
40
1.0000000000
40
1.0000000000
10
88.1108204577
20
188.2275473908
30
0.0000000000
10
88.1108204577
20
187.9416081779
30
0.0000000000
10
88.1732472018
20
187.3132566545
30
0.0000000000
10
88.4053963832
20
186.3046922800
30
0.0000000000
10
88.7913794475
20
185.1453661314
30
0.0000000000
10
89.3418197538
20
183.8313375912
30
0.0000000000
10
89.7936182786
20
182.9175608806
30
0.0000000000
10
90.0477918728
20
182.4346384965
30
0.0000000000
11
88.1108204577
21
188.2275473908
31
0.0000000000
11
88.1839417637
21
187.3728519036
31
0.0000000000
11
88.4057208385
21
186.3698191876
31
0.0000000000
11
88.7830116758
21
185.2150127827
31
0.0000000000
11
89.3261735318
21
183.9042068602
31
0.0000000000
11
90.0477918728
21
182.4346384965
31
0.0000000000
0
SPLINE
5
440
100
AcDbEntity
8
0
100
AcDbSpline
62
7
6
CONTINUOUS
70
0
71
3
72
19
73
15
74
13
42
0.0000001000
43
0.0000001000
44
0.0000000001
12
0.0000000000
22
8.7325350704
32
0.0000000000
13
-8.0339424741
23
3.4224168474
33
0.0000000000
40
0.0000000000
40
0.0000000000
40
0.0000000000
40
0.0000000000
40
0.1459498695
40
0.2760901012
40
0.3907717849
40
0.4921126596
40
0.5811326590
40
0.6599542200
40
0.7298428760
40
0.7910350272
40
0.8457239759
40
0.8969646355
40
0.9477853813
40
1.0000000000
40
1.0000000000
40
1.0000000000
40
1.0000000000
10
77.7189335219
20
177.6269461889
30
0.0000000000
10
77.7189335219
20
178.0517836401
30
0.0000000000
10
77.7043875476
20
178.8555366798
30
0.0000000000
10
77.6389577227
20
179.9914616359
30
0.0000000000
10
77.5325076651
20
180.9939460488
30
0.0000000000
10
77.3837845569
20
181.8700837223
30
0.0000000000
10
77.1904167264
20
182.6305039256
30
0.0000000000
10
76.9518060456
20
183.2816313377
30
0.0000000000
10
76.6714599746
20
183.8265500441
30
0.0000000000
10
76.3590317085
20
184.2701019099
30
0.0000000000
10
76.0249409307
20
184.6257895553
30
0.0000000000
10
75.6701372008
20
184.9146469664
30
0.0000000000
10
75.2889371020
20
185.1538891038
30
0.0000000000
10
75.0183017861
20
185.2845854215
30
0.0000000000
10
74.8784720384
20
185.3441521517
30
0.0000000000
11
77.7189335219
21
177.6269461889
31
0.0000000000
11
77.6947010827
21
178.9012281547
31
0.0000000000
11
77.6266790274
21
180.0356447477
31
0.0000000000
11
77.5174443242
21
181.0311313454
31
0.0000000000
11
77.3653256703
21
181.9029220150
31
0.0000000000
11
77.1696179273
21
182.6552537305
31
0.0000000000
11
76.9289739452
21
183.3001288709
31
0.0000000000
11
76.6469445027
21
183.8413605741
31
0.0000000000
11
76.3378422179
21
184.2772495191
31
0.0000000000
11
76.0105820048
21
184.6250668258
31
0.0000000000
11
75.6638511831
21
184.9079076923
31
0.0000000000
11
75.2884776202
21
185.1446517601
31
0.0000000000
11
74.8784720384
21
185.3441521517
31
0.0000000000
0
SPLINE
5
441
100
AcDbEntity
8
0
100
AcDbSpline
62
7
6
CONTINUOUS
70
0
71
3
72
9
73
5
74
3
42
0.0000001000
43
0.0000001000
44
0.0000000001
12
-0.1572207638
22
4.0183602308
32
0.0000000000
13
0.0000000000
23
4.0214347332
33
0.0000000000
40
0.0000000000
40
0.0000000000
40
0.0000000000
40
0.0000000000
40
0.5066793438
40
1.0000000000
40
1.0000000000
40
1.0000000000
40
1.0000000000
10
77.8040713414
20
172.6066132307
30
0.0000000000
10
77.7775178369
20
173.2852866057
30
0.0000000000
10
77.7342875799
20
174.6251412971
30
0.0000000000
10
77.7189335219
20
175.9656605817
30
0.0000000000
10
77.7189335219
20
176.6269461889
30
0.0000000000
11
77.8040713414
21
172.6066132307
31
0.0000000000
11
77.7408665685
21
174.6432106143
31
0.0000000000
11
77.7189335219
21
176.6269461889
31
0.0000000000
0
SPLINE
5
442
100
AcDbEntity
8
0
100
AcDbSpline
62
7
6
CONTINUOUS
70
0
71
3
72
15
73
11
74
9
42
0.0000001000
43
0.0000001000
44
0.0000000001
12
2.7388176019
22
-3.2854649678
32
0.0000000000
13
0.0000000000
23
4.2773124635
33
0.0000000000
40
0.0000000000
40
0.0000000000
40
0.0000000000
40
0.0000000000
40
0.2362304692
40
0.4407159525
40
0.6117999595
40
0.7470957939
40
0.8447277640
40
0.9054868781
40
0.9441704907
40
1.0000000000
40
1.0000000000
40
1.0000000000
40
1.0000000000
10
92.3581044161
20
167.2016743527
30
0.0000000000
10
92.5737684718
20
166.9429653757
30
0.0000000000
10
92.9796891502
20
166.4635388623
30
0.0000000000
10
93.5584090768
20
165.8096728351
30
0.0000000000
10
94.0595706116
20
165.2838275164
30
0.0000000000
10
94.4809088476
20
164.8822755963
30
0.0000000000
10
94.8107525763
20
164.6417094786
30
0.0000000000
10
95.0754028970
20
164.4903135791
30
0.0000000000
10
95.3070770853
20
164.6013747626
30
0.0000000000
10
95.3063186136
20
164.7582784030
30
0.0000000000
10
95.3063186136
20
164.8378784883
30
0.0000000000
11
92.3581044161
21
167.2016743527
31
0.0000000000
11
93.0120784126
21
166.4314212195
31
0.0000000000
11
93.5939096591
21
165.7783652802
31
0.0000000000
11
94.1005907190
21
165.2503729373
31
0.0000000000
11
94.5264927553
21
164.8585769356
31
0.0000000000
11
94.8653913740
21
164.6145697091
31
0.0000000000
11
95.1105852277
21
164.5284270400
31
0.0000000000
11
95.2577438787
21
164.6040707524
31
0.0000000000
11
95.3063186136
21
164.8378784883
31
0.0000000000
0
SPLINE
5
443
100
AcDbEntity
8
0
100
AcDbSpline
62
9
6
CONTINUOUS
70
0
71
3
72
9
73
5
74
3
42
0.0000001000
43
0.0000001000
44
0.0000000001
12
0.4021037553
22
-0.9017891810
32
0.0000000000
13
0.1170821351
23
-0.9804095729
33
0.0000000000
40
0.0000000000
40
0.0000000000
40
0.0000000000
40
0.0000000000
40
0.4932918043
40
1.0000000000
40
1.0000000000
40
1.0000000000
40
1.0000000000
10
92.1003189861
20
168.1516106038
30
0.0000000000
10
92.1664371484
20
168.0033288663
30
0.0000000000
10
92.2766402678
20
167.6916097096
30
0.0000000000
10
92.3385435021
20
167.3670295584
30
0.0000000000
10
92.3583189946
20
167.2014357031
30
0.0000000000
11
92.1003189861
21
168.1516106038
31
0.0000000000
11
92.2634085999
21
167.6926623025
31
0.0000000000
11
92.3583189946
21
167.2014357031
31
0.0000000000
0
SPLINE
5
444
100
AcDbEntity
8
0
100
AcDbSpline
62
9
6
CONTINUOUS
70
0
71
3
72
13
73
9
74
7
42
0.0000001000
43
0.0000001000
44
0.0000000001
12
0.5282046333
22
-4.5490306728
32
0.0000000000
13
-2.6896735827
23
3.7065261655
33
0.0000000000
40
0.0000000000
40
0.0000000000
40
0.0000000000
40
0.0000000000
40
0.0723976559
40
0.1146597500
40
0.2074005809
40
0.3762271896
40
0.6332447082
40
1.0000000000
40
1.0000000000
40
1.0000000000
40
1.0000000000
10
94.9649231855
20
165.5221079930
30
0.0000000000
10
94.9776701113
20
165.4123282739
30
0.0000000000
10
95.0311110515
20
165.1854630773
30
0.0000000000
10
94.6641764642
20
165.0720336743
30
0.0000000000
10
94.3132769890
20
165.4586637207
30
0.0000000000
10
93.7584191275
20
165.9751521417
30
0.0000000000
10
92.9995004574
20
166.9443499786
30
0.0000000000
10
92.4294093431
20
167.6986340525
30
0.0000000000
10
92.1005920031
20
168.1517634144
30
0.0000000000
11
94.9649231855
21
165.5221079930
31
0.0000000000
11
94.9429753104
21
165.1912833741
31
0.0000000000
11
94.7616107764
21
165.1237120276
31
0.0000000000
11
94.4039443338
21
165.3527487888
31
0.0000000000
11
93.8603044170
21
165.9025013332
31
0.0000000000
11
93.1091886650
21
166.8087234566
31
0.0000000000
11
92.1005920031
21
168.1517634144
31
0.0000000000
0
SPLINE
5
445
100
AcDbEntity
8
0
100
AcDbSpline
62
7
6
CONTINUOUS
70
0
71
3
72
9
73
5
74
3
42
0.0000001000
43
0.0000001000
44
0.0000000001
12
0.2445663842
22
-0.3295436532
32
0.0000000000
13
0.2628094363
23
-0.3151871440
33
0.0000000000
40
0.0000000000
40
0.0000000000
40
0.0000000000
40
0.0000000000
40
0.5023629665
40
1.0000000000
40
1.0000000000
40
1.0000000000
40
1.0000000000
10
92.1043448439
20
167.5241399397
30
0.0000000000
10
92.1452985420
20
167.4689564306
30
0.0000000000
10
92.2283788047
20
167.3602560475
30
0.0000000000
10
92.3145098467
20
167.2539572845
30
0.0000000000
10
92.3581044161
20
167.2016743527
30
0.0000000000
11
92.1043448439
21
167.5241399397
31
0.0000000000
11
92.2295413572
21
167.3603484301
31
0.0000000000
11
92.3581044161
21
167.2016743527
31
0.0000000000
0
SPLINE
5
446
100
AcDbEntity
8
0
100
AcDbSpline
62
7
6
CONTINUOUS
70
0
71
3
72
9
73
5
74
3
42
0.0000001000
43
0.0000001000
44
0.0000000001
12
0.5854647499
22
-1.4279823656
32
0.0000000000
13
0.5160037047
23
-1.4545249350
33
0.0000000000
40
0.0000000000
40
0.0000000000
40
0.0000000000
40
0.0000000000
40
0.4807208556
40
1.0000000000
40
1.0000000000
40
1.0000000000
40
1.0000000000
10
91.5391945608
20
168.9601602187
30
0.0000000000
10
91.6330095993
20
168.7313399172
30
0.0000000000
10
91.8299479285
20
168.2560992426
30
0.0000000000
10
92.0150281898
20
167.7759080943
30
0.0000000000
10
92.1043448439
20
167.5241399397
30
0.0000000000
11
91.5391945608
21
168.9601602187
31
0.0000000000
11
91.8196140125
21
168.2732796923
31
0.0000000000
11
92.1043448439
21
167.5241399397
31
0.0000000000
0
SPLINE
5
447
100
AcDbEntity
8
0
100
AcDbSpline
62
9
6
CONTINUOUS
70
0
71
3
72
9
73
5
74
3
42
0.0000001000
43
0.0000001000
44
0.0000000001
12
-0.6444500726
22
0.7454054659
32
0.0000000000
13
-0.4781159373
23
0.8615975599
33
0.0000000000
40
0.0000000000
40
0.0000000000
40
0.0000000000
40
0.0000000000
40
0.4945754814
40
1.0000000000
40
1.0000000000
40
1.0000000000
40
1.0000000000
10
92.1003206938
20
168.1516067739
30
0.0000000000
10
91.9940776255
20
168.2744931963
30
0.0000000000
10
91.7930955092
20
168.5351769583
30
0.0000000000
10
91.6197918649
20
168.8148885671
30
0.0000000000
10
91.5392413590
20
168.9600460778
30
0.0000000000
11
92.1003206938
21
168.1516067739
31
0.0000000000
11
91.8020462617
21
168.5370030951
31
0.0000000000
11
91.5392413590
21
168.9600460778
31
0.0000000000
0
SPLINE
5
448
100
AcDbEntity
8
0
100
AcDbSpline
62
9
6
CONTINUOUS
70
0
71
3
72
9
73
5
74
3
42
0.0000001000
43
0.0000001000
44
0.0000000001
12
0.3343548278
22
0.1799254607
32
0.0000000000
13
0.3361574915
23
0.1765345950
33
0.0000000000
40
0.0000000000
40
0.0000000000
40
0.0000000000
40
0.0000000000
40
0.5082320374
40
1.0000000000
40
1.0000000000
40
1.0000000000
40
1.0000000000
10
74.5431860527
20
175.3459500977
30
0.0000000000
10
74.5998293311
20
175.3764313922
30
0.0000000000
10
74.7114314364
20
175.4361276415
30
0.0000000000
10
74.8233682102
20
175.4951935492
30
0.0000000000
10
74.8784720384
20
175.5241315686
30
0.0000000000
11
74.5431860527
21
175.3459500977
31
0.0000000000
11
74.7133553066
21
175.4369476679
31
0.0000000000
11
74.8784720384
21
175.5241315686
31
0.0000000000
0
SPLINE
5
449
100
AcDbEntity
8
0
100
AcDbSpline
62
7
6
CONTINUOUS
70
0
71
3
72
13
73
9
74
7
42
0.0000001000
43
0.0000001000
44
0.0000000001
12
-2.6387959539
22
1.1727790682
32
0.0000000000
13
0.0000434897
23
2.8876729087
33
0.0000000000
40
0.0000000000
40
0.0000000000
40
0.0000000000
40
0.0000000000
40
0.1588275484
40
0.3232320596
40
0.4879788106
40
0.6561751002
40
0.8283857172
40
1.0000000000
40
1.0000000000
40
1.0000000000
40
1.0000000000
10
76.3766278306
20
173.2404797766
30
0.0000000000
10
76.2369233332
20
173.3025696514
30
0.0000000000
10
75.9627623258
20
173.4535049079
30
0.0000000000
10
75.5967658724
20
173.7521748168
30
0.0000000000
10
75.2882841207
20
174.1222120488
30
0.0000000000
10
75.0547841234
20
174.5524613581
30
0.0000000000
10
74.9103322816
20
175.0270762845
30
0.0000000000
10
74.8784695506
20
175.3589850961
30
0.0000000000
10
74.8784720384
20
175.5241737345
30
0.0000000000
11
76.3766278306
21
173.2404797766
31
0.0000000000
11
75.9751534668
21
173.4622247369
31
0.0000000000
11
75.6076789721
21
173.7628019989
31
0.0000000000
11
75.3033053504
21
174.1284250719
31
0.0000000000
11
75.0716083772
21
174.5552938922
31
0.0000000000
11
74.9265049385
21
175.0309411152
31
0.0000000000
11
74.8784720384
21
175.5241737345
31
0.0000000000
0
SPLINE
5
44A
100
AcDbEntity
8
0
100
AcDbSpline
62
9
6
CONTINUOUS
70
0
71
3
72
10
73
6
74
4
42
0.0000001000
43
0.0000001000
44
0.0000000001
12
1.0420546360
22
0.8609697741
32
0.0000000000
13
1.1035582522
23
0.7805805533
33
0.0000000000
40
0.0000000000
40
0.0000000000
40
0.0000000000
40
0.0000000000
40
0.3574000274
40
0.6907140418
40
1.0000000000
40
1.0000000000
40
1.0000000000
40
1.0000000000
10
75.3017186842
20
172.4214627226
30
0.0000000000
10
75.4258621360
20
172.5240329295
30
0.0000000000
10
75.6689966030
20
172.7183926022
30
0.0000000000
10
76.0281609913
20
172.9905186669
30
0.0000000000
10
76.2629714280
20
173.1599625420
30
0.0000000000
10
76.3767431185
20
173.2404367435
30
0.0000000000
11
75.3017186842
21
172.4214627226
31
0.0000000000
11
75.6787990731
21
172.7234570539
31
0.0000000000
11
76.0378702654
21
172.9955979366
31
0.0000000000
11
76.3767431185
21
173.2404367435
31
0.0000000000
0
SPLINE
5
44B
100
AcDbEntity
8
0
100
AcDbSpline
62
7
6
CONTINUOUS
70
0
71
3
72
10
73
6
74
4
42
0.0000001000
43
0.0000001000
44
0.0000000001
12
0.0000000000
22
2.5577373278
32
0.0000000000
13
-0.8894116590
23
2.3981174156
33
0.0000000000
40
0.0000000000
40
0.0000000000
40
0.0000000000
40
0.0000000000
40
0.3148468375
40
0.6484356138
40
1.0000000000
40
1.0000000000
40
1.0000000000
40
1.0000000000
10
56.6967984007
20
177.6269461889
30
0.0000000000
10
56.6967984007
20
177.8953780251
30
0.0000000000
10
56.6611216701
20
178.4488375843
30
0.0000000000
10
56.4988578436
20
179.2878580895
30
0.0000000000
10
56.3217672196
20
179.8459152965
30
0.0000000000
10
56.2175387316
20
180.1269461889
30
0.0000000000
11
56.6967984007
21
177.6269461889
31
0.0000000000
11
56.6457580754
21
178.4306225800
31
0.0000000000
11
56.4861491999
21
179.2687935929
31
0.0000000000
11
56.2175387316
21
180.1269461889
31
0.0000000000
0
SPLINE
5
44C
100
AcDbEntity
8
0
100
AcDbSpline
62
7
6
CONTINUOUS
70
0
71
3
72
11
73
7
74
5
42
0.0000001000
43
0.0000001000
44
0.0000000001
12
-4.3940526496
22
6.4327752296
32
0.0000000000
13
0.0000000000
23
7.7902693048
33
0.0000000000
40
0.0000000000
40
0.0000000000
40
0.0000000000
40
0.0000000000
40
0.2505706879
40
0.4999726847
40
0.7493683759
40
1.0000000000
40
1.0000000000
40
1.0000000000
40
1.0000000000
10
58.9559114511
20
169.2851149006
30
0.0000000000
10
58.5889045194
20
169.8224032055
30
0.0000000000
10
57.9372376494
20
170.9521096503
30
0.0000000000
10
57.2264922247
20
172.7711176246
30
0.0000000000
10
56.7937791703
20
174.6756003925
30
0.0000000000
10
56.6967984007
20
175.9761169061
30
0.0000000000
10
56.6967984007
20
176.6269461889
30
0.0000000000
11
58.9559114511
21
169.2851149006
31
0.0000000000
11
57.9802878035
21
170.9758288896
31
0.0000000000
11
57.2727595337
21
172.7853310431
31
0.0000000000
11
56.8421886372
21
174.6798790414
31
0.0000000000
11
56.6967984007
21
176.6269461889
31
0.0000000000
0
SPLINE
5
44D
100
AcDbEntity
8
0
100
AcDbSpline
62
7
6
CONTINUOUS
70
0
71
3
72
11
73
7
74
5
42
0.0000001000
43
0.0000001000
44
0.0000000001
12
-2.4617835904
22
0.4054285696
32
0.0000000000
13
-0.4878682700
23
-2.4467806036
33
0.0000000000
40
0.0000000000
40
0.0000000000
40
0.0000000000
40
0.0000000000
40
0.1183368070
40
0.3129814821
40
0.6076566231
40
1.0000000000
40
1.0000000000
40
1.0000000000
40
1.0000000000
10
64.7563186136
20
187.4991069682
30
0.0000000000
10
64.6592120770
20
187.5150993424
30
0.0000000000
10
64.3958550873
20
187.3696010044
30
0.0000000000
10
64.1693775835
20
186.9148232052
30
0.0000000000
10
63.9222223203
20
186.2231782134
30
0.0000000000
10
63.7979691502
20
185.6641448732
30
0.0000000000
10
63.7341651887
20
185.3441521517
30
0.0000000000
11
64.7563186136
21
187.4991069682
31
0.0000000000
11
64.4810366484
21
187.3923888398
31
0.0000000000
11
64.2138121215
21
186.9868948442
31
0.0000000000
11
63.9621736724
21
186.2961021069
31
0.0000000000
11
63.7341651887
21
185.3441521517
31
0.0000000000
0
SPLINE
5
44E
100
AcDbEntity
8
0
100
AcDbSpline
62
7
6
CONTINUOUS
70
0
71
3
72
10
73
6
74
4
42
0.0000001000
43
0.0000001000
44
0.0000000001
12
-2.2214144161
22
-2.2604547931
32
0.0000000000
13
-0.9975457096
23
-3.0081955450
33
0.0000000000
40
0.0000000000
40
0.0000000000
40
0.0000000000
40
0.0000000000
40
0.3332893299
40
0.6660986432
40
1.0000000000
40
1.0000000000
40
1.0000000000
40
1.0000000000
10
60.8085658857
20
172.6066132307
30
0.0000000000
10
60.5617746450
20
172.3554847429
30
0.0000000000
10
60.1060471407
20
171.8150336424
30
0.0000000000
10
59.5533306927
20
170.9104298045
30
0.0000000000
10
59.2801642883
20
170.2576812612
30
0.0000000000
10
59.1691369997
20
169.9228677366
30
0.0000000000
11
60.8085658857
21
172.6066132307
31
0.0000000000
11
60.1276412451
21
171.7990957147
31
0.0000000000
11
59.5776901565
21
170.8990484135
31
0.0000000000
11
59.1691369997
21
169.9228677366
31
0.0000000000
0
SPLINE
5
44F
100
AcDbEntity
8
0
100
AcDbSpline
62
7
6
CONTINUOUS
70
0
71
3
72
11
73
7
74
5
42
0.0000001000
43
0.0000001000
44
0.0000000001
12
-1.4293886603
22
-0.6353027709
32
0.0000000000
13
-1.5454130355
23
-0.2417852407
33
0.0000000000
40
0.0000000000
40
0.0000000000
40
0.0000000000
40
0.0000000000
40
0.3398065448
40
0.6239019804
40
0.8447221839
40
1.0000000000
40
1.0000000000
40
1.0000000000
40
1.0000000000
10
62.2360093966
20
173.2404797766
30
0.0000000000
10
62.0741041893
20
173.1685197634
30
0.0000000000
10
61.7800991079
20
173.0292529347
30
0.0000000000
10
61.3861681655
20
172.8316571003
30
0.0000000000
10
61.0753354965
20
172.6852428362
30
0.0000000000
10
60.8885553394
20
172.6191278588
30
0.0000000000
10
60.8085658857
20
172.6066132307
30
0.0000000000
11
62.2360093966
21
173.2404797766
31
0.0000000000
11
61.7547514541
21
173.0148370288
31
0.0000000000
11
61.3559445428
21
172.8187969763
31
0.0000000000
11
61.0411310529
21
172.6766689269
31
0.0000000000
11
60.8085658857
21
172.6066132307
31
0.0000000000
0
SPLINE
5
450
100
AcDbEntity
8
0
100
AcDbSpline
62
7
6
CONTINUOUS
70
0
71
3
72
18
73
14
74
12
42
0.0000001000
43
0.0000001000
44
0.0000000001
12
-34.6916048829
22
-4.9893163336
32
0.0000000000
13
-34.6916048968
23
4.9893162373
33
0.0000000000
40
0.0000000000
40
0.0000000000
40
0.0000000000
40
0.0000000000
40
0.0786438326
40
0.1646055258
40
0.2562791309
40
0.3520921078
40
0.4504158351
40
0.5495859938
40
0.6479095243
40
0.7437221510
40
0.8353952739
40
0.9213564696
40
1.0000000000
40
1.0000000000
40
1.0000000000
40
1.0000000000
10
86.7847143993
20
148.5782794688
30
0.0000000000
10
85.8752874766
20
148.4474864826
30
0.0000000000
10
83.9663389432
20
148.2112507297
30
0.0000000000
10
80.9847714407
20
147.9340977256
30
0.0000000000
10
77.7968393259
20
147.7218314547
30
0.0000000000
10
74.4605683719
20
147.5782662904
30
0.0000000000
10
71.0344103118
20
147.5058680525
30
0.0000000000
10
67.5781652845
20
147.5058687210
30
0.0000000000
10
64.1520136430
20
147.5782681122
30
0.0000000000
10
60.8157547546
20
147.7218339057
30
0.0000000000
10
57.6278382066
20
147.9341000469
30
0.0000000000
10
54.6462856725
20
148.2112522206
30
0.0000000000
10
52.7373464328
20
148.4474869627
30
0.0000000000
10
51.8279230049
20
148.5782794437
30
0.0000000000
11
86.7847143993
21
148.5782794688
31
0.0000000000
11
84.0498165596
21
148.2350433952
31
0.0000000000
11
81.0502174534
21
147.9529704993
31
0.0000000000
11
77.8444355329
21
147.7373243496
31
0.0000000000
11
74.4894927780
21
147.5916080800
31
0.0000000000
11
71.0441716916
21
147.5181599248
31
0.0000000000
11
67.5684016099
21
147.5181606031
31
0.0000000000
11
64.1230874483
21
147.5916099167
31
0.0000000000
11
60.7681570089
21
147.7373268102
31
0.0000000000
11
57.5623920111
21
147.9529727255
31
0.0000000000
11
54.5628103133
21
148.2350445242
31
0.0000000000
11
51.8279230049
21
148.5782794437
31
0.0000000000
0
SPLINE
5
451
100
AcDbEntity
8
0
100
AcDbSpline
62
7
6
CONTINUOUS
70
0
71
3
72
10
73
6
74
4
42
0.0000001000
43
0.0000001000
44
0.0000000001
12
-0.2116580787
22
-0.6382754025
32
0.0000000000
13
-0.2148085601
23
-0.6372220290
33
0.0000000000
40
0.0000000000
40
0.0000000000
40
0.0000000000
40
0.0000000000
40
0.3344936666
40
0.6678359767
40
1.0000000000
40
1.0000000000
40
1.0000000000
40
1.0000000000
10
59.1691369997
20
169.9228677366
30
0.0000000000
10
59.1455375708
20
169.8517013767
30
0.0000000000
10
59.0983043485
20
169.7096519183
30
0.0000000000
10
59.0272296776
20
169.4970671587
30
0.0000000000
10
58.9796953430
20
169.3556689783
30
0.0000000000
10
58.9559114511
20
169.2851149006
30
0.0000000000
11
59.1691369997
21
169.9228677366
31
0.0000000000
11
59.0981644669
21
169.7094265174
31
0.0000000000
11
59.0270873015
21
169.4968363232
31
0.0000000000
11
58.9559114511
21
169.2851149006
31
0.0000000000
0
SPLINE
5
452
100
AcDbEntity
8
0
100
AcDbSpline
62
7
6
CONTINUOUS
70
0
71
3
72
12
73
8
74
6
42
0.0000001000
43
0.0000001000
44
0.0000000001
12
0.0000000000
22
-6.1560210533
32
0.0000000000
13
-2.8671794589
23
-5.4475569900
33
0.0000000000
40
0.0000000000
40
0.0000000000
40
0.0000000000
40
0.0000000000
40
0.1393461184
40
0.3062166935
40
0.5035644647
40
0.7340519512
40
1.0000000000
40
1.0000000000
40
1.0000000000
40
1.0000000000
10
50.5018167695
20
188.2275473908
30
0.0000000000
10
50.5018167695
20
187.9416081779
30
0.0000000000
10
50.4393900254
20
187.3132566545
30
0.0000000000
10
50.2072408439
20
186.3046922800
30
0.0000000000
10
49.8212577796
20
185.1453661314
30
0.0000000000
10
49.2708174733
20
183.8313375912
30
0.0000000000
10
48.8190189486
20
182.9175608806
30
0.0000000000
10
48.5648453543
20
182.4346384965
30
0.0000000000
11
50.5018167695
21
188.2275473908
31
0.0000000000
11
50.4286954635
21
187.3728519036
31
0.0000000000
11
50.2069163887
21
186.3698191876
31
0.0000000000
11
49.8296255514
21
185.2150127827
31
0.0000000000
11
49.2864636954
21
183.9042068602
31
0.0000000000
11
48.5648453543
21
182.4346384965
31
0.0000000000
0
SPLINE
5
453
100
AcDbEntity
8
0
100
AcDbSpline
62
7
6
CONTINUOUS
70
0
71
3
72
16
73
12
74
10
42
0.0000001000
43
0.0000001000
44
0.0000000001
12
0.0000000000
22
-10.5249924994
32
0.0000000000
13
10.4178033240
23
-1.4982793513
33
0.0000000000
40
0.0000000000
40
0.0000000000
40
0.0000000000
40
0.0000000000
40
0.1261133510
40
0.2498189021
40
0.3670091351
40
0.4763995563
40
0.5771556577
40
0.6802561705
40
0.7872888764
40
0.8951315811
40
1.0000000000
40
1.0000000000
40
1.0000000000
40
1.0000000000
10
46.5082923832
20
156.4797861685
30
0.0000000000
10
46.5082923832
20
156.0373388106
30
0.0000000000
10
46.5477907812
20
155.1603353675
30
0.0000000000
10
46.7276743080
20
153.8832546974
30
0.0000000000
10
47.0310339181
20
152.6893824550
30
0.0000000000
10
47.4585268448
20
151.6191552047
30
0.0000000000
10
48.0253891645
20
150.6714303331
30
0.0000000000
10
48.7605764402
20
149.8544747832
30
0.0000000000
10
49.6838309662
20
149.2100157622
30
0.0000000000
10
50.7304105760
20
148.7851889132
30
0.0000000000
10
51.4637568173
20
148.6306535059
30
0.0000000000
10
51.8279230049
20
148.5782794437
30
0.0000000000
11
46.5082923832
21
156.4797861685
31
0.0000000000
11
46.5693096888
21
155.1538473054
31
0.0000000000
11
46.7547469741
21
153.8651204122
31
0.0000000000
11
47.0644545048
21
152.6712101382
31
0.0000000000
11
47.4984827153
21
151.6048199546
31
0.0000000000
11
48.0487925973
21
150.6983275212
31
0.0000000000
11
48.7785305377
21
149.8952121720
31
0.0000000000
11
49.7011866200
21
149.2488767172
31
0.0000000000
11
50.7496832039
21
148.8141595456
31
0.0000000000
11
51.8279230049
21
148.5782794437
31
0.0000000000
0
SPLINE
5
454
100
AcDbEntity
8
0
100
AcDbSpline
62
7
6
CONTINUOUS
70
0
71
3
72
15
73
11
74
9
42
0.0000001000
43
0.0000001000
44
0.0000000001
12
-13.8694293522
22
1.6883517200
32
0.0000000000
13
-6.0030327945
23
12.6164654065
33
0.0000000000
40
0.0000000000
40
0.0000000000
40
0.0000000000
40
0.0000000000
40
0.1214580740
40
0.2412988183
40
0.3592327209
40
0.4776672711
40
0.5994050416
40
0.7267023519
40
0.8603769187
40
1.0000000000
40
1.0000000000
40
1.0000000000
40
1.0000000000
10
69.3063202383
20
148.5782794437
30
0.0000000000
10
68.7448021793
20
148.6466340932
30
0.0000000000
10
67.6365535065
20
148.8530404740
30
0.0000000000
10
66.0387258572
20
149.3624784171
30
0.0000000000
10
64.5274630162
20
150.0565768529
30
0.0000000000
10
63.1031621216
20
150.9319839533
30
0.0000000000
10
61.7613413423
20
152.0011690688
30
0.0000000000
10
60.5135660535
20
153.2807680892
30
0.0000000000
10
59.3914928630
20
154.7777508112
30
0.0000000000
10
58.7680128425
20
155.8926029100
30
0.0000000000
10
58.4886255305
20
156.4797861685
30
0.0000000000
11
69.3063202383
21
148.5782794437
31
0.0000000000
11
67.6379874866
21
148.8888270703
31
0.0000000000
11
66.0426424955
21
149.3972217256
31
0.0000000000
11
64.5451986533
21
150.0847855669
31
0.0000000000
11
63.1353276631
21
150.9510688352
31
0.0000000000
11
61.8049190829
21
152.0108166823
31
0.0000000000
11
60.5628810706
21
153.2838714805
31
0.0000000000
11
59.4421336863
21
154.7779062553
31
0.0000000000
11
58.4886255305
21
156.4797861685
31
0.0000000000
0
SPLINE
5
455
100
AcDbEntity
8
0
100
AcDbSpline
62
7
6
CONTINUOUS
70
0
71
3
72
10
73
6
74
4
42
0.0000001000
43
0.0000001000
44
0.0000000001
12
0.8835957781
22
2.1991717634
32
0.0000000000
13
-0.0000000000
23
2.3700417600
33
0.0000000000
40
0.0000000000
40
0.0000000000
40
0.0000000000
40
0.0000000000
40
0.3541695805
40
0.6874142673
40
1.0000000000
40
1.0000000000
40
1.0000000000
40
1.0000000000
10
56.2175387316
20
180.1269461889
30
0.0000000000
10
56.3218529803
20
180.3865727692
30
0.0000000000
10
56.4989354006
20
180.9014614611
30
0.0000000000
10
56.6612097805
20
181.6768179296
30
0.0000000000
10
56.6967984007
20
182.1876914166
30
0.0000000000
10
56.6967984007
20
182.4346384965
30
0.0000000000
11
56.2175387316
21
180.1269461889
31
0.0000000000
11
56.4869300279
21
180.9219399892
31
0.0000000000
11
56.6461342148
21
181.6955316821
31
0.0000000000
11
56.6967984007
21
182.4346384965
31
0.0000000000
0
SPLINE
5
456
100
AcDbEntity
8
0
100
AcDbSpline
62
7
6
CONTINUOUS
70
0
71
3
72
19
73
15
74
13
42
0.0000001000
43
0.0000001000
44
0.0000000001
12
0.0000000000
22
8.7325350704
32
0.0000000000
13
8.0339424741
23
3.4224168474
33
0.0000000000
40
0.0000000000
40
0.0000000000
40
0.0000000000
40
0.0000000000
40
0.1459498695
40
0.2760901012
40
0.3907717849
40
0.4921126596
40
0.5811326590
40
0.6599542200
40
0.7298428760
40
0.7910350272
40
0.8457239759
40
0.8969646355
40
0.9477853813
40
1.0000000000
40
1.0000000000
40
1.0000000000
40
1.0000000000
10
60.8937037052
20
177.6269461889
30
0.0000000000
10
60.8937037052
20
178.0517836401
30
0.0000000000
10
60.9082496795
20
178.8555366798
30
0.0000000000
10
60.9736795044
20
179.9914616359
30
0.0000000000
10
61.0801295620
20
180.9939460488
30
0.0000000000
10
61.2288526703
20
181.8700837223
30
0.0000000000
10
61.4222205007
20
182.6305039256
30
0.0000000000
10
61.6608311815
20
183.2816313377
30
0.0000000000
10
61.9411772525
20
183.8265500441
30
0.0000000000
10
62.2536055186
20
184.2701019099
30
0.0000000000
10
62.5876962965
20
184.6257895553
30
0.0000000000
10
62.9425000263
20
184.9146469664
30
0.0000000000
10
63.3237001251
20
185.1538891038
30
0.0000000000
10
63.5943354410
20
185.2845854215
30
0.0000000000
10
63.7341651887
20
185.3441521517
30
0.0000000000
11
60.8937037052
21
177.6269461889
31
0.0000000000
11
60.9179361444
21
178.9012281547
31
0.0000000000
11
60.9859581998
21
180.0356447477
31
0.0000000000
11
61.0951929029
21
181.0311313454
31
0.0000000000
11
61.2473115569
21
181.9029220150
31
0.0000000000
11
61.4430192998
21
182.6552537305
31
0.0000000000
11
61.6836632820
21
183.3001288709
31
0.0000000000
11
61.9656927244
21
183.8413605741
31
0.0000000000
11
62.2747950093
21
184.2772495191
31
0.0000000000
11
62.6020552224
21
184.6250668258
31
0.0000000000
11
62.9487860440
21
184.9079076923
31
0.0000000000
11
63.3241596070
21
185.1446517601
31
0.0000000000
11
63.7341651887
21
185.3441521517
31
0.0000000000
0
SPLINE
5
457
100
AcDbEntity
8
0
100
AcDbSpline
62
7
6
CONTINUOUS
70
0
71
3
72
9
73
5
74
3
42
0.0000001000
43
0.0000001000
44
0.0000000001
12
0.1572207638
22
4.0183602308
32
0.0000000000
13
0.0000000000
23
4.0214347332
33
0.0000000000
40
0.0000000000
40
0.0000000000
40
0.0000000000
40
0.0000000000
40
0.5066793438
40
1.0000000000
40
1.0000000000
40
1.0000000000
40
1.0000000000
10
60.8085658857
20
172.6066132307
30
0.0000000000
10
60.8351193902
20
173.2852866057
30
0.0000000000
10
60.8783496473
20
174.6251412971
30
0.0000000000
10
60.8937037052
20
175.9656605817
30
0.0000000000
10
60.8937037052
20
176.6269461889
30
0.0000000000
11
60.8085658857
21
172.6066132307
31
0.0000000000
11
60.8717706586
21
174.6432106143
31
0.0000000000
11
60.8937037052
21
176.6269461889
31
0.0000000000
0
SPLINE
5
458
100
AcDbEntity
8
0
100
AcDbSpline
62
7
6
CONTINUOUS
70
0
71
3
72
15
73
11
74
9
42
0.0000001000
43
0.0000001000
44
0.0000000001
12
0.0000000000
22
-4.2770467297
32
0.0000000000
13
2.7386468238
23
3.2852613751
33
0.0000000000
40
0.0000000000
40
0.0000000000
40
0.0000000000
40
0.0000000000
40
0.0560771082
40
0.0951909537
40
0.1572547598
40
0.2564808508
40
0.3926172858
40
0.5632862906
40
0.7661629415
40
1.0000000000
40
1.0000000000
40
1.0000000000
40
1.0000000000
10
43.3063186136
20
164.8378784883
30
0.0000000000
10
43.3063186136
20
164.7579303508
30
0.0000000000
10
43.3056298683
20
164.5991815449
30
0.0000000000
10
43.5424093401
20
164.4903801080
30
0.0000000000
10
43.8093627080
20
164.6469515431
30
0.0000000000
10
44.1428044114
20
164.8916333665
30
0.0000000000
10
44.5651415146
20
165.2961374037
30
0.0000000000
10
45.0646669161
20
165.8212016708
30
0.0000000000
10
45.6388840591
20
166.4705355058
30
0.0000000000
10
46.0410686641
20
166.9456043440
30
0.0000000000
10
46.2545343699
20
167.2016762961
30
0.0000000000
11
43.3063186136
21
164.8378784883
31
0.0000000000
11
43.3554873009
21
164.6031280200
31
0.0000000000
11
43.5052280298
21
164.5285341732
31
0.0000000000
11
43.7548208587
21
164.6189057146
31
0.0000000000
11
44.0980390130
21
164.8685296298
31
0.0000000000
11
44.5255925773
21
165.2637850695
31
0.0000000000
11
45.0303971180
21
165.7910544203
31
0.0000000000
11
45.6073087761
21
166.4392045914
31
0.0000000000
11
46.2545343699
21
167.2016762961
31
0.0000000000
0
SPLINE
5
459
100
AcDbEntity
8
0
100
AcDbSpline
62
9
6
CONTINUOUS
70
0
71
3
72
13
73
9
74
7
42
0.0000001000
43
0.0000001000
44
0.0000000001
12
-0.5282046333
22
-4.5490306728
32
0.0000000000
13
2.6896735827
23
3.7065261655
33
0.0000000000
40
0.0000000000
40
0.0000000000
40
0.0000000000
40
0.0000000000
40
0.0723976559
40
0.1146597500
40
0.2074005809
40
0.3762271896
40
0.6332447082
40
1.0000000000
40
1.0000000000
40
1.0000000000
40
1.0000000000
10
43.6477140416
20
165.5221079930
30
0.0000000000
10
43.6349671159
20
165.4123282739
30
0.0000000000
10
43.5815261756
20
165.1854630773
30
0.0000000000
10
43.9484607629
20
165.0720336743
30
0.0000000000
10
44.2993602382
20
165.4586637207
30
0.0000000000
10
44.8542180996
20
165.9751521417
30
0.0000000000
10
45.6131367698
20
166.9443499786
30
0.0000000000
10
46.1832278841
20
167.6986340525
30
0.0000000000
10
46.5120452240
20
168.1517634144
30
0.0000000000
11
43.6477140416
21
165.5221079930
31
0.0000000000
11
43.6696619167
21
165.1912833741
31
0.0000000000
11
43.8510264507
21
165.1237120276
31
0.0000000000
11
44.2086928933
21
165.3527487888
31
0.0000000000
11
44.7523328102
21
165.9025013332
31
0.0000000000
11
45.5034485621
21
166.8087234566
31
0.0000000000
11
46.5120452240
21
168.1517634144
31
0.0000000000
0
SPLINE
5
45A
100
AcDbEntity
8
0
100
AcDbSpline
62
9
6
CONTINUOUS
70
0
71
3
72
9
73
5
74
3
42
0.0000001000
43
0.0000001000
44
0.0000000001
12
-0.4021037553
22
-0.9017891810
32
0.0000000000
13
-0.1170821351
23
-0.9804095729
33
0.0000000000
40
0.0000000000
40
0.0000000000
40
0.0000000000
40
0.0000000000
40
0.4932918043
40
1.0000000000
40
1.0000000000
40
1.0000000000
40
1.0000000000
10
46.5123182410
20
168.1516106038
30
0.0000000000
10
46.4462000787
20
168.0033288663
30
0.0000000000
10
46.3359969594
20
167.6916097096
30
0.0000000000
10
46.2740937250
20
167.3670295584
30
0.0000000000
10
46.2543182326
20
167.2014357031
30
0.0000000000
11
46.5123182410
21
168.1516106038
31
0.0000000000
11
46.3492286272
21
167.6926623025
31
0.0000000000
11
46.2543182326
21
167.2014357031
31
0.0000000000
0
SPLINE
5
45B
100
AcDbEntity
8
0
100
AcDbSpline
62
7
6
CONTINUOUS
70
0
71
3
72
9
73
5
74
3
42
0.0000001000
43
0.0000001000
44
0.0000000001
12
0.2628077809
22
0.3151852807
32
0.0000000000
13
0.2445648995
23
0.3295416526
33
0.0000000000
40
0.0000000000
40
0.0000000000
40
0.0000000000
40
0.0000000000
40
0.4976339837
40
1.0000000000
40
1.0000000000
40
1.0000000000
40
1.0000000000
10
46.2545343699
20
167.2016762961
30
0.0000000000
10
46.2981283976
20
167.2539585984
30
0.0000000000
10
46.3842589413
20
167.3602566956
30
0.0000000000
10
46.4673386851
20
167.4689564306
30
0.0000000000
10
46.5082923832
20
167.5241399397
30
0.0000000000
11
46.2545343699
21
167.2016762961
31
0.0000000000
11
46.3830958699
21
167.3603484301
31
0.0000000000
11
46.5082923832
21
167.5241399397
31
0.0000000000
0
SPLINE
5
45C
100
AcDbEntity
8
0
100
AcDbSpline
62
9
6
CONTINUOUS
70
0
71
3
72
9
73
5
74
3
42
0.0000001000
43
0.0000001000
44
0.0000000001
12
0.6444500726
22
0.7454054659
32
0.0000000000
13
0.4781159373
23
0.8615975599
33
0.0000000000
40
0.0000000000
40
0.0000000000
40
0.0000000000
40
0.0000000000
40
0.4945754814
40
1.0000000000
40
1.0000000000
40
1.0000000000
40
1.0000000000
10
46.5123165333
20
168.1516067739
30
0.0000000000
10
46.6185596016
20
168.2744931963
30
0.0000000000
10
46.8195417180
20
168.5351769583
30
0.0000000000
10
46.9928453623
20
168.8148885671
30
0.0000000000
10
47.0733958681
20
168.9600460778
30
0.0000000000
11
46.5123165333
21
168.1516067739
31
0.0000000000
11
46.8105909654
21
168.5370030951
31
0.0000000000
11
47.0733958681
21
168.9600460778
31
0.0000000000
0
SPLINE
5
45D
100
AcDbEntity
8
0
100
AcDbSpline
62
7
6
CONTINUOUS
70
0
71
3
72
9
73
5
74
3
42
0.0000001000
43
0.0000001000
44
0.0000000001
12
-0.5854647499
22
-1.4279823656
32
0.0000000000
13
-0.5160037047
23
-1.4545249350
33
0.0000000000
40
0.0000000000
40
0.0000000000
40
0.0000000000
40
0.0000000000
40
0.4807208556
40
1.0000000000
40
1.0000000000
40
1.0000000000
40
1.0000000000
10
47.0734426663
20
168.9601602187
30
0.0000000000
10
46.9796276278
20
168.7313399172
30
0.0000000000
10
46.7826892987
20
168.2560992426
30
0.0000000000
10
46.5976090373
20
167.7759080943
30
0.0000000000
10
46.5082923832
20
167.5241399397
30
0.0000000000
11
47.0734426663
21
168.9601602187
31
0.0000000000
11
46.7930232147
21
168.2732796923
31
0.0000000000
11
46.5082923832
21
167.5241399397
31
0.0000000000
0
SPLINE
5
45E
100
AcDbEntity
8
0
100
AcDbSpline
62
7
6
CONTINUOUS
70
0
71
3
72
10
73
6
74
4
42
0.0000001000
43
0.0000001000
44
0.0000000001
12
0.0000000000
22
2.2833063370
32
0.0000000000
13
-0.1895573699
23
2.2754243192
33
0.0000000000
40
0.0000000000
40
0.0000000000
40
0.0000000000
40
0.0000000000
40
0.3447185747
40
0.6807421441
40
1.0000000000
40
1.0000000000
40
1.0000000000
40
1.0000000000
10
74.6324023712
20
81.5269461889
30
0.0000000000
10
74.6324023712
20
81.7893122242
30
0.0000000000
10
74.6258526410
20
82.3074536036
30
0.0000000000
10
74.5965078501
20
83.0680688143
30
0.0000000000
10
74.5633586125
20
83.5657932502
30
0.0000000000
10
74.5431860527
20
83.8079422800
30
0.0000000000
11
74.6324023712
21
81.5269461889
31
0.0000000000
11
74.6223260611
21
82.3139797945
31
0.0000000000
11
74.5923554734
21
83.0806389517
31
0.0000000000
11
74.5431860527
21
83.8079422800
31
0.0000000000
0
SPLINE
5
45F
100
AcDbEntity
8
0
100
AcDbSpline
62
7
6
CONTINUOUS
70
0
71
3
72
15
73
11
74
9
42
0.0000001000
43
0.0000001000
44
0.0000000001
12
-4.3176787592
22
0.0000000000
32
0.0000000000
13
0.0000000000
23
4.3176787592
33
0.0000000000
40
0.0000000000
40
0.0000000000
40
0.0000000000
40
0.0000000000
40
0.0277839334
40
0.0873669333
40
0.1804430623
40
0.3041511194
40
0.4539532031
40
0.6242132886
40
0.8085191507
40
1.0000000000
40
1.0000000000
40
1.0000000000
40
1.0000000000
10
92.3063186136
20
77.2769461889
30
0.0000000000
10
92.2663312472
20
77.2769461889
30
0.0000000000
10
92.1832551923
20
77.4092792166
30
0.0000000000
10
92.1223042735
20
77.6416332650
30
0.0000000000
10
92.0443963935
20
78.0422659233
30
0.0000000000
10
91.9830502757
20
78.5624655877
30
0.0000000000
10
91.9289809156
20
79.2003716275
30
0.0000000000
10
91.8896469644
20
79.9248360917
30
0.0000000000
10
91.8650807464
20
80.7105337493
30
0.0000000000
10
91.8596256137
20
81.2513619237
30
0.0000000000
10
91.8596256137
20
81.5269461889
30
0.0000000000
11
92.3063186136
21
77.2769461889
31
0.0000000000
11
92.2189096790
21
77.3591081228
31
0.0000000000
11
92.1349173622
21
77.6022708843
31
0.0000000000
11
92.0576094210
21
77.9966377817
31
0.0000000000
11
91.9899630085
21
78.5264684931
31
0.0000000000
11
91.9345483122
21
79.1708875542
31
0.0000000000
11
91.8934401375
21
79.9048656300
31
0.0000000000
11
91.8681580710
21
80.7002374238
31
0.0000000000
11
91.8596256137
21
81.5269461889
31
0.0000000000
0
SPLINE
5
460
100
AcDbEntity
8
0
100
AcDbSpline
62
7
6
CONTINUOUS
70
0
71
3
72
15
73
11
74
9
42
0.0000001000
43
0.0000001000
44
0.0000000001
12
0.0000000000
22
4.3176787357
32
0.0000000000
13
4.3176787357
23
0.0000000000
33
0.0000000000
40
0.0000000000
40
0.0000000000
40
0.0000000000
40
0.0000000000
40
0.1914813497
40
0.3757872670
40
0.5460471090
40
0.6958488699
40
0.8195567157
40
0.9126328305
40
0.9722159593
40
1.0000000000
40
1.0000000000
40
1.0000000000
40
1.0000000000
10
91.8596256137
20
81.5269461889
30
0.0000000000
10
91.8596256137
20
81.8025311728
30
0.0000000000
10
91.8650807685
20
82.3433601437
30
0.0000000000
10
91.8896470487
20
83.1290582454
30
0.0000000000
10
91.9289810100
20
83.8535219665
30
0.0000000000
10
91.9830502944
20
84.4914268891
30
0.0000000000
10
92.0443963185
20
85.0116257549
30
0.0000000000
10
92.1223040752
20
85.4122583349
30
0.0000000000
10
92.1832549999
20
85.6446125743
30
0.0000000000
10
92.2663310930
20
85.7769461889
30
0.0000000000
10
92.3063186136
20
85.7769461889
30
0.0000000000
11
91.8596256137
21
81.5269461889
31
0.0000000000
11
91.8681581159
21
82.3536571099
31
0.0000000000
11
91.8934402412
21
83.1490291355
31
0.0000000000
11
91.9345484054
21
83.8830061551
31
0.0000000000
11
91.9899630020
21
84.5274238221
31
0.0000000000
11
92.0576092694
21
85.0572536298
31
0.0000000000
11
92.1349171066
21
85.4516204830
31
0.0000000000
11
92.2189094510
21
85.6947838220
31
0.0000000000
11
92.3063186136
21
85.7769461889
31
0.0000000000
0
SPLINE
5
461
100
AcDbEntity
8
0
100
AcDbSpline
62
7
6
CONTINUOUS
70
0
71
3
72
14
73
10
74
8
42
0.0000001000
43
0.0000001000
44
0.0000000001
12
-0.0005513733
22
-3.2785910695
32
0.0000000000
13
-1.6393012203
23
-2.8393399258
33
0.0000000000
40
0.0000000000
40
0.0000000000
40
0.0000000000
40
0.0000000000
40
0.1426391133
40
0.2854395741
40
0.4282354470
40
0.5710318942
40
0.7138795846
40
0.8568638699
40
1.0000000000
40
1.0000000000
40
1.0000000000
40
1.0000000000
10
95.8062614014
20
96.7617318273
30
0.0000000000
10
95.8062351856
20
96.6058467197
30
0.0000000000
10
95.7944167939
20
96.2937752282
30
0.0000000000
10
95.7415653938
20
95.8283443936
30
0.0000000000
10
95.6539408224
20
95.3679902979
30
0.0000000000
10
95.5321395956
20
94.9154352335
30
0.0000000000
10
95.3768631024
20
94.4730207227
30
0.0000000000
10
95.1889557541
20
94.0430739590
30
0.0000000000
10
95.0426173373
20
93.7663539791
30
0.0000000000
10
94.9644029264
20
93.6308832694
30
0.0000000000
11
95.8062614014
21
96.7617318273
31
0.0000000000
11
95.7885776850
21
96.2944109595
31
0.0000000000
11
95.7357723259
21
95.8292140617
31
0.0000000000
11
95.6482471485
21
95.3692990500
31
0.0000000000
11
95.5265879854
21
94.9172113526
31
0.0000000000
11
95.3715025740
21
94.4752949668
31
0.0000000000
11
95.1837766437
21
94.0457367826
31
0.0000000000
11
94.9644029264
21
93.6308832694
31
0.0000000000
0
SPLINE
5
462
100
AcDbEntity
8
0
100
AcDbSpline
62
7
6
CONTINUOUS
70
0
71
3
72
18
73
14
74
12
42
0.0000001000
43
0.0000001000
44
0.0000000001
12
2.7739303906
22
0.0000000000
32
0.0000000000
13
0.2302883940
23
-2.7643547290
33
0.0000000000
40
0.0000000000
40
0.0000000000
40
0.0000000000
40
0.0000000000
40
0.0473119553
40
0.0940887851
40
0.1637005909
40
0.2497254092
40
0.3440513204
40
0.4401855907
40
0.5361801016
40
0.6382255919
40
0.7508207206
40
0.8725775176
40
1.0000000000
40
1.0000000000
40
1.0000000000
40
1.0000000000
10
74.8786763372
20
86.4269461889
30
0.0000000000
10
74.9224230274
20
86.4269461889
30
0.0000000000
10
75.0286934981
20
86.3994106974
30
0.0000000000
10
75.0217782093
20
86.2224462990
30
0.0000000000
10
74.9607043197
20
86.0537755794
30
0.0000000000
10
74.8771490617
20
85.8351824139
30
0.0000000000
10
74.7877269645
20
85.5966142404
30
0.0000000000
10
74.7062371412
20
85.3441954430
30
0.0000000000
10
74.6366813673
20
85.0811558772
30
0.0000000000
10
74.5804109710
20
84.7992687573
30
0.0000000000
10
74.5408979331
20
84.4904516933
30
0.0000000000
10
74.5246848653
20
84.1559667041
30
0.0000000000
10
74.5334042733
20
83.9253626829
30
0.0000000000
10
74.5431855796
20
83.8079490356
30
0.0000000000
11
74.8786763372
21
86.4269461889
31
0.0000000000
11
75.0014222299
21
86.3804983476
31
0.0000000000
11
75.0178646000
21
86.2517886652
31
0.0000000000
11
74.9646433624
21
86.0661695532
31
0.0000000000
11
74.8803689322
21
85.8429194746
31
0.0000000000
11
74.7901312753
21
85.5973187304
31
0.0000000000
11
74.7085078744
21
85.3434479194
31
0.0000000000
11
74.6406851345
21
85.0859479620
31
0.0000000000
11
74.5854117653
21
84.8083298246
31
0.0000000000
11
74.5459038564
21
84.4985076020
31
0.0000000000
11
74.5296868821
21
84.1611522799
31
0.0000000000
11
74.5431855796
21
83.8079490356
31
0.0000000000
0
SPLINE
5
463
100
AcDbEntity
8
0
100
AcDbSpline
62
7
6
CONTINUOUS
70
0
71
3
72
9
73
5
74
3
42
0.0000001000
43
0.0000001000
44
0.0000000001
12
0.3950770905
22
0.3418359834
32
0.0000000000
13
0.4487141155
23
0.2675694107
33
0.0000000000
40
0.0000000000
40
0.0000000000
40
0.0000000000
40
0.0000000000
40
0.5002017736
40
1.0000000000
40
1.0000000000
40
1.0000000000
40
1.0000000000
10
74.8786763372
20
86.4269461889
30
0.0000000000
10
74.9445490910
20
86.4839418439
30
0.0000000000
10
75.0813275394
20
86.5921376398
30
0.0000000000
10
75.2270682421
20
86.6879154070
30
0.0000000000
10
75.3018237485
20
86.7324923127
30
0.0000000000
11
74.8786763372
21
86.4269461889
31
0.0000000000
11
75.0836251082
21
86.5890742886
31
0.0000000000
11
75.3018237485
21
86.7324923127
31
0.0000000000
0
SPLINE
5
464
100
AcDbEntity
8
0
100
AcDbSpline
62
7
6
CONTINUOUS
70
0
71
3
72
15
73
11
74
9
42
0.0000001000
43
0.0000001000
44
0.0000000001
12
-5.0609203871
22
0.0000000000
32
0.0000000000
13
-0.0000000000
23
5.0609203871
33
0.0000000000
40
0.0000000000
40
0.0000000000
40
0.0000000000
40
0.0000000000
40
0.0355554540
40
0.0984145973
40
0.1925940571
40
0.3159051191
40
0.4640581863
40
0.6316165164
40
0.8124415604
40
1.0000000000
40
1.0000000000
40
1.0000000000
40
1.0000000000
10
64.7563186136
20
76.6269461889
30
0.0000000000
10
64.6963375062
20
76.6269461889
30
0.0000000000
10
64.5534950107
20
76.7550190097
30
0.0000000000
10
64.4343690960
20
77.0503834279
30
0.0000000000
10
64.3020516697
20
77.5088566558
30
0.0000000000
10
64.1933337347
20
78.1153940405
30
0.0000000000
10
64.1002455891
20
78.8507669595
30
0.0000000000
10
64.0319953447
20
79.6857363163
30
0.0000000000
10
63.9896602477
20
80.5890469315
30
0.0000000000
10
63.9802348560
20
81.2105400787
30
0.0000000000
10
63.9802348560
20
81.5269461889
30
0.0000000000
11
64.7563186136
21
76.6269461889
31
0.0000000000
11
64.6038236645
21
76.7224704775
31
0.0000000000
11
64.4574294072
21
77.0049104059
31
0.0000000000
11
64.3229232110
21
77.4621726570
31
0.0000000000
11
64.2054979145
21
78.0750931281
31
0.0000000000
11
64.1095454074
21
78.8187190269
31
0.0000000000
11
64.0385301645
21
79.6637395978
31
0.0000000000
11
63.9949324586
21
80.5778416532
31
0.0000000000
11
63.9802348560
21
81.5269461889
31
0.0000000000
0
SPLINE
5
465
100
AcDbEntity
8
0
100
AcDbSpline
62
7
6
CONTINUOUS
70
0
71
3
72
10
73
6
74
4
42
0.0000001000
43
0.0000001000
44
0.0000000001
12
0.0000000000
22
2.2833063370
32
0.0000000000
13
0.1895572843
23
2.2754243263
33
0.0000000000
40
0.0000000000
40
0.0000000000
40
0.0000000000
40
0.0000000000
40
0.3447185747
40
0.6807421441
40
1.0000000000
40
1.0000000000
40
1.0000000000
40
1.0000000000
10
63.9802348560
20
81.5269461889
30
0.0000000000
10
63.9802348560
20
81.7893122242
30
0.0000000000
10
63.9867845875
20
82.3074536035
30
0.0000000000
10
64.0161293725
20
83.0680688146
30
0.0000000000
10
64.0492786237
20
83.5657932494
30
0.0000000000
10
64.0694511745
20
83.8079422800
30
0.0000000000
11
63.9802348560
21
81.5269461889
31
0.0000000000
11
63.9903111660
21
82.3139797945
31
0.0000000000
11
64.0202817538
21
83.0806389517
31
0.0000000000
11
64.0694511745
21
83.8079422800
31
0.0000000000
0
SPLINE
5
466
100
AcDbEntity
8
0
100
AcDbSpline
62
7
6
CONTINUOUS
70
0
71
3
72
15
73
11
74
9
42
0.0000001000
43
0.0000001000
44
0.0000000001
12
5.0609203871
22
0.0000000000
32
0.0000000000
13
0.0000000000
23
5.0609203871
33
0.0000000000
40
0.0000000000
40
0.0000000000
40
0.0000000000
40
0.0000000000
40
0.0355554540
40
0.0984145973
40
0.1925940571
40
0.3159051191
40
0.4640581863
40
0.6316165164
40
0.8124415604
40
1.0000000000
40
1.0000000000
40
1.0000000000
40
1.0000000000
10
73.8563186136
20
76.6269461889
30
0.0000000000
10
73.9162997210
20
76.6269461889
30
0.0000000000
10
74.0591422165
20
76.7550190097
30
0.0000000000
10
74.1782681311
20
77.0503834279
30
0.0000000000
10
74.3105855574
20
77.5088566558
30
0.0000000000
10
74.4193034924
20
78.1153940405
30
0.0000000000
10
74.5123916380
20
78.8507669595
30
0.0000000000
10
74.5806418824
20
79.6857363163
30
0.0000000000
10
74.6229769795
20
80.5890469315
30
0.0000000000
10
74.6324023712
20
81.2105400787
30
0.0000000000
10
74.6324023712
20
81.5269461889
30
0.0000000000
11
73.8563186136
21
76.6269461889
31
0.0000000000
11
74.0088135626
21
76.7224704775
31
0.0000000000
11
74.1552078199
21
77.0049104059
31
0.0000000000
11
74.2897140161
21
77.4621726570
31
0.0000000000
11
74.4071393127
21
78.0750931281
31
0.0000000000
11
74.5030918197
21
78.8187190269
31
0.0000000000
11
74.5741070627
21
79.6637395978
31
0.0000000000
11
74.6177047686
21
80.5778416532
31
0.0000000000
11
74.6324023712
21
81.5269461889
31
0.0000000000
0
SPLINE
5
467
100
AcDbEntity
8
0
100
AcDbSpline
62
7
6
CONTINUOUS
70
0
71
3
72
15
73
11
74
9
42
0.0000001000
43
0.0000001000
44
0.0000000001
12
0.0000000000
22
4.9780283010
32
0.0000000000
13
-4.9780283010
23
0.0000000000
33
0.0000000000
40
0.0000000000
40
0.0000000000
40
0.0000000000
40
0.0000000000
40
0.1914449074
40
0.3757401982
40
0.5459964961
40
0.6958050729
40
0.8195260543
40
0.9126168017
40
0.9722113006
40
1.0000000000
40
1.0000000000
40
1.0000000000
40
1.0000000000
10
46.8213293664
20
81.5269461889
30
0.0000000000
10
46.8213293664
20
81.8446189112
30
0.0000000000
10
46.8150418517
20
82.4680846226
30
0.0000000000
10
46.7867254870
20
83.3738642742
30
0.0000000000
10
46.7413824124
20
84.2091161398
30
0.0000000000
10
46.6790491142
20
84.9446109598
30
0.0000000000
10
46.6083222721
20
85.5444259473
30
0.0000000000
10
46.5184964500
20
86.0064015876
30
0.0000000000
10
46.4482192909
20
86.2743342479
30
0.0000000000
10
46.3524295909
20
86.4269461889
30
0.0000000000
10
46.3063186136
20
86.4269461889
30
0.0000000000
11
46.8213293664
21
81.5269461889
31
0.0000000000
11
46.8114956786
21
82.4799136201
31
0.0000000000
11
46.7823532706
21
83.3968778170
31
0.0000000000
11
46.7349654404
21
84.2430926719
31
0.0000000000
11
46.6710808391
21
84.9861026391
31
0.0000000000
11
46.5930896711
21
85.5970311259
31
0.0000000000
11
46.5039543356
21
86.0517862405
31
0.0000000000
11
46.4071076483
21
86.3321961463
31
0.0000000000
11
46.3063186136
21
86.4269461889
31
0.0000000000
0
SPLINE
5
468
100
AcDbEntity
8
0
100
AcDbSpline
62
7
6
CONTINUOUS
70
0
71
3
72
15
73
11
74
9
42
0.0000001000
43
0.0000001000
44
0.0000000001
12
4.9780283262
22
0.0000000000
32
0.0000000000
13
0.0000000000
23
4.9780283262
33
0.0000000000
40
0.0000000000
40
0.0000000000
40
0.0000000000
40
0.0000000000
40
0.0277885994
40
0.0873829782
40
0.1804737404
40
0.3041949216
40
0.4540038022
40
0.6242603281
40
0.8085555651
40
1.0000000000
40
1.0000000000
40
1.0000000000
40
1.0000000000
10
46.3063186136
20
76.6269461889
30
0.0000000000
10
46.3524294253
20
76.6269461889
30
0.0000000000
10
46.4482190842
20
76.7795574993
30
0.0000000000
10
46.5184962376
20
77.0474899567
30
0.0000000000
10
46.6083221932
20
77.5094656889
30
0.0000000000
10
46.6790491367
20
78.1092815467
30
0.0000000000
10
46.7413825162
20
78.8447775787
30
0.0000000000
10
46.7867255791
20
79.6800302454
30
0.0000000000
10
46.8150418758
20
80.5858094073
30
0.0000000000
10
46.8213293664
20
81.2092742489
30
0.0000000000
10
46.8213293664
20
81.5269461889
30
0.0000000000
11
46.3063186136
21
76.6269461889
31
0.0000000000
11
46.4071074034
21
76.7216957664
31
0.0000000000
11
46.5039540610
21
77.0021050515
31
0.0000000000
11
46.5930895095
21
77.4568602212
31
0.0000000000
11
46.6710808344
21
78.0677896939
31
0.0000000000
11
46.7349655431
21
78.8108011736
31
0.0000000000
11
46.7823533838
21
79.6570171684
31
0.0000000000
11
46.8114957275
21
80.5739811043
31
0.0000000000
11
46.8213293664
21
81.5269461889
31
0.0000000000
0
SPLINE
5
469
100
AcDbEntity
8
0
100
AcDbSpline
62
7
6
CONTINUOUS
70
0
71
3
72
14
73
10
74
8
42
0.0000001000
43
0.0000001000
44
0.0000000001
12
-1.6392995412
22
2.8393409085
32
0.0000000000
13
-0.0005513735
23
3.2785910810
33
0.0000000000
40
0.0000000000
40
0.0000000000
40
0.0000000000
40
0.0000000000
40
0.1432600141
40
0.2864412602
40
0.4294675217
40
0.5723214260
40
0.7150147608
40
0.8576036922
40
1.0000000000
40
1.0000000000
40
1.0000000000
40
1.0000000000
10
43.6482343008
20
93.6308832694
30
0.0000000000
10
43.5699522757
20
93.7664712756
30
0.0000000000
10
43.4234582879
20
94.0435066905
30
0.0000000000
10
43.2353815752
20
94.4739769137
30
0.0000000000
10
43.0800426524
20
94.9168726672
30
0.0000000000
10
42.9583285507
20
95.3696027707
30
0.0000000000
10
42.8708787241
20
95.8297037012
30
0.0000000000
10
42.8181815427
20
96.2945377402
30
0.0000000000
10
42.8064019970
20
96.6061120734
30
0.0000000000
10
42.8063758258
20
96.7617318283
30
0.0000000000
11
43.6482343008
21
93.6308832694
31
0.0000000000
11
43.4286840903
21
94.0461029112
31
0.0000000000
11
43.2407494021
21
94.4762745886
31
0.0000000000
11
43.0855648850
21
94.9187766521
31
0.0000000000
11
42.9639818200
21
95.3710798910
31
0.0000000000
11
42.8766414666
21
95.8306878473
31
0.0000000000
11
42.8239995524
21
96.2952053195
31
0.0000000000
11
42.8063758258
21
96.7617318283
31
0.0000000000
0
SPLINE
5
46A
100
AcDbEntity
8
0
100
AcDbSpline
62
7
6
CONTINUOUS
70
0
71
3
72
17
73
13
74
11
42
0.0000001000
43
0.0000001000
44
0.0000000001
12
0.2301288509
22
2.7624408501
32
0.0000000000
13
2.7720098734
23
0.0000000000
33
0.0000000000
40
0.0000000000
40
0.0000000000
40
0.0000000000
40
0.0000000000
40
0.1403838003
40
0.2733490358
40
0.3944700097
40
0.5029156019
40
0.6088429200
40
0.7142725871
40
0.8127788882
40
0.8945350244
40
0.9494056667
40
1.0000000000
40
1.0000000000
40
1.0000000000
40
1.0000000000
10
64.0694515905
20
83.8079482228
30
0.0000000000
10
64.0802203780
20
83.9372155377
30
0.0000000000
10
64.0886245089
20
84.1901413271
30
0.0000000000
10
64.0663584384
20
84.5544099255
30
0.0000000000
10
64.0175860727
20
84.8862168177
30
0.0000000000
10
63.9500263556
20
85.1888945698
30
0.0000000000
10
63.8670308545
20
85.4730744330
30
0.0000000000
10
63.7720110870
20
85.7418560985
30
0.0000000000
10
63.6745811097
20
85.9919285997
30
0.0000000000
10
63.6036213010
20
86.1843804997
30
0.0000000000
10
63.5686552444
20
86.3863796868
30
0.0000000000
10
63.6872115595
20
86.4269461889
30
0.0000000000
10
63.7339608900
20
86.4269461889
30
0.0000000000
11
64.0694515905
21
83.8079482228
31
0.0000000000
11
64.0825664241
21
84.1968724448
31
0.0000000000
11
64.0602564471
21
84.5647775664
31
0.0000000000
11
64.0116093761
21
84.8969831376
31
0.0000000000
11
63.9463293029
21
85.1904217824
31
0.0000000000
11
63.8643996721
21
85.4723917018
31
0.0000000000
11
63.7680141275
21
85.7482922346
31
0.0000000000
11
63.6709813639
21
86.0035306452
31
0.0000000000
11
63.6011347726
21
86.2191276634
31
0.0000000000
11
63.6052796320
21
86.3711731405
31
0.0000000000
11
63.7339608900
21
86.4269461889
31
0.0000000000
0
SPLINE
5
46B
100
AcDbEntity
8
0
100
AcDbSpline
62
7
6
CONTINUOUS
70
0
71
3
72
9
73
5
74
3
42
0.0000001000
43
0.0000001000
44
0.0000000001
12
0.4487141151
22
-0.2675694105
32
0.0000000000
13
0.3950770902
23
-0.3418359831
33
0.0000000000
40
0.0000000000
40
0.0000000000
40
0.0000000000
40
0.0000000000
40
0.4996769307
40
1.0000000000
40
1.0000000000
40
1.0000000000
40
1.0000000000
10
63.3108134787
20
86.7324923127
30
0.0000000000
10
63.3855508426
20
86.6879262254
30
0.0000000000
10
63.5312924282
20
86.5921500977
30
0.0000000000
10
63.6680721625
20
86.4839556650
30
0.0000000000
10
63.7339608900
20
86.4269461889
30
0.0000000000
11
63.3108134787
21
86.7324923127
31
0.0000000000
11
63.5289606904
21
86.5891114168
31
0.0000000000
11
63.7339608900
21
86.4269461889
31
0.0000000000
0
SPLINE
5
46C
100
AcDbEntity
8
0
100
AcDbSpline
62
9
6
CONTINUOUS
70
0
71
3
72
10
73
6
74
4
42
0.0000001000
43
0.0000001000
44
0.0000000001
12
1.0420546360
22
-0.8609697741
32
0.0000000000
13
1.1035582522
23
-0.7805805533
33
0.0000000000
40
0.0000000000
40
0.0000000000
40
0.0000000000
40
0.0000000000
40
0.3574000274
40
0.6907140418
40
1.0000000000
40
1.0000000000
40
1.0000000000
40
1.0000000000
10
75.3017186842
20
86.7324296551
30
0.0000000000
10
75.4258621360
20
86.6298594482
30
0.0000000000
10
75.6689966030
20
86.4354997755
30
0.0000000000
10
76.0281609913
20
86.1633737108
30
0.0000000000
10
76.2629714280
20
85.9939298357
30
0.0000000000
10
76.3767431185
20
85.9134556342
30
0.0000000000
11
75.3017186842
21
86.7324296551
31
0.0000000000
11
75.6787990731
21
86.4304353238
31
0.0000000000
11
76.0378702654
21
86.1582944411
31
0.0000000000
11
76.3767431185
21
85.9134556342
31
0.0000000000
0
SPLINE
5
46D
100
AcDbEntity
8
0
100
AcDbSpline
62
7
6
CONTINUOUS
70
0
71
3
72
13
73
9
74
7
42
0.0000001000
43
0.0000001000
44
0.0000000001
12
-2.6387959539
22
-1.1727790682
32
0.0000000000
13
0.0000434897
23
-2.8876729087
33
0.0000000000
40
0.0000000000
40
0.0000000000
40
0.0000000000
40
0.0000000000
40
0.1588275484
40
0.3232320595
40
0.4879788106
40
0.6561751002
40
0.8283857172
40
1.0000000000
40
1.0000000000
40
1.0000000000
40
1.0000000000
10
76.3766278306
20
85.9134126011
30
0.0000000000
10
76.2369233332
20
85.8513227264
30
0.0000000000
10
75.9627623259
20
85.7003874698
30
0.0000000000
10
75.5967658725
20
85.4017175610
30
0.0000000000
10
75.2882841207
20
85.0316803290
30
0.0000000000
10
75.0547841235
20
84.6014310197
30
0.0000000000
10
74.9103322816
20
84.1268160933
30
0.0000000000
10
74.8784695506
20
83.7949072816
30
0.0000000000
10
74.8784720384
20
83.6297186432
30
0.0000000000
11
76.3766278306
21
85.9134126011
31
0.0000000000
11
75.9751534669
21
85.6916676409
31
0.0000000000
11
75.6076789722
21
85.3910903789
31
0.0000000000
11
75.3033053505
21
85.0254673059
31
0.0000000000
11
75.0716083772
21
84.5985984856
31
0.0000000000
11
74.9265049385
21
84.1229512626
31
0.0000000000
11
74.8784720384
21
83.6297186432
31
0.0000000000
0
SPLINE
5
46E
100
AcDbEntity
8
0
100
AcDbSpline
62
9
6
CONTINUOUS
70
0
71
3
72
9
73
5
74
3
42
0.0000001000
43
0.0000001000
44
0.0000000001
12
0.3343548278
22
-0.1799254607
32
0.0000000000
13
0.3361574915
23
-0.1765345950
33
0.0000000000
40
0.0000000000
40
0.0000000000
40
0.0000000000
40
0.0000000000
40
0.5082320374
40
1.0000000000
40
1.0000000000
40
1.0000000000
40
1.0000000000
10
74.5431860527
20
83.8079422800
30
0.0000000000
10
74.5998293311
20
83.7774609855
30
0.0000000000
10
74.7114314364
20
83.7177647362
30
0.0000000000
10
74.8233682102
20
83.6586988285
30
0.0000000000
10
74.8784720384
20
83.6297608092
30
0.0000000000
11
74.5431860527
21
83.8079422800
31
0.0000000000
11
74.7133553066
21
83.7169447098
31
0.0000000000
11
74.8784720384
21
83.6297608092
31
0.0000000000
0
SPLINE
5
46F
100
AcDbEntity
8
0
100
AcDbSpline
62
7
6
CONTINUOUS
70
0
71
3
72
10
73
6
74
4
42
0.0000001000
43
0.0000001000
44
0.0000000001
12
0.8835957780
22
-2.1991717632
32
0.0000000000
13
0.0000000000
23
-2.3700417597
33
0.0000000000
40
0.0000000000
40
0.0000000000
40
0.0000000000
40
0.0000000000
40
0.3541692132
40
0.6874139007
40
1.0000000000
40
1.0000000000
40
1.0000000000
40
1.0000000000
10
56.2175387316
20
79.0269461889
30
0.0000000000
10
56.3218528721
20
78.7673198779
30
0.0000000000
10
56.4989352240
20
78.2524314733
30
0.0000000000
10
56.6612097174
20
77.4770750299
30
0.0000000000
10
56.6967984007
20
76.9662012508
30
0.0000000000
10
56.6967984007
20
76.7192538812
30
0.0000000000
11
56.2175387316
21
79.0269461889
31
0.0000000000
11
56.4869297979
21
78.2319532299
31
0.0000000000
11
56.6461340970
21
77.4583615584
31
0.0000000000
11
56.6967984007
21
76.7192538812
31
0.0000000000
0
SPLINE
5
470
100
AcDbEntity
8
0
100
AcDbSpline
62
7
6
CONTINUOUS
70
0
71
3
72
11
73
7
74
5
42
0.0000001000
43
0.0000001000
44
0.0000000001
12
4.3940526496
22
-6.4327752296
32
0.0000000000
13
0.0000000000
23
-7.7902693048
33
0.0000000000
40
0.0000000000
40
0.0000000000
40
0.0000000000
40
0.0000000000
40
0.2505706879
40
0.4999726847
40
0.7493683759
40
1.0000000000
40
1.0000000000
40
1.0000000000
40
1.0000000000
10
79.6567257760
20
89.8687774771
30
0.0000000000
10
80.0237327078
20
89.3314891722
30
0.0000000000
10
80.6753995777
20
88.2017827275
30
0.0000000000
10
81.3861450025
20
86.3827747531
30
0.0000000000
10
81.8188580568
20
84.4782919853
30
0.0000000000
10
81.9158388265
20
83.1777754716
30
0.0000000000
10
81.9158388265
20
82.5269461889
30
0.0000000000
11
79.6567257760
21
89.8687774771
31
0.0000000000
11
80.6323494236
21
88.1780634882
31
0.0000000000
11
81.3398776934
21
86.3685613347
31
0.0000000000
11
81.7704485899
21
84.4740133364
31
0.0000000000
11
81.9158388265
21
82.5269461889
31
0.0000000000
0
SPLINE
5
471
100
AcDbEntity
8
0
100
AcDbSpline
62
7
6
CONTINUOUS
70
0
71
3
72
15
73
11
74
9
42
0.0000001000
43
0.0000001000
44
0.0000000001
12
-13.8694293240
22
-1.6883517163
32
0.0000000000
13
-6.0030327823
23
-12.6164653809
33
0.0000000000
40
0.0000000000
40
0.0000000000
40
0.0000000000
40
0.0000000000
40
0.1214580460
40
0.2412987733
40
0.3592326676
40
0.4776672180
40
0.5994049964
40
0.7267023208
40
0.8603769044
40
1.0000000000
40
1.0000000000
40
1.0000000000
40
1.0000000000
10
69.3063202096
20
110.5756129340
30
0.0000000000
10
68.7448022812
20
110.5072583005
30
0.0000000000
10
67.6365538179
20
110.3008519661
30
0.0000000000
10
66.0387263912
20
109.7914141602
30
0.0000000000
10
64.5274636262
20
109.0973158481
30
0.0000000000
10
63.1031626888
20
108.2219088255
30
0.0000000000
10
61.7613417784
20
107.1527237124
30
0.0000000000
10
60.5135663168
20
105.8731246108
30
0.0000000000
10
59.3914929684
20
104.3761417463
30
0.0000000000
10
58.7680128704
20
103.2612895264
30
0.0000000000
10
58.4886255305
20
102.6741062092
30
0.0000000000
11
69.3063202096
21
110.5756129340
31
0.0000000000
11
67.6379878429
21
110.2650653971
31
0.0000000000
11
66.0426430636
21
109.7566708725
31
0.0000000000
11
64.5451992957
21
109.0691071540
31
0.0000000000
11
63.1353282594
21
108.2028239602
31
0.0000000000
11
61.8049195446
21
107.1430761119
31
0.0000000000
11
60.5628813489
21
105.8700212213
31
0.0000000000
11
59.4421337931
21
104.3759862861
31
0.0000000000
11
58.4886255305
21
102.6741062092
31
0.0000000000
0
SPLINE
5
472
100
AcDbEntity
8
0
100
AcDbSpline
62
7
6
CONTINUOUS
70
0
71
3
72
9
73
5
74
3
42
0.0000001000
43
0.0000001000
44
0.0000000001
12
-0.2417300689
22
-1.5237208670
32
0.0000000000
13
-0.5364754277
23
-1.4464967411
33
0.0000000000
40
0.0000000000
40
0.0000000000
40
0.0000000000
40
0.0000000000
40
0.4885743523
40
1.0000000000
40
1.0000000000
40
1.0000000000
40
1.0000000000
10
56.6161057875
20
80.5153852586
30
0.0000000000
10
56.5767380835
20
80.2672349467
30
0.0000000000
10
56.4676796500
20
79.7635484182
30
0.0000000000
10
56.3089944960
20
79.2735380331
30
0.0000000000
10
56.2175387316
20
79.0269461889
30
0.0000000000
11
56.6161057875
21
80.5153852586
31
0.0000000000
11
56.4583256352
21
79.7783228702
31
0.0000000000
11
56.2175387316
21
79.0269461889
31
0.0000000000
0
SPLINE
5
473
100
AcDbEntity
8
0
100
AcDbSpline
62
7
6
CONTINUOUS
70
0
71
3
72
11
73
7
74
5
42
0.0000001000
43
0.0000001000
44
0.0000000001
12
-4.3940526496
22
-6.4327752296
32
0.0000000000
13
-0.0000000000
23
-7.7902693048
33
0.0000000000
40
0.0000000000
40
0.0000000000
40
0.0000000000
40
0.0000000000
40
0.2505706879
40
0.4999726847
40
0.7493683759
40
1.0000000000
40
1.0000000000
40
1.0000000000
40
1.0000000000
10
58.9559114511
20
89.8687774771
30
0.0000000000
10
58.5889045194
20
89.3314891722
30
0.0000000000
10
57.9372376494
20
88.2017827275
30
0.0000000000
10
57.2264922247
20
86.3827747531
30
0.0000000000
10
56.7937791703
20
84.4782919853
30
0.0000000000
10
56.6967984007
20
83.1777754716
30
0.0000000000
10
56.6967984007
20
82.5269461889
30
0.0000000000
11
58.9559114511
21
89.8687774771
31
0.0000000000
11
57.9802878036
21
88.1780634882
31
0.0000000000
11
57.2727595338
21
86.3685613347
31
0.0000000000
11
56.8421886372
21
84.4740133364
31
0.0000000000
11
56.6967984007
21
82.5269461889
31
0.0000000000
0
SPLINE
5
474
100
AcDbEntity
8
0
100
AcDbSpline
62
7
6
CONTINUOUS
70
0
71
3
72
19
73
15
74
13
42
0.0000001000
43
0.0000001000
44
0.0000000001
12
10.2902065488
22
-1.5422007521
32
0.0000000000
13
0.0000000000
23
-10.4051301758
33
0.0000000000
40
0.0000000000
40
0.0000000000
40
0.0000000000
40
0.0000000000
40
0.0613471559
40
0.1216269515
40
0.1810810842
40
0.2401707902
40
0.3004451782
40
0.3654670392
40
0.4392360278
40
0.5265659132
40
0.6309748758
40
0.7486253178
40
0.8746916950
40
1.0000000000
40
1.0000000000
40
1.0000000000
40
1.0000000000
10
87.5201680984
20
110.5756129340
30
0.0000000000
10
87.7305930668
20
110.5440763907
30
0.0000000000
10
88.1455296383
20
110.4645457854
30
0.0000000000
10
88.7492433586
20
110.2875478152
30
0.0000000000
10
89.3230893839
20
110.0485703619
30
0.0000000000
10
89.8640711702
20
109.7419525020
30
0.0000000000
10
90.3765456971
20
109.3562892227
30
0.0000000000
10
90.8682592966
20
108.8684647763
30
0.0000000000
10
91.3429869088
20
108.2408521496
30
0.0000000000
10
91.7891398335
20
107.4317157892
30
0.0000000000
10
92.1735152096
20
106.4264077322
30
0.0000000000
10
92.4626213544
20
105.2513339458
30
0.0000000000
10
92.6352900037
20
103.9810799747
30
0.0000000000
10
92.6729615047
20
103.1087226178
30
0.0000000000
10
92.6729615047
20
102.6741062092
30
0.0000000000
11
87.5201680984
21
110.5756129340
31
0.0000000000
11
88.1467695309
21
110.4538359543
31
0.0000000000
11
88.7482045486
21
110.2758479101
31
0.0000000000
11
89.3187815187
21
110.0368029098
31
0.0000000000
11
89.8532924295
21
109.7329583852
31
0.0000000000
11
90.3543841248
21
109.3558107243
31
0.0000000000
11
90.8353615742
21
108.8800004864
31
0.0000000000
11
91.3003606292
21
108.2693052388
31
0.0000000000
11
91.7430185923
21
107.4757366309
31
0.0000000000
11
92.1368434560
21
106.4632433194
31
0.0000000000
11
92.4350410384
21
105.2759498028
31
0.0000000000
11
92.6155369942
21
103.9766902675
31
0.0000000000
11
92.6729615047
21
102.6741062092
31
0.0000000000
0
SPLINE
5
475
100
AcDbEntity
8
0
100
AcDbSpline
62
7
6
CONTINUOUS
70
0
71
3
72
11
73
7
74
5
42
0.0000001000
43
0.0000001000
44
0.0000000001
12
-1.4293886603
22
0.6353027709
32
0.0000000000
13
-1.5454130355
23
0.2417852407
33
0.0000000000
40
0.0000000000
40
0.0000000000
40
0.0000000000
40
0.0000000000
40
0.3398065448
40
0.6239019804
40
0.8447221839
40
1.0000000000
40
1.0000000000
40
1.0000000000
40
1.0000000000
10
62.2360093966
20
85.9134126011
30
0.0000000000
10
62.0741041893
20
85.9853726143
30
0.0000000000
10
61.7800991079
20
86.1246394430
30
0.0000000000
10
61.3861681655
20
86.3222352774
30
0.0000000000
10
61.0753354965
20
86.4686495415
30
0.0000000000
10
60.8885553394
20
86.5347645190
30
0.0000000000
10
60.8085658857
20
86.5472791470
30
0.0000000000
11
62.2360093966
21
85.9134126011
31
0.0000000000
11
61.7547514542
21
86.1390553489
31
0.0000000000
11
61.3559445429
21
86.3350954014
31
0.0000000000
11
61.0411310530
21
86.4772234509
31
0.0000000000
11
60.8085658857
21
86.5472791470
31
0.0000000000
0
SPLINE
5
476
100
AcDbEntity
8
0
100
AcDbSpline
62
7
6
CONTINUOUS
70
0
71
3
72
10
73
6
74
4
42
0.0000001000
43
0.0000001000
44
0.0000000001
12
-2.2214144161
22
2.2604547931
32
0.0000000000
13
-0.9975457096
23
3.0081955450
33
0.0000000000
40
0.0000000000
40
0.0000000000
40
0.0000000000
40
0.0000000000
40
0.3332893299
40
0.6660986432
40
1.0000000000
40
1.0000000000
40
1.0000000000
40
1.0000000000
10
60.8085658857
20
86.5472791470
30
0.0000000000
10
60.5617746450
20
86.7984076348
30
0.0000000000
10
60.1060471407
20
87.3388587353
30
0.0000000000
10
59.5533306927
20
88.2434625733
30
0.0000000000
10
59.2801642883
20
88.8962111165
30
0.0000000000
10
59.1691369997
20
89.2310246411
30
0.0000000000
11
60.8085658857
21
86.5472791470
31
0.0000000000
11
60.1276412451
21
87.3547966630
31
0.0000000000
11
59.5776901565
21
88.2548439643
31
0.0000000000
11
59.1691369997
21
89.2310246411
31
0.0000000000
0
SPLINE
5
477
100
AcDbEntity
8
0
100
AcDbSpline
62
7
6
CONTINUOUS
70
0
71
3
72
10
73
6
74
4
42
0.0000001000
43
0.0000001000
44
0.0000000001
12
-0.2116580787
22
0.6382754025
32
0.0000000000
13
-0.2148085601
23
0.6372220290
33
0.0000000000
40
0.0000000000
40
0.0000000000
40
0.0000000000
40
0.0000000000
40
0.3344936666
40
0.6678359767
40
1.0000000000
40
1.0000000000
40
1.0000000000
40
1.0000000000
10
59.1691369997
20
89.2310246411
30
0.0000000000
10
59.1455375708
20
89.3021910010
30
0.0000000000
10
59.0983043485
20
89.4442404595
30
0.0000000000
10
59.0272296776
20
89.6568252190
30
0.0000000000
10
58.9796953430
20
89.7982233994
30
0.0000000000
10
58.9559114511
20
89.8687774771
30
0.0000000000
11
59.1691369997
21
89.2310246411
31
0.0000000000
11
59.0981644669
21
89.4444658603
31
0.0000000000
11
59.0270873015
21
89.6570560545
31
0.0000000000
11
58.9559114511
21
89.8687774771
31
0.0000000000
0
SPLINE
5
478
100
AcDbEntity
8
0
100
AcDbSpline
62
7
6
CONTINUOUS
70
0
71
3
72
12
73
8
74
6
42
0.0000001000
43
0.0000001000
44
0.0000000001
12
0.0000000000
22
6.1560210533
32
0.0000000000
13
-2.8671794589
23
5.4475569900
33
0.0000000000
40
0.0000000000
40
0.0000000000
40
0.0000000000
40
0.0000000000
40
0.1393461184
40
0.3062166935
40
0.5035644647
40
0.7340519512
40
1.0000000000
40
1.0000000000
40
1.0000000000
40
1.0000000000
10
50.5018167695
20
70.9263449869
30
0.0000000000
10
50.5018167695
20
71.2122841998
30
0.0000000000
10
50.4393900254
20
71.8406357232
30
0.0000000000
10
50.2072408439
20
72.8492000977
30
0.0000000000
10
49.8212577796
20
74.0085262463
30
0.0000000000
10
49.2708174733
20
75.3225547865
30
0.0000000000
10
48.8190189486
20
76.2363314971
30
0.0000000000
10
48.5648453543
20
76.7192538812
30
0.0000000000
11
50.5018167695
21
70.9263449869
31
0.0000000000
11
50.4286954635
21
71.7810404741
31
0.0000000000
11
50.2069163887
21
72.7840731901
31
0.0000000000
11
49.8296255514
21
73.9388795950
31
0.0000000000
11
49.2864636954
21
75.2496855175
31
0.0000000000
11
48.5648453543
21
76.7192538812
31
0.0000000000
0
SPLINE
5
479
100
AcDbEntity
8
0
100
AcDbSpline
62
7
6
CONTINUOUS
70
0
71
3
72
19
73
15
74
13
42
0.0000001000
43
0.0000001000
44
0.0000000001
12
-10.2902065488
22
-1.5422007521
32
0.0000000000
13
0.0000000000
23
-10.4051301758
33
0.0000000000
40
0.0000000000
40
0.0000000000
40
0.0000000000
40
0.0000000000
40
0.0613471559
40
0.1216269515
40
0.1810810842
40
0.2401707902
40
0.3004451782
40
0.3654670392
40
0.4392360278
40
0.5265659132
40
0.6309748758
40
0.7486253178
40
0.8746916950
40
1.0000000000
40
1.0000000000
40
1.0000000000
40
1.0000000000
10
51.0924691288
20
110.5756129340
30
0.0000000000
10
50.8820441604
20
110.5440763907
30
0.0000000000
10
50.4671075888
20
110.4645457854
30
0.0000000000
10
49.8633938686
20
110.2875478152
30
0.0000000000
10
49.2895478433
20
110.0485703619
30
0.0000000000
10
48.7485660569
20
109.7419525020
30
0.0000000000
10
48.2360915300
20
109.3562892227
30
0.0000000000
10
47.7443779305
20
108.8684647763
30
0.0000000000
10
47.2696503183
20
108.2408521496
30
0.0000000000
10
46.8234973936
20
107.4317157892
30
0.0000000000
10
46.4391220175
20
106.4264077322
30
0.0000000000
10
46.1500158728
20
105.2513339458
30
0.0000000000
10
45.9773472235
20
103.9810799747
30
0.0000000000
10
45.9396757225
20
103.1087226178
30
0.0000000000
10
45.9396757225
20
102.6741062092
30
0.0000000000
11
51.0924691288
21
110.5756129340
31
0.0000000000
11
50.4658676963
21
110.4538359543
31
0.0000000000
11
49.8644326785
21
110.2758479101
31
0.0000000000
11
49.2938557084
21
110.0368029098
31
0.0000000000
11
48.7593447977
21
109.7329583852
31
0.0000000000
11
48.2582531024
21
109.3558107243
31
0.0000000000
11
47.7772756530
21
108.8800004864
31
0.0000000000
11
47.3122765979
21
108.2693052388
31
0.0000000000
11
46.8696186349
21
107.4757366309
31
0.0000000000
11
46.4757937712
21
106.4632433194
31
0.0000000000
11
46.1775961887
21
105.2759498028
31
0.0000000000
11
45.9971002330
21
103.9766902675
31
0.0000000000
11
45.9396757225
21
102.6741062092
31
0.0000000000
0
SPLINE
5
47A
100
AcDbEntity
8
0
100
AcDbSpline
62
7
6
CONTINUOUS
70
0
71
3
72
10
73
6
74
4
42
0.0000001000
43
0.0000001000
44
0.0000000001
12
-0.8835957780
22
-2.1991717632
32
0.0000000000
13
-0.0000000000
23
-2.3700417597
33
0.0000000000
40
0.0000000000
40
0.0000000000
40
0.0000000000
40
0.0000000000
40
0.3541692132
40
0.6874139007
40
1.0000000000
40
1.0000000000
40
1.0000000000
40
1.0000000000
10
82.3950984955
20
79.0269461889
30
0.0000000000
10
82.2907843551
20
78.7673198779
30
0.0000000000
10
82.1137020032
20
78.2524314733
30
0.0000000000
10
81.9514275098
20
77.4770750299
30
0.0000000000
10
81.9158388265
20
76.9662012508
30
0.0000000000
10
81.9158388265
20
76.7192538812
30
0.0000000000
11
82.3950984955
21
79.0269461889
31
0.0000000000
11
82.1257074293
21
78.2319532299
31
0.0000000000
11
81.9665031302
21
77.4583615584
31
0.0000000000
11
81.9158388265
21
76.7192538812
31
0.0000000000
0
SPLINE
5
47B
100
AcDbEntity
8
0
100
AcDbSpline
62
7
6
CONTINUOUS
70
0
71
3
72
11
73
7
74
5
42
0.0000001000
43
0.0000001000
44
0.0000000001
12
-2.4617835904
22
-0.4054285696
32
0.0000000000
13
-0.4878682700
23
2.4467806036
33
0.0000000000
40
0.0000000000
40
0.0000000000
40
0.0000000000
40
0.0000000000
40
0.1183368070
40
0.3129814821
40
0.6076566231
40
1.0000000000
40
1.0000000000
40
1.0000000000
40
1.0000000000
10
64.7563186136
20
71.6547854095
30
0.0000000000
10
64.6592120770
20
71.6387930353
30
0.0000000000
10
64.3958550873
20
71.7842913733
30
0.0000000000
10
64.1693775835
20
72.2390691725
30
0.0000000000
10
63.9222223203
20
72.9307141643
30
0.0000000000
10
63.7979691502
20
73.4897475045
30
0.0000000000
10
63.7341651887
20
73.8097402260
30
0.0000000000
11
64.7563186136
21
71.6547854095
31
0.0000000000
11
64.4810366484
21
71.7615035379
31
0.0000000000
11
64.2138121215
21
72.1669975335
31
0.0000000000
11
63.9621736724
21
72.8577902708
31
0.0000000000
11
63.7341651887
21
73.8097402260
31
0.0000000000
0
SPLINE
5
47C
100
AcDbEntity
8
0
100
AcDbSpline
62
7
6
CONTINUOUS
70
0
71
3
72
11
73
7
74
5
42
0.0000001000
43
0.0000001000
44
0.0000000001
12
2.4617835904
22
-0.4054285696
32
0.0000000000
13
0.4878682700
23
2.4467806036
33
0.0000000000
40
0.0000000000
40
0.0000000000
40
0.0000000000
40
0.0000000000
40
0.1183368070
40
0.3129814821
40
0.6076566231
40
1.0000000000
40
1.0000000000
40
1.0000000000
40
1.0000000000
10
73.8563186136
20
71.6547854095
30
0.0000000000
10
73.9534251501
20
71.6387930353
30
0.0000000000
10
74.2167821398
20
71.7842913733
30
0.0000000000
10
74.4432596437
20
72.2390691725
30
0.0000000000
10
74.6904149069
20
72.9307141643
30
0.0000000000
10
74.8146680769
20
73.4897475045
30
0.0000000000
10
74.8784720384
20
73.8097402260
30
0.0000000000
11
73.8563186136
21
71.6547854095
31
0.0000000000
11
74.1316005788
21
71.7615035379
31
0.0000000000
11
74.3988251056
21
72.1669975335
31
0.0000000000
11
74.6504635547
21
72.8577902708
31
0.0000000000
11
74.8784720384
21
73.8097402260
31
0.0000000000
0
SPLINE
5
47D
100
AcDbEntity
8
0
100
AcDbSpline
62
7
6
CONTINUOUS
70
0
71
3
72
10
73
6
74
4
42
0.0000001000
43
0.0000001000
44
0.0000000001
12
2.2214144161
22
2.2604547931
32
0.0000000000
13
0.9975457096
23
3.0081955450
33
0.0000000000
40
0.0000000000
40
0.0000000000
40
0.0000000000
40
0.0000000000
40
0.3332893299
40
0.6660986432
40
1.0000000000
40
1.0000000000
40
1.0000000000
40
1.0000000000
10
77.8040713414
20
86.5472791470
30
0.0000000000
10
78.0508625822
20
86.7984076348
30
0.0000000000
10
78.5065900865
20
87.3388587353
30
0.0000000000
10
79.0593065345
20
88.2434625733
30
0.0000000000
10
79.3324729388
20
88.8962111165
30
0.0000000000
10
79.4435002274
20
89.2310246411
30
0.0000000000
11
77.8040713414
21
86.5472791470
31
0.0000000000
11
78.4849959821
21
87.3547966630
31
0.0000000000
11
79.0349470706
21
88.2548439643
31
0.0000000000
11
79.4435002274
21
89.2310246411
31
0.0000000000
0
SPLINE
5
47E
100
AcDbEntity
8
0
100
AcDbSpline
62
7
6
CONTINUOUS
70
0
71
3
72
10
73
6
74
4
42
0.0000001000
43
0.0000001000
44
0.0000000001
12
0.0000000000
22
-1.0337041433
32
0.0000000000
13
-0.3655266839
23
-0.9669201101
33
0.0000000000
40
0.0000000000
40
0.0000000000
40
0.0000000000
40
0.0000000000
40
0.3298956116
40
0.6654369862
40
1.0000000000
40
1.0000000000
40
1.0000000000
40
1.0000000000
10
56.8030232969
20
81.5269461889
30
0.0000000000
10
56.8030232969
20
81.4132747020
30
0.0000000000
10
56.7890014397
20
81.1837370954
30
0.0000000000
10
56.7260768036
20
80.8441685059
30
0.0000000000
10
56.6568696905
20
80.6232171606
30
0.0000000000
10
56.6161057875
20
80.5153852586
30
0.0000000000
11
56.8030232969
21
81.5269461889
31
0.0000000000
11
56.7822754193
21
81.1865634808
31
0.0000000000
11
56.7192352265
21
80.8454898674
31
0.0000000000
11
56.6161057875
21
80.5153852586
31
0.0000000000
0
SPLINE
5
47F
100
AcDbEntity
8
0
100
AcDbSpline
62
7
6
CONTINUOUS
70
0
71
3
72
19
73
15
74
13
42
0.0000001000
43
0.0000001000
44
0.0000000001
12
0.0000000000
22
-8.7325350704
32
0.0000000000
13
8.0339424741
23
-3.4224168474
33
0.0000000000
40
0.0000000000
40
0.0000000000
40
0.0000000000
40
0.0000000000
40
0.1459498695
40
0.2760901012
40
0.3907717849
40
0.4921126596
40
0.5811326590
40
0.6599542200
40
0.7298428760
40
0.7910350272
40
0.8457239759
40
0.8969646355
40
0.9477853813
40
1.0000000000
40
1.0000000000
40
1.0000000000
40
1.0000000000
10
60.8937037052
20
81.5269461889
30
0.0000000000
10
60.8937037052
20
81.1021087377
30
0.0000000000
10
60.9082496795
20
80.2983556980
30
0.0000000000
10
60.9736795044
20
79.1624307419
30
0.0000000000
10
61.0801295620
20
78.1599463290
30
0.0000000000
10
61.2288526703
20
77.2838086556
30
0.0000000000
10
61.4222205007
20
76.5233884522
30
0.0000000000
10
61.6608311815
20
75.8722610401
30
0.0000000000
10
61.9411772525
20
75.3273423336
30
0.0000000000
10
62.2536055186
20
74.8837904678
30
0.0000000000
10
62.5876962965
20
74.5281028224
30
0.0000000000
10
62.9425000263
20
74.2392454113
30
0.0000000000
10
63.3237001251
20
74.0000032739
30
0.0000000000
10
63.5943354410
20
73.8693069563
30
0.0000000000
10
63.7341651887
20
73.8097402260
30
0.0000000000
11
60.8937037052
21
81.5269461889
31
0.0000000000
11
60.9179361444
21
80.2526642231
31
0.0000000000
11
60.9859581998
21
79.1182476302
31
0.0000000000
11
61.0951929029
21
78.1227610324
31
0.0000000000
11
61.2473115568
21
77.2509703629
31
0.0000000000
11
61.4430192998
21
76.4986386474
31
0.0000000000
11
61.6836632819
21
75.8537635070
31
0.0000000000
11
61.9656927244
21
75.3125318037
31
0.0000000000
11
62.2747950093
21
74.8766428586
31
0.0000000000
11
62.6020552224
21
74.5288255519
31
0.0000000000
11
62.9487860440
21
74.2459846854
31
0.0000000000
11
63.3241596070
21
74.0092406176
31
0.0000000000
11
63.7341651887
21
73.8097402260
31
0.0000000000
0
SPLINE
5
480
100
AcDbEntity
8
0
100
AcDbSpline
62
7
6
CONTINUOUS
70
0
71
3
72
10
73
6
74
4
42
0.0000001000
43
0.0000001000
44
0.0000000001
12
0.6135876506
22
-0.7312452870
32
0.0000000000
13
0.2053386501
23
0.9322261064
33
0.0000000000
40
0.0000000000
40
0.0000000000
40
0.0000000000
40
0.0000000000
40
0.1665482707
40
0.4568239979
40
1.0000000000
40
1.0000000000
40
1.0000000000
40
1.0000000000
10
46.3063186136
20
74.0269461889
30
0.0000000000
10
46.3403826009
20
73.9863503095
30
0.0000000000
10
46.5284072359
20
73.9432948946
30
0.0000000000
10
46.6410987693
20
74.3239930108
30
0.0000000000
10
46.7165645622
20
74.5456020641
30
0.0000000000
10
46.7537429046
20
74.7143896806
30
0.0000000000
11
46.3063186136
21
74.0269461889
31
0.0000000000
11
46.4593329747
21
73.9837949296
31
0.0000000000
11
46.6103601973
21
74.2161078358
31
0.0000000000
11
46.7537429046
21
74.7143896806
31
0.0000000000
0
SPLINE
5
481
100
AcDbEntity
8
0
100
AcDbSpline
62
7
6
CONTINUOUS
70
0
71
3
72
9
73
5
74
3
42
0.0000001000
43
0.0000001000
44
0.0000000001
12
0.2099735184
22
-0.8138846203
32
0.0000000000
13
0.0000000000
23
-0.8405337909
33
0.0000000000
40
0.0000000000
40
0.0000000000
40
0.0000000000
40
0.0000000000
40
0.5049644898
40
1.0000000000
40
1.0000000000
40
1.0000000000
40
1.0000000000
10
56.6967984007
20
82.3590485022
30
0.0000000000
10
56.7321414575
20
82.2220542248
30
0.0000000000
10
56.7852610543
20
81.9460983643
30
0.0000000000
10
56.8030232969
20
81.6656442135
30
0.0000000000
10
56.8030232969
20
81.5269461889
30
0.0000000000
11
56.6967984007
21
82.3590485022
31
0.0000000000
11
56.7767727365
21
81.9422113890
31
0.0000000000
11
56.8030232969
21
81.5269461889
31
0.0000000000
0
SPLINE
5
482
100
AcDbEntity
8
0
100
AcDbSpline
62
7
6
CONTINUOUS
70
0
71
3
72
9
73
5
74
3
42
0.0000001000
43
0.0000001000
44
0.0000000001
12
0.1572207638
22
-4.0183602308
32
0.0000000000
13
0.0000000000
23
-4.0214347332
33
0.0000000000
40
0.0000000000
40
0.0000000000
40
0.0000000000
40
0.0000000000
40
0.5066793438
40
1.0000000000
40
1.0000000000
40
1.0000000000
40
1.0000000000
10
60.8085658857
20
86.5472791470
30
0.0000000000
10
60.8351193902
20
85.8686057721
30
0.0000000000
10
60.8783496473
20
84.5287510806
30
0.0000000000
10
60.8937037052
20
83.1882317960
30
0.0000000000
10
60.8937037052
20
82.5269461889
30
0.0000000000
11
60.8085658857
21
86.5472791470
31
0.0000000000
11
60.8717706586
21
84.5106817634
31
0.0000000000
11
60.8937037052
21
82.5269461889
31
0.0000000000
0
SPLINE
5
483
100
AcDbEntity
8
0
100
AcDbSpline
62
7
6
CONTINUOUS
70
0
71
3
72
11
73
7
74
5
42
0.0000001000
43
0.0000001000
44
0.0000000001
12
1.4293886603
22
0.6353027709
32
0.0000000000
13
1.5454130355
23
0.2417852407
33
0.0000000000
40
0.0000000000
40
0.0000000000
40
0.0000000000
40
0.0000000000
40
0.3398065448
40
0.6239019804
40
0.8447221839
40
1.0000000000
40
1.0000000000
40
1.0000000000
40
1.0000000000
10
76.3766278306
20
85.9134126011
30
0.0000000000
10
76.5385330379
20
85.9853726143
30
0.0000000000
10
76.8325381193
20
86.1246394430
30
0.0000000000
10
77.2264690616
20
86.3222352774
30
0.0000000000
10
77.5373017306
20
86.4686495415
30
0.0000000000
10
77.7240818877
20
86.5347645190
30
0.0000000000
10
77.8040713414
20
86.5472791470
30
0.0000000000
11
76.3766278306
21
85.9134126011
31
0.0000000000
11
76.8578857730
21
86.1390553489
31
0.0000000000
11
77.2566926843
21
86.3350954014
31
0.0000000000
11
77.5715061742
21
86.4772234509
31
0.0000000000
11
77.8040713414
21
86.5472791470
31
0.0000000000
0
SPLINE
5
484
100
AcDbEntity
8
0
100
AcDbSpline
62
9
6
CONTINUOUS
70
0
71
3
72
13
73
9
74
7
42
0.0000001000
43
0.0000001000
44
0.0000000001
12
0.0000932575
22
4.2006861382
32
0.0000000000
13
2.9175168489
23
-3.0222275686
33
0.0000000000
40
0.0000000000
40
0.0000000000
40
0.0000000000
40
0.0000000000
40
0.0556672131
40
0.1120663650
40
0.2217124427
40
0.3991721734
40
0.6532741055
40
1.0000000000
40
1.0000000000
40
1.0000000000
40
1.0000000000
10
42.8063186136
20
96.7652178649
30
0.0000000000
10
42.8063203440
20
96.8431646949
30
0.0000000000
10
42.8449316612
20
97.0406124906
30
0.0000000000
10
43.2184924967
20
97.0081952820
30
0.0000000000
10
43.6039747883
20
96.7471920490
30
0.0000000000
10
44.2148476327
20
96.2834530486
30
0.0000000000
10
45.0099742826
20
95.5418721896
30
0.0000000000
10
45.6024765056
20
94.9430743469
30
0.0000000000
10
45.9396693852
20
94.5937794946
30
0.0000000000
11
42.8063186136
21
96.7652178649
31
0.0000000000
11
42.8817425688
21
96.9865605898
31
0.0000000000
11
43.1179981851
21
97.0042259596
31
0.0000000000
11
43.5281470631
21
96.7946552017
31
0.0000000000
11
44.1205256766
21
96.3421210004
31
0.0000000000
11
44.9115320590
21
95.6254223718
31
0.0000000000
11
45.9396693852
21
94.5937794946
31
0.0000000000
0
SPLINE
5
485
100
AcDbEntity
8
0
100
AcDbSpline
62
7
6
CONTINUOUS
70
0
71
3
72
9
73
5
74
3
42
0.0000001000
43
0.0000001000
44
0.0000000001
12
-0.5491426731
22
2.0346531401
32
0.0000000000
13
-0.0002538588
23
2.1074560521
33
0.0000000000
40
0.0000000000
40
0.0000000000
40
0.0000000000
40
0.0000000000
40
0.5223210290
40
1.0000000000
40
1.0000000000
40
1.0000000000
40
1.0000000000
10
46.2298517067
20
92.5148987749
30
0.0000000000
10
46.1342421180
20
92.8691461488
30
0.0000000000
10
45.9907334435
20
93.5589787501
30
0.0000000000
10
45.9396876749
20
94.2620925513
30
0.0000000000
10
45.9396472540
20
94.5976550308
30
0.0000000000
11
46.2298517067
21
92.5148987749
31
0.0000000000
11
46.0095525822
21
93.5933976642
31
0.0000000000
11
45.9396472540
21
94.5976550308
31
0.0000000000
0
SPLINE
5
486
100
AcDbEntity
8
0
100
AcDbSpline
62
9
6
CONTINUOUS
70
0
71
3
72
9
73
5
74
3
42
0.0000001000
43
0.0000001000
44
0.0000000001
12
-0.6306356353
22
1.4143125595
32
0.0000000000
13
0.0447744986
23
1.5478942356
33
0.0000000000
40
0.0000000000
40
0.0000000000
40
0.0000000000
40
0.0000000000
40
0.4879713039
40
1.0000000000
40
1.0000000000
40
1.0000000000
40
1.0000000000
10
46.5123182410
20
91.0022817739
30
0.0000000000
10
46.4097408766
20
91.2323297552
30
0.0000000000
10
46.2577989674
20
91.7314182483
30
0.0000000000
10
46.2222097639
20
92.2507100192
30
0.0000000000
10
46.2298517067
20
92.5148987749
30
0.0000000000
11
46.5123182410
21
91.0022817739
31
0.0000000000
11
46.2891597336
21
91.7242222042
31
0.0000000000
11
46.2298517067
21
92.5148987749
31
0.0000000000
0
SPLINE
5
487
100
AcDbEntity
8
0
100
AcDbSpline
62
9
6
CONTINUOUS
70
0
71
3
72
13
73
9
74
7
42
0.0000001000
43
0.0000001000
44
0.0000000001
12
-0.5282046333
22
4.5490306728
32
0.0000000000
13
2.6896735827
23
-3.7065261654
33
0.0000000000
40
0.0000000000
40
0.0000000000
40
0.0000000000
40
0.0000000000
40
0.0723976559
40
0.1146597500
40
0.2074005810
40
0.3762271897
40
0.6332447082
40
1.0000000000
40
1.0000000000
40
1.0000000000
40
1.0000000000
10
43.6477140416
20
93.6317843847
30
0.0000000000
10
43.6349671159
20
93.7415641039
30
0.0000000000
10
43.5815261756
20
93.9684293004
30
0.0000000000
10
43.9484607630
20
94.0818587034
30
0.0000000000
10
44.2993602383
20
93.6952286569
30
0.0000000000
10
44.8542180998
20
93.1787402358
30
0.0000000000
10
45.6131367699
20
92.2095423989
30
0.0000000000
10
46.1832278841
20
91.4552583251
30
0.0000000000
10
46.5120452240
20
91.0021289633
30
0.0000000000
11
43.6477140416
21
93.6317843847
31
0.0000000000
11
43.6696619168
21
93.9626090037
31
0.0000000000
11
43.8510264508
21
94.0301803501
31
0.0000000000
11
44.2086928934
21
93.8011435888
31
0.0000000000
11
44.7523328104
21
93.2513910443
31
0.0000000000
11
45.5034485624
21
92.3451689208
31
0.0000000000
11
46.5120452240
21
91.0021289633
31
0.0000000000
0
SPLINE
5
488
100
AcDbEntity
8
0
100
AcDbSpline
62
9
6
CONTINUOUS
70
0
71
3
72
9
73
5
74
3
42
0.0000001000
43
0.0000001000
44
0.0000000001
12
0.6444500726
22
-0.7454054659
32
0.0000000000
13
0.4781159373
23
-0.8615975599
33
0.0000000000
40
0.0000000000
40
0.0000000000
40
0.0000000000
40
0.0000000000
40
0.4945754813
40
1.0000000000
40
1.0000000000
40
1.0000000000
40
1.0000000000
10
46.5123165333
20
91.0022856038
30
0.0000000000
10
46.6185596016
20
90.8793991815
30
0.0000000000
10
46.8195417180
20
90.6187154194
30
0.0000000000
10
46.9928453623
20
90.3390038106
30
0.0000000000
10
47.0733958681
20
90.1938463000
30
0.0000000000
11
46.5123165333
21
91.0022856038
31
0.0000000000
11
46.8105909654
21
90.6168892826
31
0.0000000000
11
47.0733958681
21
90.1938463000
31
0.0000000000
0
SPLINE
5
489
100
AcDbEntity
8
0
100
AcDbSpline
62
7
6
CONTINUOUS
70
0
71
3
72
10
73
6
74
4
42
0.0000001000
43
0.0000001000
44
0.0000000001
12
-0.9374716703
22
2.2865475907
32
0.0000000000
13
-0.6439922446
23
2.3858807610
33
0.0000000000
40
0.0000000000
40
0.0000000000
40
0.0000000000
40
0.0000000000
40
0.3070873483
40
0.6393819731
40
1.0000000000
40
1.0000000000
40
1.0000000000
40
1.0000000000
10
47.0734426663
20
90.1937321590
30
0.0000000000
10
46.9774807699
20
90.4277887712
30
0.0000000000
10
46.7758081959
20
90.9143552450
30
0.0000000000
10
46.4804419613
20
91.6835109453
30
0.0000000000
10
46.3072634442
20
92.2281015707
30
0.0000000000
10
46.2298517067
20
92.5148987749
30
0.0000000000
11
47.0734426663
21
90.1937321590
31
0.0000000000
11
46.7867164630
21
90.8963762607
31
0.0000000000
11
46.4960485325
21
91.6644011730
31
0.0000000000
11
46.2298517067
21
92.5148987749
31
0.0000000000
0
SPLINE
5
48A
100
AcDbEntity
8
0
100
AcDbSpline
62
9
6
CONTINUOUS
70
0
71
3
72
9
73
5
74
3
42
0.0000001000
43
0.0000001000
44
0.0000000001
12
-0.3343548278
22
-0.1799254607
32
0.0000000000
13
-0.3361574915
23
-0.1765345950
33
0.0000000000
40
0.0000000000
40
0.0000000000
40
0.0000000000
40
0.0000000000
40
0.5082320374
40
1.0000000000
40
1.0000000000
40
1.0000000000
40
1.0000000000
10
64.0694511745
20
83.8079422800
30
0.0000000000
10
64.0128078960
20
83.7774609855
30
0.0000000000
10
63.9012057908
20
83.7177647362
30
0.0000000000
10
63.7892690170
20
83.6586988285
30
0.0000000000
10
63.7341651887
20
83.6297608092
30
0.0000000000
11
64.0694511745
21
83.8079422800
31
0.0000000000
11
63.8992819205
21
83.7169447098
31
0.0000000000
11
63.7341651887
21
83.6297608092
31
0.0000000000
0
SPLINE
5
48B
100
AcDbEntity
8
0
100
AcDbSpline
62
7
6
CONTINUOUS
70
0
71
3
72
13
73
9
74
7
42
0.0000001000
43
0.0000001000
44
0.0000000001
12
2.6387959539
22
-1.1727790682
32
0.0000000000
13
-0.0000434897
23
-2.8876729087
33
0.0000000000
40
0.0000000000
40
0.0000000000
40
0.0000000000
40
0.0000000000
40
0.1588275484
40
0.3232320595
40
0.4879788106
40
0.6561751002
40
0.8283857172
40
1.0000000000
40
1.0000000000
40
1.0000000000
40
1.0000000000
10
62.2360093966
20
85.9134126011
30
0.0000000000
10
62.3757138939
20
85.8513227264
30
0.0000000000
10
62.6498749012
20
85.7003874698
30
0.0000000000
10
63.0158713547
20
85.4017175610
30
0.0000000000
10
63.3243531064
20
85.0316803290
30
0.0000000000
10
63.5578531037
20
84.6014310197
30
0.0000000000
10
63.7023049455
20
84.1268160933
30
0.0000000000
10
63.7341676765
20
83.7949072816
30
0.0000000000
10
63.7341651887
20
83.6297186432
30
0.0000000000
11
62.2360093966
21
85.9134126011
31
0.0000000000
11
62.6374837603
21
85.6916676409
31
0.0000000000
11
63.0049582549
21
85.3910903789
31
0.0000000000
11
63.3093318766
21
85.0254673059
31
0.0000000000
11
63.5410288499
21
84.5985984856
31
0.0000000000
11
63.6861322887
21
84.1229512626
31
0.0000000000
11
63.7341651887
21
83.6297186432
31
0.0000000000
0
SPLINE
5
48C
100
AcDbEntity
8
0
100
AcDbSpline
62
9
6
CONTINUOUS
70
0
71
3
72
10
73
6
74
4
42
0.0000001000
43
0.0000001000
44
0.0000000001
12
-1.0420546360
22
-0.8609697741
32
0.0000000000
13
-1.1035582522
23
-0.7805805533
33
0.0000000000
40
0.0000000000
40
0.0000000000
40
0.0000000000
40
0.0000000000
40
0.3574000274
40
0.6907140418
40
1.0000000000
40
1.0000000000
40
1.0000000000
40
1.0000000000
10
63.3109185430
20
86.7324296551
30
0.0000000000
10
63.1867750912
20
86.6298594482
30
0.0000000000
10
62.9436406241
20
86.4354997755
30
0.0000000000
10
62.5844762358
20
86.1633737108
30
0.0000000000
10
62.3496657991
20
85.9939298357
30
0.0000000000
10
62.2358941086
20
85.9134556342
30
0.0000000000
11
63.3109185430
21
86.7324296551
31
0.0000000000
11
62.9338381540
21
86.4304353238
31
0.0000000000
11
62.5747669617
21
86.1582944411
31
0.0000000000
11
62.2358941086
21
85.9134556342
31
0.0000000000
0
SPLINE
5
48D
100
AcDbEntity
8
0
100
AcDbSpline
62
7
6
CONTINUOUS
70
0
71
3
72
10
73
6
74
4
42
0.0000001000
43
0.0000001000
44
0.0000000001
12
0.2116580787
22
0.6382754025
32
0.0000000000
13
0.2148085601
23
0.6372220290
33
0.0000000000
40
0.0000000000
40
0.0000000000
40
0.0000000000
40
0.0000000000
40
0.3344936666
40
0.6678359767
40
1.0000000000
40
1.0000000000
40
1.0000000000
40
1.0000000000
10
79.4435002274
20
89.2310246411
30
0.0000000000
10
79.4670996564
20
89.3021910010
30
0.0000000000
10
79.5143328786
20
89.4442404595
30
0.0000000000
10
79.5854075495
20
89.6568252190
30
0.0000000000
10
79.6329418842
20
89.7982233994
30
0.0000000000
10
79.6567257760
20
89.8687774771
30
0.0000000000
11
79.4435002274
21
89.2310246411
31
0.0000000000
11
79.5144727602
21
89.4444658603
31
0.0000000000
11
79.5855499257
21
89.6570560545
31
0.0000000000
11
79.6567257760
21
89.8687774771
31
0.0000000000
0
SPLINE
5
48E
100
AcDbEntity
8
0
100
AcDbSpline
62
7
6
CONTINUOUS
70
0
71
3
72
10
73
6
74
4
42
0.0000001000
43
0.0000001000
44
0.0000000001
12
-0.6135876506
22
-0.7312452870
32
0.0000000000
13
-0.2053386501
23
0.9322261064
33
0.0000000000
40
0.0000000000
40
0.0000000000
40
0.0000000000
40
0.0000000000
40
0.1665482707
40
0.4568239979
40
1.0000000000
40
1.0000000000
40
1.0000000000
40
1.0000000000
10
92.3063186136
20
74.0269461889
30
0.0000000000
10
92.2722546262
20
73.9863503095
30
0.0000000000
10
92.0842299912
20
73.9432948946
30
0.0000000000
10
91.9715384578
20
74.3239930108
30
0.0000000000
10
91.8960726649
20
74.5456020641
30
0.0000000000
10
91.8588943226
20
74.7143896806
30
0.0000000000
11
92.3063186136
21
74.0269461889
31
0.0000000000
11
92.1533042525
21
73.9837949296
31
0.0000000000
11
92.0022770298
21
74.2161078358
31
0.0000000000
11
91.8588943226
21
74.7143896806
31
0.0000000000
0
SPLINE
5
48F
100
AcDbEntity
8
0
100
AcDbSpline
62
7
6
CONTINUOUS
70
0
71
3
72
12
73
8
74
6
42
0.0000001000
43
0.0000001000
44
0.0000000001
12
-0.0000000000
22
6.1560210533
32
0.0000000000
13
2.8671794589
23
5.4475569900
33
0.0000000000
40
0.0000000000
40
0.0000000000
40
0.0000000000
40
0.0000000000
40
0.1393461184
40
0.3062166935
40
0.5035644647
40
0.7340519512
40
1.0000000000
40
1.0000000000
40
1.0000000000
40
1.0000000000
10
88.1108204577
20
70.9263449869
30
0.0000000000
10
88.1108204577
20
71.2122841998
30
0.0000000000
10
88.1732472018
20
71.8406357232
30
0.0000000000
10
88.4053963832
20
72.8492000977
30
0.0000000000
10
88.7913794475
20
74.0085262463
30
0.0000000000
10
89.3418197538
20
75.3225547865
30
0.0000000000
10
89.7936182786
20
76.2363314971
30
0.0000000000
10
90.0477918728
20
76.7192538812
30
0.0000000000
11
88.1108204577
21
70.9263449869
31
0.0000000000
11
88.1839417637
21
71.7810404741
31
0.0000000000
11
88.4057208385
21
72.7840731901
31
0.0000000000
11
88.7830116758
21
73.9388795950
31
0.0000000000
11
89.3261735318
21
75.2496855175
31
0.0000000000
11
90.0477918728
21
76.7192538812
31
0.0000000000
0
SPLINE
5
490
100
AcDbEntity
8
0
100
AcDbSpline
62
9
6
CONTINUOUS
70
0
71
3
72
13
73
9
74
7
42
0.0000001000
43
0.0000001000
44
0.0000000001
12
-0.0000932549
22
4.2006861382
32
0.0000000000
13
-2.9175168489
23
-3.0222275686
33
0.0000000000
40
0.0000000000
40
0.0000000000
40
0.0000000000
40
0.0000000000
40
0.0556672131
40
0.1120663650
40
0.2217124427
40
0.3991721734
40
0.6532741055
40
1.0000000000
40
1.0000000000
40
1.0000000000
40
1.0000000000
10
95.8063186136
20
96.7652178649
30
0.0000000000
10
95.8063168832
20
96.8431646949
30
0.0000000000
10
95.7677055659
20
97.0406124906
30
0.0000000000
10
95.3941447305
20
97.0081952820
30
0.0000000000
10
95.0086624389
20
96.7471920490
30
0.0000000000
10
94.3977895944
20
96.2834530486
30
0.0000000000
10
93.6026629446
20
95.5418721896
30
0.0000000000
10
93.0101607216
20
94.9430743469
30
0.0000000000
10
92.6729678419
20
94.5937794946
30
0.0000000000
11
95.8063186136
21
96.7652178649
31
0.0000000000
11
95.7308946584
21
96.9865605898
31
0.0000000000
11
95.4946390421
21
97.0042259596
31
0.0000000000
11
95.0844901640
21
96.7946552017
31
0.0000000000
11
94.4921115505
21
96.3421210004
31
0.0000000000
11
93.7011051682
21
95.6254223718
31
0.0000000000
11
92.6729678419
21
94.5937794946
31
0.0000000000
0
SPLINE
5
491
100
AcDbEntity
8
0
100
AcDbSpline
62
7
6
CONTINUOUS
70
0
71
3
72
17
73
13
74
11
42
0.0000001000
43
0.0000001000
44
0.0000000001
12
36.1259769868
22
5.4142264896
32
0.0000000000
13
36.1259769868
23
-5.4142264896
33
0.0000000000
40
0.0000000000
40
0.0000000000
40
0.0000000000
40
0.0000000000
40
0.0862862338
40
0.1816034272
40
0.2838381926
40
0.3907454751
40
0.5000000000
40
0.6092545249
40
0.7161618074
40
0.8183965728
40
0.9137137662
40
1.0000000000
40
1.0000000000
40
1.0000000000
40
1.0000000000
10
51.0924691288
20
110.5756129340
30
0.0000000000
10
52.1315272942
20
110.7313373382
30
0.0000000000
10
54.3260978346
20
111.0082992453
30
0.0000000000
10
57.7683897483
20
111.3229924951
30
0.0000000000
10
61.4689769209
20
111.5529114475
30
0.0000000000
10
65.3437942132
20
111.6929123353
30
0.0000000000
10
69.3063186136
20
111.7399141316
30
0.0000000000
10
73.2688430139
20
111.6929123353
30
0.0000000000
10
77.1436603062
20
111.5529114475
30
0.0000000000
10
80.8442474789
20
111.3229924951
30
0.0000000000
10
84.2865393925
20
111.0082992453
30
0.0000000000
10
86.4811099330
20
110.7313373382
30
0.0000000000
10
87.5201680984
20
110.5756129340
30
0.0000000000
11
51.0924691288
21
110.5756129340
31
0.0000000000
11
54.2187369193
21
110.9774553806
31
0.0000000000
11
57.6857360113
21
111.2990639494
31
0.0000000000
11
61.4129419000
21
111.5336173954
31
0.0000000000
11
65.3155989340
21
111.6762683614
31
0.0000000000
11
69.3063186136
21
111.7241338575
31
0.0000000000
11
73.2970382932
21
111.6762683614
31
0.0000000000
11
77.1996953271
21
111.5336173954
31
0.0000000000
11
80.9269012159
21
111.2990639494
31
0.0000000000
11
84.3939003079
21
110.9774553806
31
0.0000000000
11
87.5201680984
21
110.5756129340
31
0.0000000000
0
SPLINE
5
492
100
AcDbEntity
8
0
100
AcDbSpline
62
7
6
CONTINUOUS
70
0
71
3
72
15
73
11
74
9
42
0.0000001000
43
0.0000001000
44
0.0000000001
12
13.8694293240
22
-1.6883517163
32
0.0000000000
13
6.0030327823
23
-12.6164653809
33
0.0000000000
40
0.0000000000
40
0.0000000000
40
0.0000000000
40
0.0000000000
40
0.1214580460
40
0.2412987733
40
0.3592326676
40
0.4776672180
40
0.5994049964
40
0.7267023208
40
0.8603769044
40
1.0000000000
40
1.0000000000
40
1.0000000000
40
1.0000000000
10
69.3063170175
20
110.5756129340
30
0.0000000000
10
69.8678349459
20
110.5072583005
30
0.0000000000
10
70.9760834093
20
110.3008519661
30
0.0000000000
10
72.5739108359
20
109.7914141602
30
0.0000000000
10
74.0851736009
20
109.0973158481
30
0.0000000000
10
75.5094745384
20
108.2219088255
30
0.0000000000
10
76.8512954488
20
107.1527237124
30
0.0000000000
10
78.0990709103
20
105.8731246108
30
0.0000000000
10
79.2211442588
20
104.3761417463
30
0.0000000000
10
79.8446243567
20
103.2612895264
30
0.0000000000
10
80.1240116967
20
102.6741062092
30
0.0000000000
11
69.3063170175
21
110.5756129340
31
0.0000000000
11
70.9746493843
21
110.2650653971
31
0.0000000000
11
72.5699941635
21
109.7566708725
31
0.0000000000
11
74.0674379315
21
109.0691071540
31
0.0000000000
11
75.4773089677
21
108.2028239602
31
0.0000000000
11
76.8077176825
21
107.1430761119
31
0.0000000000
11
78.0497558782
21
105.8700212213
31
0.0000000000
11
79.1705034341
21
104.3759862861
31
0.0000000000
11
80.1240116967
21
102.6741062092
31
0.0000000000
0
SPLINE
5
493
100
AcDbEntity
8
0
100
AcDbSpline
62
7
6
CONTINUOUS
70
0
71
3
72
19
73
15
74
13
42
0.0000001000
43
0.0000001000
44
0.0000000001
12
0.0000000000
22
-8.7325350704
32
0.0000000000
13
-8.0339424741
23
-3.4224168474
33
0.0000000000
40
0.0000000000
40
0.0000000000
40
0.0000000000
40
0.0000000000
40
0.1459498695
40
0.2760901012
40
0.3907717849
40
0.4921126596
40
0.5811326590
40
0.6599542200
40
0.7298428760
40
0.7910350272
40
0.8457239759
40
0.8969646355
40
0.9477853813
40
1.0000000000
40
1.0000000000
40
1.0000000000
40
1.0000000000
10
77.7189335219
20
81.5269461889
30
0.0000000000
10
77.7189335219
20
81.1021087377
30
0.0000000000
10
77.7043875476
20
80.2983556980
30
0.0000000000
10
77.6389577227
20
79.1624307419
30
0.0000000000
10
77.5325076651
20
78.1599463290
30
0.0000000000
10
77.3837845569
20
77.2838086556
30
0.0000000000
10
77.1904167264
20
76.5233884522
30
0.0000000000
10
76.9518060456
20
75.8722610401
30
0.0000000000
10
76.6714599746
20
75.3273423336
30
0.0000000000
10
76.3590317085
20
74.8837904678
30
0.0000000000
10
76.0249409307
20
74.5281028224
30
0.0000000000
10
75.6701372008
20
74.2392454113
30
0.0000000000
10
75.2889371020
20
74.0000032739
30
0.0000000000
10
75.0183017861
20
73.8693069563
30
0.0000000000
10
74.8784720384
20
73.8097402260
30
0.0000000000
11
77.7189335219
21
81.5269461889
31
0.0000000000
11
77.6947010827
21
80.2526642231
31
0.0000000000
11
77.6266790274
21
79.1182476302
31
0.0000000000
11
77.5174443243
21
78.1227610324
31
0.0000000000
11
77.3653256703
21
77.2509703629
31
0.0000000000
11
77.1696179274
21
76.4986386474
31
0.0000000000
11
76.9289739452
21
75.8537635070
31
0.0000000000
11
76.6469445028
21
75.3125318037
31
0.0000000000
11
76.3378422179
21
74.8766428586
31
0.0000000000
11
76.0105820048
21
74.5288255519
31
0.0000000000
11
75.6638511831
21
74.2459846854
31
0.0000000000
11
75.2884776202
21
74.0092406176
31
0.0000000000
11
74.8784720384
21
73.8097402260
31
0.0000000000
0
SPLINE
5
494
100
AcDbEntity
8
0
100
AcDbSpline
62
7
6
CONTINUOUS
70
0
71
3
72
9
73
5
74
3
42
0.0000001000
43
0.0000001000
44
0.0000000001
12
-0.1572207638
22
-4.0183602308
32
0.0000000000
13
0.0000000000
23
-4.0214347332
33
0.0000000000
40
0.0000000000
40
0.0000000000
40
0.0000000000
40
0.0000000000
40
0.5066793438
40
1.0000000000
40
1.0000000000
40
1.0000000000
40
1.0000000000
10
77.8040713414
20
86.5472791470
30
0.0000000000
10
77.7775178369
20
85.8686057721
30
0.0000000000
10
77.7342875799
20
84.5287510806
30
0.0000000000
10
77.7189335219
20
83.1882317960
30
0.0000000000
10
77.7189335219
20
82.5269461889
30
0.0000000000
11
77.8040713414
21
86.5472791470
31
0.0000000000
11
77.7408665685
21
84.5106817634
31
0.0000000000
11
77.7189335219
21
82.5269461889
31
0.0000000000
0
SPLINE
5
495
100
AcDbEntity
8
0
100
AcDbSpline
62
9
6
CONTINUOUS
70
0
71
3
72
13
73
9
74
7
42
0.0000001000
43
0.0000001000
44
0.0000000001
12
0.5282046333
22
4.5490306728
32
0.0000000000
13
-2.6896735827
23
-3.7065261654
33
0.0000000000
40
0.0000000000
40
0.0000000000
40
0.0000000000
40
0.0000000000
40
0.0723976559
40
0.1146597500
40
0.2074005810
40
0.3762271897
40
0.6332447082
40
1.0000000000
40
1.0000000000
40
1.0000000000
40
1.0000000000
10
94.9649231855
20
93.6317843847
30
0.0000000000
10
94.9776701113
20
93.7415641039
30
0.0000000000
10
95.0311110515
20
93.9684293004
30
0.0000000000
10
94.6641764641
20
94.0818587034
30
0.0000000000
10
94.3132769889
20
93.6952286569
30
0.0000000000
10
93.7584191273
20
93.1787402358
30
0.0000000000
10
92.9995004572
20
92.2095423989
30
0.0000000000
10
92.4294093430
20
91.4552583251
30
0.0000000000
10
92.1005920031
20
91.0021289633
30
0.0000000000
11
94.9649231855
21
93.6317843847
31
0.0000000000
11
94.9429753104
21
93.9626090037
31
0.0000000000
11
94.7616107764
21
94.0301803501
31
0.0000000000
11
94.4039443337
21
93.8011435888
31
0.0000000000
11
93.8603044168
21
93.2513910443
31
0.0000000000
11
93.1091886648
21
92.3451689208
31
0.0000000000
11
92.1005920031
21
91.0021289633
31
0.0000000000
0
SPLINE
5
496
100
AcDbEntity
8
0
100
AcDbSpline
62
9
6
CONTINUOUS
70
0
71
3
72
9
73
5
74
3
42
0.0000001000
43
0.0000001000
44
0.0000000001
12
0.6306356353
22
1.4143125595
32
0.0000000000
13
-0.0447744986
23
1.5478942356
33
0.0000000000
40
0.0000000000
40
0.0000000000
40
0.0000000000
40
0.0000000000
40
0.4879713039
40
1.0000000000
40
1.0000000000
40
1.0000000000
40
1.0000000000
10
92.1003189861
20
91.0022817739
30
0.0000000000
10
92.2028963505
20
91.2323297552
30
0.0000000000
10
92.3548382598
20
91.7314182483
30
0.0000000000
10
92.3904274632
20
92.2507100192
30
0.0000000000
10
92.3827855205
20
92.5148987749
30
0.0000000000
11
92.1003189861
21
91.0022817739
31
0.0000000000
11
92.3234774935
21
91.7242222042
31
0.0000000000
11
92.3827855205
21
92.5148987749
31
0.0000000000
0
SPLINE
5
497
100
AcDbEntity
8
0
100
AcDbSpline
62
7
6
CONTINUOUS
70
0
71
3
72
9
73
5
74
3
42
0.0000001000
43
0.0000001000
44
0.0000000001
12
0.5491426731
22
2.0346531401
32
0.0000000000
13
0.0002538588
23
2.1074560521
33
0.0000000000
40
0.0000000000
40
0.0000000000
40
0.0000000000
40
0.0000000000
40
0.5223210290
40
1.0000000000
40
1.0000000000
40
1.0000000000
40
1.0000000000
10
92.3827855205
20
92.5148987749
30
0.0000000000
10
92.4783951092
20
92.8691461488
30
0.0000000000
10
92.6219037837
20
93.5589787501
30
0.0000000000
10
92.6729495522
20
94.2620925513
30
0.0000000000
10
92.6729899732
20
94.5976550308
30
0.0000000000
11
92.3827855205
21
92.5148987749
31
0.0000000000
11
92.6030846449
21
93.5933976642
31
0.0000000000
11
92.6729899732
21
94.5976550308
31
0.0000000000
0
SPLINE
5
498
100
AcDbEntity
8
0
100
AcDbSpline
62
9
6
CONTINUOUS
70
0
71
3
72
9
73
5
74
3
42
0.0000001000
43
0.0000001000
44
0.0000000001
12
-0.6444500726
22
-0.7454054659
32
0.0000000000
13
-0.4781159373
23
-0.8615975599
33
0.0000000000
40
0.0000000000
40
0.0000000000
40
0.0000000000
40
0.0000000000
40
0.4945754813
40
1.0000000000
40
1.0000000000
40
1.0000000000
40
1.0000000000
10
92.1003206938
20
91.0022856038
30
0.0000000000
10
91.9940776255
20
90.8793991815
30
0.0000000000
10
91.7930955092
20
90.6187154194
30
0.0000000000
10
91.6197918649
20
90.3390038106
30
0.0000000000
10
91.5392413590
20
90.1938463000
30
0.0000000000
11
92.1003206938
21
91.0022856038
31
0.0000000000
11
91.8020462617
21
90.6168892826
31
0.0000000000
11
91.5392413590
21
90.1938463000
31
0.0000000000
0
SPLINE
5
499
100
AcDbEntity
8
0
100
AcDbSpline
62
7
6
CONTINUOUS
70
0
71
3
72
10
73
6
74
4
42
0.0000001000
43
0.0000001000
44
0.0000000001
12
0.9374716703
22
2.2865475907
32
0.0000000000
13
0.6439922446
23
2.3858807610
33
0.0000000000
40
0.0000000000
40
0.0000000000
40
0.0000000000
40
0.0000000000
40
0.3070873483
40
0.6393819731
40
1.0000000000
40
1.0000000000
40
1.0000000000
40
1.0000000000
10
91.5391945608
20
90.1937321590
30
0.0000000000
10
91.6351564573
20
90.4277887712
30
0.0000000000
10
91.8368290313
20
90.9143552450
30
0.0000000000
10
92.1321952658
20
91.6835109453
30
0.0000000000
10
92.3053737829
20
92.2281015707
30
0.0000000000
10
92.3827855205
20
92.5148987749
30
0.0000000000
11
91.5391945608
21
90.1937321590
31
0.0000000000
11
91.8259207641
21
90.8963762607
31
0.0000000000
11
92.1165886946
21
91.6644011730
31
0.0000000000
11
92.3827855205
21
92.5148987749
31
0.0000000000
0
SPLINE
5
49A
100
AcDbEntity
8
0
100
AcDbSpline
62
7
6
CONTINUOUS
70
0
71
3
72
10
73
6
74
4
42
0.0000001000
43
0.0000001000
44
0.0000000001
12
0.0000000000
22
-2.5577373276
32
0.0000000000
13
0.8894116589
23
-2.3981174154
33
0.0000000000
40
0.0000000000
40
0.0000000000
40
0.0000000000
40
0.0000000000
40
0.3148471950
40
0.6484359716
40
1.0000000000
40
1.0000000000
40
1.0000000000
40
1.0000000000
10
81.9158388265
20
81.5269461889
30
0.0000000000
10
81.9158388265
20
81.2585140478
30
0.0000000000
10
81.9515156182
20
80.7050541819
30
0.0000000000
10
82.1137795558
20
79.8660336993
30
0.0000000000
10
82.2908701136
20
79.3079767953
30
0.0000000000
10
82.3950984955
20
79.0269461889
30
0.0000000000
11
81.9158388265
21
81.5269461889
31
0.0000000000
11
81.9668792668
21
80.7232688889
31
0.0000000000
11
82.1264882519
21
79.8850978963
31
0.0000000000
11
82.3950984955
21
79.0269461889
31
0.0000000000
0
SPLINE
5
49B
100
AcDbEntity
8
0
100
AcDbSpline
62
7
6
CONTINUOUS
70
0
71
3
72
8
73
4
74
2
42
0.0000001000
43
0.0000001000
44
0.0000000001
12
-0.6556091562
22
0.0000000000
32
0.0000000000
13
-0.6401498113
23
-0.0852534033
33
0.0000000000
40
0.0000000000
40
0.0000000000
40
0.0000000000
40
0.0000000000
40
1.0000000000
40
1.0000000000
40
1.0000000000
40
1.0000000000
10
173.7796775521
20
83.3269461889
30
0.0000000000
10
173.5611411667
20
83.3269461889
30
0.0000000000
10
173.3426047813
20
83.3124297828
30
0.0000000000
10
173.1292215109
20
83.2840119817
30
0.0000000000
11
173.7796775521
21
83.3269461889
31
0.0000000000
11
173.1292215109
21
83.2840119817
31
0.0000000000
0
SPLINE
5
49C
100
AcDbEntity
8
0
100
AcDbSpline
62
7
6
CONTINUOUS
70
0
71
3
72
8
73
4
74
2
42
0.0000001000
43
0.0000001000
44
0.0000000001
12
0.6508886181
22
-0.0882557982
32
0.0000000000
13
0.6671811006
23
0.0000000000
33
0.0000000000
40
0.0000000000
40
0.0000000000
40
0.0000000000
40
0.0000000000
40
1.0000000000
40
1.0000000000
40
1.0000000000
40
1.0000000000
10
173.1179272790
20
79.7713981656
30
0.0000000000
10
173.3348901517
20
79.7419795662
30
0.0000000000
10
173.5572838519
20
79.7269461889
30
0.0000000000
10
173.7796775521
20
79.7269461889
30
0.0000000000
11
173.1179272790
21
79.7713981656
31
0.0000000000
11
173.7796775521
21
79.7269461889
31
0.0000000000
0
SPLINE
5
49D
100
AcDbEntity
8
0
100
AcDbSpline
62
7
6
CONTINUOUS
70
0
71
3
72
8
73
4
74
2
42
0.0000001000
43
0.0000001000
44
0.0000000001
12
0.6556091562
22
0.0000000000
32
0.0000000000
13
0.6401498113
23
0.0852534033
33
0.0000000000
40
0.0000000000
40
0.0000000000
40
0.0000000000
40
0.0000000000
40
1.0000000000
40
1.0000000000
40
1.0000000000
40
1.0000000000
10
173.7796775521
20
79.7269461889
30
0.0000000000
10
173.9982139375
20
79.7269461889
30
0.0000000000
10
174.2167503229
20
79.7414625949
30
0.0000000000
10
174.4301335934
20
79.7698803960
30
0.0000000000
11
173.7796775521
21
79.7269461889
31
0.0000000000
11
174.4301335934
21
79.7698803960
31
0.0000000000
0
SPLINE
5
49E
100
AcDbEntity
8
0
100
AcDbSpline
62
7
6
CONTINUOUS
70
0
71
3
72
8
73
4
74
2
42
0.0000001000
43
0.0000001000
44
0.0000000001
12
-0.6508886181
22
0.0882557982
32
0.0000000000
13
-0.6671811006
23
0.0000000000
33
0.0000000000
40
0.0000000000
40
0.0000000000
40
0.0000000000
40
0.0000000000
40
1.0000000000
40
1.0000000000
40
1.0000000000
40
1.0000000000
10
174.4414278252
20
83.2824942121
30
0.0000000000
10
174.2244649525
20
83.3119128115
30
0.0000000000
10
174.0020712523
20
83.3269461889
30
0.0000000000
10
173.7796775521
20
83.3269461889
30
0.0000000000
11
174.4414278252
21
83.2824942121
31
0.0000000000
11
173.7796775521
21
83.3269461889
31
0.0000000000
0
SPLINE
5
49F
100
AcDbEntity
8
0
100
AcDbSpline
62
7
6
CONTINUOUS
70
0
71
3
72
15
73
11
74
9
42
0.0000001000
43
0.0000001000
44
0.0000000001
12
8.4811587282
22
0.0000000000
32
0.0000000000
13
-8.4811587282
23
0.0000000000
33
0.0000000000
40
0.0000000000
40
0.0000000000
40
0.0000000000
40
0.0000000000
40
0.1250000000
40
0.2500000000
40
0.3750000000
40
0.5000000000
40
0.6250000000
40
0.7500000000
40
0.8750000000
40
1.0000000000
40
1.0000000000
40
1.0000000000
40
1.0000000000
10
173.7796775521
20
176.1269461889
30
0.0000000000
10
174.1330591658
20
176.1269461889
30
0.0000000000
10
174.8398223931
20
176.2050483815
30
0.0000000000
10
175.7385697923
20
176.5386727221
30
0.0000000000
10
176.3390936054
20
177.0379768327
30
0.0000000000
10
176.5499695255
20
177.6269461889
30
0.0000000000
10
176.3390936054
20
178.2159155450
30
0.0000000000
10
175.7385697923
20
178.7152196557
30
0.0000000000
10
174.8398223931
20
179.0488439962
30
0.0000000000
10
174.1330591658
20
179.1269461889
30
0.0000000000
10
173.7796775521
20
179.1269461889
30
0.0000000000
11
173.7796775521
21
176.1269461889
31
0.0000000000
11
174.8129228195
21
176.2411268901
31
0.0000000000
11
175.6888658613
21
176.5662860171
31
0.0000000000
11
176.2741522899
21
177.0529210403
31
0.0000000000
11
176.4796775521
21
177.6269461889
31
0.0000000000
11
176.2741522899
21
178.2009713374
31
0.0000000000
11
175.6888658613
21
178.6876063606
31
0.0000000000
11
174.8129228195
21
179.0127654876
31
0.0000000000
11
173.7796775521
21
179.1269461889
31
0.0000000000
0
SPLINE
5
4A0
100
AcDbEntity
8
0
100
AcDbSpline
62
7
6
CONTINUOUS
70
0
71
3
72
15
73
11
74
9
42
0.0000001000
43
0.0000001000
44
0.0000000001
12
-8.4811587282
22
0.0000000000
32
0.0000000000
13
8.4811587282
23
0.0000000000
33
0.0000000000
40
0.0000000000
40
0.0000000000
40
0.0000000000
40
0.0000000000
40
0.1250000000
40
0.2500000000
40
0.3750000000
40
0.5000000000
40
0.6250000000
40
0.7500000000
40
0.8750000000
40
1.0000000000
40
1.0000000000
40
1.0000000000
40
1.0000000000
10
173.7796775521
20
179.1269461889
30
0.0000000000
10
173.4262959384
20
179.1269461889
30
0.0000000000
10
172.7195327111
20
179.0488439962
30
0.0000000000
10
171.8207853119
20
178.7152196557
30
0.0000000000
10
171.2202614988
20
178.2159155450
30
0.0000000000
10
171.0093855787
20
177.6269461889
30
0.0000000000
10
171.2202614988
20
177.0379768327
30
0.0000000000
10
171.8207853119
20
176.5386727221
30
0.0000000000
10
172.7195327111
20
176.2050483815
30
0.0000000000
10
173.4262959384
20
176.1269461889
30
0.0000000000
10
173.7796775521
20
176.1269461889
30
0.0000000000
11
173.7796775521
21
179.1269461889
31
0.0000000000
11
172.7464322847
21
179.0127654876
31
0.0000000000
11
171.8704892429
21
178.6876063606
31
0.0000000000
11
171.2852028143
21
178.2009713374
31
0.0000000000
11
171.0796775521
21
177.6269461889
31
0.0000000000
11
171.2852028143
21
177.0529210403
31
0.0000000000
11
171.8704892429
21
176.5662860171
31
0.0000000000
11
172.7464322847
21
176.2411268901
31
0.0000000000
11
173.7796775521
21
176.1269461889
31
0.0000000000
0
SPLINE
5
4A1
100
AcDbEntity
8
0
100
AcDbSpline
62
7
6
CONTINUOUS
70
0
71
3
72
11
73
7
74
5
42
0.0000001000
43
0.0000001000
44
0.0000000001
12
-4.6916704382
22
0.0000000000
32
0.0000000000
13
-0.0318034150
23
-2.8149399679
33
0.0000000000
40
0.0000000000
40
0.0000000000
40
0.0000000000
40
0.0000000000
40
0.2510702164
40
0.5021404328
40
0.7532106492
40
1.0000000000
40
1.0000000000
40
1.0000000000
40
1.0000000000
10
173.7796775521
20
179.4269461889
30
0.0000000000
10
173.3870313147
20
179.4269461889
30
0.0000000000
10
172.6017388399
20
179.3332235577
30
0.0000000000
10
171.6031306185
20
178.9328743490
30
0.0000000000
10
170.9396742390
20
178.3371147645
30
0.0000000000
10
170.7823618880
20
177.8705624822
30
0.0000000000
10
170.7797456399
20
177.6389967465
30
0.0000000000
11
173.7796775521
21
179.4269461889
31
0.0000000000
11
172.6316272550
21
179.2899293474
31
0.0000000000
11
171.6583572085
21
178.8997383950
31
0.0000000000
11
171.0080389546
21
178.3157763671
31
0.0000000000
11
170.7797456399
21
177.6389967465
31
0.0000000000
0
SPLINE
5
4A2
100
AcDbEntity
8
0
100
AcDbSpline
62
7
6
CONTINUOUS
70
0
71
3
72
12
73
8
74
6
42
0.0000001000
43
0.0000001000
44
0.0000000001
12
-0.0320757073
22
-2.8390407276
32
0.0000000000
13
4.7318392598
23
-0.0000000000
33
0.0000000000
40
0.0000000000
40
0.0000000000
40
0.0000000000
40
0.0000000000
40
0.0042445252
40
0.2531833939
40
0.5021222626
40
0.7510611313
40
1.0000000000
40
1.0000000000
40
1.0000000000
40
1.0000000000
10
170.7797456399
20
177.6389967465
30
0.0000000000
10
170.7797002579
20
177.6349799532
30
0.0000000000
10
170.7783458729
20
177.3953753286
30
0.0000000000
10
170.9358819374
20
176.9201829615
30
0.0000000000
10
171.6031306185
20
176.3210180287
30
0.0000000000
10
172.6017388399
20
175.9206688200
30
0.0000000000
10
173.3870313147
20
175.8269461889
30
0.0000000000
10
173.7796775521
20
175.8269461889
30
0.0000000000
11
170.7797456399
21
177.6389967465
31
0.0000000000
11
170.7796775521
21
177.6269461889
31
0.0000000000
11
171.0080389546
21
176.9381160106
31
0.0000000000
11
171.6583572085
21
176.3541539827
31
0.0000000000
11
172.6316272550
21
175.9639630303
31
0.0000000000
11
173.7796775521
21
175.8269461889
31
0.0000000000
0
SPLINE
5
4A3
100
AcDbEntity
8
0
100
AcDbSpline
62
7
6
CONTINUOUS
70
0
71
3
72
15
73
11
74
9
42
0.0000001000
43
0.0000001000
44
0.0000000001
12
9.4235096980
22
0.0000000000
32
0.0000000000
13
-9.4235096980
23
0.0000000000
33
0.0000000000
40
0.0000000000
40
0.0000000000
40
0.0000000000
40
0.0000000000
40
0.1250000000
40
0.2500000000
40
0.3750000000
40
0.5000000000
40
0.6250000000
40
0.7500000000
40
0.8750000000
40
1.0000000000
40
1.0000000000
40
1.0000000000
40
1.0000000000
10
173.7796775521
20
175.8269461889
30
0.0000000000
10
174.1723237895
20
175.8269461889
30
0.0000000000
10
174.9576162643
20
175.9206688200
30
0.0000000000
10
175.9562244857
20
176.3210180287
30
0.0000000000
10
176.6234731669
20
176.9201829615
30
0.0000000000
10
176.8577797447
20
177.6269461889
30
0.0000000000
10
176.6234731669
20
178.3337094162
30
0.0000000000
10
175.9562244857
20
178.9328743490
30
0.0000000000
10
174.9576162643
20
179.3332235577
30
0.0000000000
10
174.1723237895
20
179.4269461889
30
0.0000000000
10
173.7796775521
20
179.4269461889
30
0.0000000000
11
173.7796775521
21
175.8269461889
31
0.0000000000
11
174.9277278492
21
175.9639630303
31
0.0000000000
11
175.9009978957
21
176.3541539827
31
0.0000000000
11
176.5513161496
21
176.9381160106
31
0.0000000000
11
176.7796775521
21
177.6269461889
31
0.0000000000
11
176.5513161496
21
178.3157763671
31
0.0000000000
11
175.9009978957
21
178.8997383950
31
0.0000000000
11
174.9277278492
21
179.2899293474
31
0.0000000000
11
173.7796775521
21
179.4269461889
31
0.0000000000
0
SPLINE
5
4A4
100
AcDbEntity
8
0
100
AcDbSpline
62
7
6
CONTINUOUS
70
0
71
3
72
8
73
4
74
2
42
0.0000001000
43
0.0000001000
44
0.0000000001
12
-0.2907487392
22
-0.1174701158
32
0.0000000000
13
0.0000000000
23
-0.1789368031
33
0.0000000000
40
0.0000000000
40
0.0000000000
40
0.0000000000
40
0.0000000000
40
1.0000000000
40
1.0000000000
40
1.0000000000
40
1.0000000000
10
171.8992075981
20
178.2918481842
30
0.0000000000
10
171.8022913517
20
178.2526914789
30
0.0000000000
10
171.7538330973
20
178.2032902056
30
0.0000000000
10
171.7538330973
20
178.1436446045
30
0.0000000000
11
171.8992075981
21
178.2918481842
31
0.0000000000
11
171.7538330973
21
178.1436446045
31
0.0000000000
0
SPLINE
5
4A5
100
AcDbEntity
8
0
100
AcDbSpline
62
7
6
CONTINUOUS
70
0
71
3
72
8
73
4
74
2
42
0.0000001000
43
0.0000001000
44
0.0000000001
12
0.0000000000
22
-0.2634345697
32
0.0000000000
13
0.8630434773
23
-0.1456446498
33
0.0000000000
40
0.0000000000
40
0.0000000000
40
0.0000000000
40
0.0000000000
40
1.0000000000
40
1.0000000000
40
1.0000000000
40
1.0000000000
10
171.7538330973
20
178.1436446045
30
0.0000000000
10
171.7538330973
20
178.0558330813
30
0.0000000000
10
171.8975923361
20
177.9871688667
30
0.0000000000
10
172.1852734951
20
177.9386206501
30
0.0000000000
11
171.7538330973
21
178.1436446045
31
0.0000000000
11
172.1852734951
21
177.9386206501
31
0.0000000000
0
SPLINE
5
4A6
100
AcDbEntity
8
0
100
AcDbSpline
62
7
6
CONTINUOUS
70
0
71
3
72
8
73
4
74
2
42
0.0000001000
43
0.0000001000
44
0.0000000001
12
0.5470889309
22
-0.0923251005
32
0.0000000000
13
0.6687224150
23
-0.0230757750
33
0.0000000000
40
0.0000000000
40
0.0000000000
40
0.0000000000
40
0.0000000000
40
1.0000000000
40
1.0000000000
40
1.0000000000
40
1.0000000000
10
172.1852734951
20
177.9386206501
30
0.0000000000
10
172.3676364721
20
177.9078456166
30
0.0000000000
10
172.5695454062
20
177.8883559751
30
0.0000000000
10
172.7924528779
20
177.8806640501
30
0.0000000000
11
172.1852734951
21
177.9386206501
31
0.0000000000
11
172.7924528779
21
177.8806640501
31
0.0000000000
0
SPLINE
5
4A7
100
AcDbEntity
8
0
100
AcDbSpline
62
7
6
CONTINUOUS
70
0
71
3
72
8
73
4
74
2
42
0.0000001000
43
0.0000001000
44
0.0000000001
12
0.1356827974
22
-0.2657755456
32
0.0000000000
13
0.1066078842
23
-0.1781131036
33
0.0000000000
40
0.0000000000
40
0.0000000000
40
0.0000000000
40
0.0000000000
40
1.0000000000
40
1.0000000000
40
1.0000000000
40
1.0000000000
10
172.7924528779
20
177.8806640501
30
0.0000000000
10
172.8376804770
20
177.7920722016
30
0.0000000000
10
172.8796775521
20
177.7187433815
30
0.0000000000
10
172.9152135135
20
177.6593723470
30
0.0000000000
11
172.7924528779
21
177.8806640501
31
0.0000000000
11
172.9152135135
21
177.6593723470
31
0.0000000000
0
SPLINE
5
4A8
100
AcDbEntity
8
0
100
AcDbSpline
62
7
6
CONTINUOUS
70
0
71
3
72
8
73
4
74
2
42
0.0000001000
43
0.0000001000
44
0.0000000001
12
-0.7317180276
22
-0.0520804358
32
0.0000000000
13
-0.1097229506
23
-0.0033557009
33
0.0000000000
40
0.0000000000
40
0.0000000000
40
0.0000000000
40
0.0000000000
40
1.0000000000
40
1.0000000000
40
1.0000000000
40
1.0000000000
10
172.5566231788
20
177.6329551095
30
0.0000000000
10
172.3127171696
20
177.6155949642
30
0.0000000000
10
172.1721885861
20
177.6068655202
30
0.0000000000
10
172.1356142693
20
177.6057469533
30
0.0000000000
11
172.5566231788
21
177.6329551095
31
0.0000000000
11
172.1356142693
21
177.6057469533
31
0.0000000000
0
SPLINE
5
4A9
100
AcDbEntity
8
0
100
AcDbSpline
62
7
6
CONTINUOUS
70
0
71
3
72
8
73
4
74
2
42
0.0000001000
43
0.0000001000
44
0.0000000001
12
-0.3893961643
22
-0.0119090586
32
0.0000000000
13
-0.2616740227
23
0.0682432022
33
0.0000000000
40
0.0000000000
40
0.0000000000
40
0.0000000000
40
0.0000000000
40
1.0000000000
40
1.0000000000
40
1.0000000000
40
1.0000000000
10
172.1356142693
20
177.6057469533
30
0.0000000000
10
172.0058155478
20
177.6017772671
30
0.0000000000
10
171.8975923361
20
177.6110704736
30
0.0000000000
10
171.8103676618
20
177.6338182077
30
0.0000000000
11
172.1356142693
21
177.6057469533
31
0.0000000000
11
171.8103676618
21
177.6338182077
31
0.0000000000
0
SPLINE
5
4AA
100
AcDbEntity
8
0
100
AcDbSpline
62
7
6
CONTINUOUS
70
0
71
3
72
8
73
4
74
2
42
0.0000001000
43
0.0000001000
44
0.0000000001
12
0.2229073405
22
-0.0565681727
32
0.0000000000
13
0.6554293843
23
-0.1422393303
33
0.0000000000
40
0.0000000000
40
0.0000000000
40
0.0000000000
40
0.0000000000
40
1.0000000000
40
1.0000000000
40
1.0000000000
40
1.0000000000
10
171.8394426407
20
177.6082867442
30
0.0000000000
10
171.9137450875
20
177.5894306866
30
0.0000000000
10
172.0607348503
20
177.5568648548
30
0.0000000000
10
172.2792113117
20
177.5094517447
30
0.0000000000
11
171.8394426407
21
177.6082867442
31
0.0000000000
11
172.2792113117
21
177.5094517447
31
0.0000000000
0
SPLINE
5
4AB
100
AcDbEntity
8
0
100
AcDbSpline
62
7
6
CONTINUOUS
70
0
71
3
72
8
73
4
74
2
42
0.0000001000
43
0.0000001000
44
0.0000000001
12
0.5850993304
22
-0.1269765117
32
0.0000000000
13
0.0000000000
23
-0.1988183338
33
0.0000000000
40
0.0000000000
40
0.0000000000
40
0.0000000000
40
0.0000000000
40
1.0000000000
40
1.0000000000
40
1.0000000000
40
1.0000000000
10
172.2792113117
20
177.5094517447
30
0.0000000000
10
172.4742444218
20
177.4671262408
30
0.0000000000
10
172.5711606683
20
177.4135009897
30
0.0000000000
10
172.5711606683
20
177.3472282118
30
0.0000000000
11
172.2792113117
21
177.5094517447
31
0.0000000000
11
172.5711606683
21
177.3472282118
31
0.0000000000
0
SPLINE
5
4AC
100
AcDbEntity
8
0
100
AcDbSpline
62
7
6
CONTINUOUS
70
0
71
3
72
8
73
4
74
2
42
0.0000001000
43
0.0000001000
44
0.0000000001
12
0.0000000000
22
-0.0919536181
32
0.0000000000
13
-0.1647579074
23
-0.0665665155
33
0.0000000000
40
0.0000000000
40
0.0000000000
40
0.0000000000
40
0.0000000000
40
1.0000000000
40
1.0000000000
40
1.0000000000
40
1.0000000000
10
172.5711606683
20
177.3472282118
30
0.0000000000
10
172.5711606683
20
177.3165770058
30
0.0000000000
10
172.5453163446
20
177.2912238546
30
0.0000000000
10
172.4903970422
20
177.2690350161
30
0.0000000000
11
172.5711606683
21
177.3472282118
31
0.0000000000
11
172.4903970422
21
177.2690350161
31
0.0000000000
0
SPLINE
5
4AD
100
AcDbEntity
8
0
100
AcDbSpline
62
7
6
CONTINUOUS
70
0
71
3
72
8
73
4
74
2
42
0.0000001000
43
0.0000001000
44
0.0000000001
12
-0.0823787570
22
-0.0332831783
32
0.0000000000
13
-0.1162996531
23
0.0076870580
33
0.0000000000
40
0.0000000000
40
0.0000000000
40
0.0000000000
40
0.0000000000
40
1.0000000000
40
1.0000000000
40
1.0000000000
40
1.0000000000
10
172.4903970422
20
177.2690350161
30
0.0000000000
10
172.4629374565
20
177.2579406233
30
0.0000000000
10
172.4290168227
20
177.2533482584
30
0.0000000000
10
172.3902502717
20
177.2559106111
30
0.0000000000
11
172.4903970422
21
177.2690350161
31
0.0000000000
11
172.3902502717
21
177.2559106111
31
0.0000000000
0
SPLINE
5
4AE
100
AcDbEntity
8
0
100
AcDbSpline
62
7
6
CONTINUOUS
70
0
71
3
72
8
73
4
74
2
42
0.0000001000
43
0.0000001000
44
0.0000000001
12
-0.1162996531
22
0.0076870580
32
0.0000000000
13
-0.1198031398
23
0.0041197817
33
0.0000000000
40
0.0000000000
40
0.0000000000
40
0.0000000000
40
0.0000000000
40
1.0000000000
40
1.0000000000
40
1.0000000000
40
1.0000000000
10
172.3902502717
20
177.2559106111
30
0.0000000000
10
172.3514837207
20
177.2584729637
30
0.0000000000
10
172.3143324317
20
177.2608594519
30
0.0000000000
10
172.2743980517
20
177.2622327124
30
0.0000000000
11
172.3902502717
21
177.2559106111
31
0.0000000000
11
172.2743980517
21
177.2622327124
31
0.0000000000
0
SPLINE
5
4AF
100
AcDbEntity
8
0
100
AcDbSpline
62
7
6
CONTINUOUS
70
0
71
3
72
8
73
4
74
2
42
0.0000001000
43
0.0000001000
44
0.0000000001
12
-0.1806371716
22
0.0062117380
32
0.0000000000
13
-0.1647575140
23
-0.0665663566
33
0.0000000000
40
0.0000000000
40
0.0000000000
40
0.0000000000
40
0.0000000000
40
1.0000000000
40
1.0000000000
40
1.0000000000
40
1.0000000000
10
172.2743980517
20
177.2622327124
30
0.0000000000
10
172.2141856612
20
177.2643032918
30
0.0000000000
10
172.1560358347
20
177.2540638597
30
0.0000000000
10
172.1011166633
20
177.2318750742
30
0.0000000000
11
172.2743980517
21
177.2622327124
31
0.0000000000
11
172.1011166633
21
177.2318750742
31
0.0000000000
0
SPLINE
5
4B0
100
AcDbEntity
8
0
100
AcDbSpline
62
7
6
CONTINUOUS
70
0
71
3
72
8
73
4
74
2
42
0.0000001000
43
0.0000001000
44
0.0000000001
12
-0.1744494796
22
-0.0704821648
32
0.0000000000
13
-0.1005785385
23
-0.1057290308
33
0.0000000000
40
0.0000000000
40
0.0000000000
40
0.0000000000
40
0.0000000000
40
1.0000000000
40
1.0000000000
40
1.0000000000
40
1.0000000000
10
172.1011166633
20
177.2318750742
30
0.0000000000
10
172.0429668368
20
177.2083810192
30
0.0000000000
10
171.9977392377
20
177.1785100712
30
0.0000000000
10
171.9642130582
20
177.1432670610
30
0.0000000000
11
172.1011166633
21
177.2318750742
31
0.0000000000
11
171.9642130582
21
177.1432670610
31
0.0000000000
0
SPLINE
5
4B1
100
AcDbEntity
8
0
100
AcDbSpline
62
7
6
CONTINUOUS
70
0
71
3
72
8
73
4
74
2
42
0.0000001000
43
0.0000001000
44
0.0000000001
12
-0.1029456577
22
-0.1082173669
32
0.0000000000
13
0.0000000000
23
-0.1043797009
33
0.0000000000
40
0.0000000000
40
0.0000000000
40
0.0000000000
40
0.0000000000
40
1.0000000000
40
1.0000000000
40
1.0000000000
40
1.0000000000
10
171.9642130582
20
177.1432670610
30
0.0000000000
10
171.9298978390
20
177.1071946053
30
0.0000000000
10
171.9121298255
20
177.0718499397
30
0.0000000000
10
171.9121298255
20
177.0370567061
30
0.0000000000
11
171.9642130582
21
177.1432670610
31
0.0000000000
11
171.9121298255
21
177.0370567061
31
0.0000000000
0
SPLINE
5
4B2
100
AcDbEntity
8
0
100
AcDbSpline
62
7
6
CONTINUOUS
70
0
71
3
72
8
73
4
74
2
42
0.0000001000
43
0.0000001000
44
0.0000000001
12
0.0000000000
22
-0.1317172849
32
0.0000000000
13
0.2422907408
23
-0.1133530481
33
0.0000000000
40
0.0000000000
40
0.0000000000
40
0.0000000000
40
0.0000000000
40
1.0000000000
40
1.0000000000
40
1.0000000000
40
1.0000000000
10
171.9121298255
20
177.0370567061
30
0.0000000000
10
171.9121298255
20
176.9931509444
30
0.0000000000
10
171.9525116385
20
176.9523059387
30
0.0000000000
10
172.0332752188
20
176.9145215894
30
0.0000000000
11
171.9121298255
21
177.0370567061
31
0.0000000000
11
172.0332752188
21
176.9145215894
31
0.0000000000
0
SPLINE
5
4B3
100
AcDbEntity
8
0
100
AcDbSpline
62
7
6
CONTINUOUS
70
0
71
3
72
8
73
4
74
2
42
0.0000001000
43
0.0000001000
44
0.0000000001
12
0.1938323681
22
-0.0906823334
32
0.0000000000
13
0.2349637139
23
-0.0306784616
33
0.0000000000
40
0.0000000000
40
0.0000000000
40
0.0000000000
40
0.0000000000
40
1.0000000000
40
1.0000000000
40
1.0000000000
40
1.0000000000
10
172.0332752188
20
176.9145215894
30
0.0000000000
10
172.0978860081
20
176.8842941449
30
0.0000000000
10
172.1673428000
20
176.8618235046
30
0.0000000000
10
172.2456640380
20
176.8515973507
30
0.0000000000
11
172.0332752188
21
176.9145215894
31
0.0000000000
11
172.2456640380
21
176.8515973507
31
0.0000000000
0
SPLINE
5
4B4
100
AcDbEntity
8
0
100
AcDbSpline
62
7
6
CONTINUOUS
70
0
71
3
72
8
73
4
74
2
42
0.0000001000
43
0.0000001000
44
0.0000000001
12
0.3368421924
22
-0.0439804092
32
0.0000000000
13
0.1668272655
23
-0.0059339673
33
0.0000000000
40
0.0000000000
40
0.0000000000
40
0.0000000000
40
0.0000000000
40
1.0000000000
40
1.0000000000
40
1.0000000000
40
1.0000000000
10
172.2456640380
20
176.8515973507
30
0.0000000000
10
172.3579447688
20
176.8369372143
30
0.0000000000
10
172.4412491329
20
176.8287670362
30
0.0000000000
10
172.4968582214
20
176.8267890471
30
0.0000000000
11
172.2456640380
21
176.8515973507
31
0.0000000000
11
172.4968582214
21
176.8267890471
31
0.0000000000
0
SPLINE
5
4B5
100
AcDbEntity
8
0
100
AcDbSpline
62
7
6
CONTINUOUS
70
0
71
3
72
8
73
4
74
2
42
0.0000001000
43
0.0000001000
44
0.0000000001
12
-0.3585901380
22
0.0290863481
32
0.0000000000
13
-0.1951510606
23
0.0648248980
33
0.0000000000
40
0.0000000000
40
0.0000000000
40
0.0000000000
40
0.0000000000
40
1.0000000000
40
1.0000000000
40
1.0000000000
40
1.0000000000
10
172.4209403814
20
176.8433356324
30
0.0000000000
10
172.3014103354
20
176.8530310818
30
0.0000000000
10
172.2077244819
20
176.8673694241
30
0.0000000000
10
172.1426741284
20
176.8889777234
30
0.0000000000
11
172.4209403814
21
176.8433356324
31
0.0000000000
11
172.1426741284
21
176.8889777234
31
0.0000000000
0
SPLINE
5
4B6
100
AcDbEntity
8
0
100
AcDbSpline
62
7
6
CONTINUOUS
70
0
71
3
72
8
73
4
74
2
42
0.0000001000
43
0.0000001000
44
0.0000000001
12
-0.4057299556
22
0.1347745839
32
0.0000000000
13
0.0000000000
23
0.1814220196
33
0.0000000000
40
0.0000000000
40
0.0000000000
40
0.0000000000
40
0.0000000000
40
1.0000000000
40
1.0000000000
40
1.0000000000
40
1.0000000000
10
172.1426741284
20
176.8889777234
30
0.0000000000
10
172.0074308099
20
176.9339025847
30
0.0000000000
10
171.9379741491
20
176.9853676730
30
0.0000000000
10
171.9379741491
20
177.0458416795
30
0.0000000000
11
172.1426741284
21
176.8889777234
31
0.0000000000
11
171.9379741491
21
177.0458416795
31
0.0000000000
0
SPLINE
5
4B7
100
AcDbEntity
8
0
100
AcDbSpline
62
7
6
CONTINUOUS
70
0
71
3
72
8
73
4
74
2
42
0.0000001000
43
0.0000001000
44
0.0000000001
12
0.0000000000
22
0.1366877180
32
0.0000000000
13
0.1841406584
23
0.0743976552
33
0.0000000000
40
0.0000000000
40
0.0000000000
40
0.0000000000
40
0.0000000000
40
1.0000000000
40
1.0000000000
40
1.0000000000
40
1.0000000000
10
171.9379741491
20
177.0458416795
30
0.0000000000
10
171.9379741491
20
177.0914042522
30
0.0000000000
10
171.9702796520
20
177.1276520117
30
0.0000000000
10
172.0316598715
20
177.1524512301
30
0.0000000000
11
171.9379741491
21
177.0458416795
31
0.0000000000
11
172.0316598715
21
177.1524512301
31
0.0000000000
0
SPLINE
5
4B8
100
AcDbEntity
8
0
100
AcDbSpline
62
7
6
CONTINUOUS
70
0
71
3
72
8
73
4
74
2
42
0.0000001000
43
0.0000001000
44
0.0000000001
12
0.1066080809
22
0.0430724606
32
0.0000000000
13
0.2327287354
23
-0.0102749602
33
0.0000000000
40
0.0000000000
40
0.0000000000
40
0.0000000000
40
0.0000000000
40
1.0000000000
40
1.0000000000
40
1.0000000000
40
1.0000000000
10
172.0316598715
20
177.1524512301
30
0.0000000000
10
172.0671958984
20
177.1668087170
30
0.0000000000
10
172.1221152009
20
177.1716009050
30
0.0000000000
10
172.1996914460
20
177.1681759183
30
0.0000000000
11
172.0316598715
21
177.1524512301
31
0.0000000000
11
172.1996914460
21
177.1681759183
31
0.0000000000
0
SPLINE
5
4B9
100
AcDbEntity
8
0
100
AcDbSpline
62
7
6
CONTINUOUS
70
0
71
3
72
8
73
4
74
2
42
0.0000001000
43
0.0000001000
44
0.0000000001
12
0.3051566682
22
-0.0134726492
32
0.0000000000
13
0.1647579074
23
0.0665665155
33
0.0000000000
40
0.0000000000
40
0.0000000000
40
0.0000000000
40
0.0000000000
40
1.0000000000
40
1.0000000000
40
1.0000000000
40
1.0000000000
10
172.1996914460
20
177.1681759183
30
0.0000000000
10
172.3014103354
20
177.1636850352
30
0.0000000000
10
172.3805585684
20
177.1732959135
30
0.0000000000
10
172.4354778708
20
177.1954847520
30
0.0000000000
11
172.1996914460
21
177.1681759183
31
0.0000000000
11
172.4354778708
21
177.1954847520
31
0.0000000000
0
SPLINE
5
4BA
100
AcDbEntity
8
0
100
AcDbSpline
62
7
6
CONTINUOUS
70
0
71
3
72
8
73
4
74
2
42
0.0000001000
43
0.0000001000
44
0.0000000001
12
0.3246696353
22
0.1311750474
32
0.0000000000
13
0.0000000000
23
0.1913626841
33
0.0000000000
40
0.0000000000
40
0.0000000000
40
0.0000000000
40
0.0000000000
40
1.0000000000
40
1.0000000000
40
1.0000000000
40
1.0000000000
10
172.4354778708
20
177.1954847520
30
0.0000000000
10
172.5437010826
20
177.2392097678
30
0.0000000000
10
172.5970049919
20
177.2922255567
30
0.0000000000
10
172.5970049919
20
177.3560131180
30
0.0000000000
11
172.4354778708
21
177.1954847520
31
0.0000000000
11
172.5970049919
21
177.3560131180
31
0.0000000000
0
SPLINE
5
4BB
100
AcDbEntity
8
0
100
AcDbSpline
62
7
6
CONTINUOUS
70
0
71
3
72
8
73
4
74
2
42
0.0000001000
43
0.0000001000
44
0.0000000001
12
0.0000000000
22
0.1938481024
32
0.0000000000
13
-0.6687224150
23
0.1622487096
33
0.0000000000
40
0.0000000000
40
0.0000000000
40
0.0000000000
40
0.0000000000
40
1.0000000000
40
1.0000000000
40
1.0000000000
40
1.0000000000
10
172.5970049919
20
177.3560131180
30
0.0000000000
10
172.5970049919
20
177.4206291522
30
0.0000000000
10
172.4855512561
20
177.4808070936
30
0.0000000000
10
172.2626437844
20
177.5348899968
30
0.0000000000
11
172.5970049919
21
177.3560131180
31
0.0000000000
11
172.2626437844
21
177.5348899968
31
0.0000000000
0
SPLINE
5
4BC
100
AcDbEntity
8
0
100
AcDbSpline
62
7
6
CONTINUOUS
70
0
71
3
72
8
73
4
74
2
42
0.0000001000
43
0.0000001000
44
0.0000000001
12
0.9110132933
22
0.0300817924
32
0.0000000000
13
0.4942733288
23
0.0207629880
33
0.0000000000
40
0.0000000000
40
0.0000000000
40
0.0000000000
40
0.0000000000
40
1.0000000000
40
1.0000000000
40
1.0000000000
40
1.0000000000
10
172.2626437844
20
177.5348899968
30
0.0000000000
10
172.5663148822
20
177.5449172610
30
0.0000000000
10
172.8021444501
20
177.5540438790
30
0.0000000000
10
172.9669022263
20
177.5609648750
30
0.0000000000
11
172.2626437844
21
177.5348899968
31
0.0000000000
11
172.9669022263
21
177.5609648750
31
0.0000000000
0
SPLINE
5
4BD
100
AcDbEntity
8
0
100
AcDbSpline
62
7
6
CONTINUOUS
70
0
71
3
72
8
73
4
74
2
42
0.0000001000
43
0.0000001000
44
0.0000000001
12
0.6881055593
22
-0.8502822854
32
0.0000000000
13
0.7414096981
23
0.2995489621
33
0.0000000000
40
0.0000000000
40
0.0000000000
40
0.0000000000
40
0.0000000000
40
1.0000000000
40
1.0000000000
40
1.0000000000
40
1.0000000000
10
173.0508963765
20
177.4598697403
30
0.0000000000
10
173.2802648963
20
177.1764423118
30
0.0000000000
10
173.5177098573
20
177.0851555459
30
0.0000000000
10
173.7648464234
20
177.1850052000
30
0.0000000000
11
173.0508963765
21
177.4598697403
31
0.0000000000
11
173.7648464234
21
177.1850052000
31
0.0000000000
0
SPLINE
5
4BE
100
AcDbEntity
8
0
100
AcDbSpline
62
7
6
CONTINUOUS
70
0
71
3
72
8
73
4
74
2
42
0.0000001000
43
0.0000001000
44
0.0000000001
12
0.4312775195
22
0.1742474285
32
0.0000000000
13
0.0000000000
23
0.2882868362
33
0.0000000000
40
0.0000000000
40
0.0000000000
40
0.0000000000
40
0.0000000000
40
1.0000000000
40
1.0000000000
40
1.0000000000
40
1.0000000000
10
173.7648464234
20
177.1850052000
30
0.0000000000
10
173.9086055965
20
177.2430876761
30
0.0000000000
10
173.9796775521
20
177.3198503993
30
0.0000000000
10
173.9796775521
20
177.4159460114
30
0.0000000000
11
173.7648464234
21
177.1850052000
31
0.0000000000
11
173.9796775521
21
177.4159460114
31
0.0000000000
0
SPLINE
5
4BF
100
AcDbEntity
8
0
100
AcDbSpline
62
7
6
CONTINUOUS
70
0
71
3
72
8
73
4
74
2
42
0.0000001000
43
0.0000001000
44
0.0000000001
12
0.0000000000
22
0.6287636238
32
0.0000000000
13
-2.0788545281
23
-0.1390762397
33
0.0000000000
40
0.0000000000
40
0.0000000000
40
0.0000000000
40
0.0000000000
40
1.0000000000
40
1.0000000000
40
1.0000000000
40
1.0000000000
10
173.9796775521
20
177.4159460114
30
0.0000000000
10
173.9796775521
20
177.6255338860
30
0.0000000000
10
173.6340094121
20
177.7070604439
30
0.0000000000
10
172.9410579027
20
177.6607016973
30
0.0000000000
11
173.9796775521
21
177.4159460114
31
0.0000000000
11
172.9410579027
21
177.6607016973
31
0.0000000000
0
SPLINE
5
4C0
100
AcDbEntity
8
0
100
AcDbSpline
62
7
6
CONTINUOUS
70
0
71
3
72
8
73
4
74
2
42
0.0000001000
43
0.0000001000
44
0.0000000001
12
-0.1356829941
22
0.2284968142
32
0.0000000000
13
-0.0969161153
23
0.2068809980
33
0.0000000000
40
0.0000000000
40
0.0000000000
40
0.0000000000
40
0.0000000000
40
1.0000000000
40
1.0000000000
40
1.0000000000
40
1.0000000000
10
172.9410579027
20
177.6607016973
30
0.0000000000
10
172.8958302380
20
177.7368673020
30
0.0000000000
10
172.8570637525
20
177.8098445540
30
0.0000000000
10
172.8247583808
20
177.8788048867
30
0.0000000000
11
172.9410579027
21
177.6607016973
31
0.0000000000
11
172.8247583808
21
177.8788048867
31
0.0000000000
0
SPLINE
5
4C1
100
AcDbEntity
8
0
100
AcDbSpline
62
7
6
CONTINUOUS
70
0
71
3
72
8
73
4
74
2
42
0.0000001000
43
0.0000001000
44
0.0000000001
12
0.7414094031
22
0.0286586235
32
0.0000000000
13
0.0770932054
23
0.0059421100
33
0.0000000000
40
0.0000000000
40
0.0000000000
40
0.0000000000
40
0.0000000000
40
1.0000000000
40
1.0000000000
40
1.0000000000
40
1.0000000000
10
172.8247583808
20
177.8788048867
30
0.0000000000
10
173.0718948485
20
177.8883577612
30
0.0000000000
10
173.2091929735
20
177.8949536097
30
0.0000000000
10
173.2348907086
20
177.8969343130
30
0.0000000000
11
172.8247583808
21
177.8788048867
31
0.0000000000
11
173.2348907086
21
177.8969343130
31
0.0000000000
0
SPLINE
5
4C2
100
AcDbEntity
8
0
100
AcDbSpline
62
7
6
CONTINUOUS
70
0
71
3
72
8
73
4
74
2
42
0.0000001000
43
0.0000001000
44
0.0000000001
12
0.6982371921
22
0.0538180008
32
0.0000000000
13
0.3392070428
23
0.1370485413
33
0.0000000000
40
0.0000000000
40
0.0000000000
40
0.0000000000
40
0.0000000000
40
1.0000000000
40
1.0000000000
40
1.0000000000
40
1.0000000000
10
173.2348907086
20
177.8969343130
30
0.0000000000
10
173.4676364393
20
177.9148736466
30
0.0000000000
10
173.6388552309
20
177.9467721458
30
0.0000000000
10
173.7519242452
20
177.9924549929
30
0.0000000000
11
173.2348907086
21
177.8969343130
31
0.0000000000
11
173.7519242452
21
177.9924549929
31
0.0000000000
0
SPLINE
5
4C3
100
AcDbEntity
8
0
100
AcDbSpline
62
7
6
CONTINUOUS
70
0
71
3
72
8
73
4
74
2
42
0.0000001000
43
0.0000001000
44
0.0000000001
12
0.4555066220
22
0.1840366213
32
0.0000000000
13
0.0000000000
23
0.2062741853
33
0.0000000000
40
0.0000000000
40
0.0000000000
40
0.0000000000
40
0.0000000000
40
1.0000000000
40
1.0000000000
40
1.0000000000
40
1.0000000000
10
173.7519242452
20
177.9924549929
30
0.0000000000
10
173.9037597859
20
178.0538005334
30
0.0000000000
10
173.9796775521
20
178.1184380628
30
0.0000000000
10
173.9796775521
20
178.1871961246
30
0.0000000000
11
173.7519242452
21
177.9924549929
31
0.0000000000
11
173.9796775521
21
178.1871961246
31
0.0000000000
0
SPLINE
5
4C4
100
AcDbEntity
8
0
100
AcDbSpline
62
7
6
CONTINUOUS
70
0
71
3
72
8
73
4
74
2
42
0.0000001000
43
0.0000001000
44
0.0000000001
12
0.0000000000
22
0.0894686033
32
0.0000000000
13
-0.1774639766
23
0.0878869008
33
0.0000000000
40
0.0000000000
40
0.0000000000
40
0.0000000000
40
0.0000000000
40
1.0000000000
40
1.0000000000
40
1.0000000000
40
1.0000000000
10
173.9796775521
20
178.1871961246
30
0.0000000000
10
173.9796775521
20
178.2170189923
30
0.0000000000
10
173.9506026614
20
178.2475207900
30
0.0000000000
10
173.8914480025
20
178.2768164236
30
0.0000000000
11
173.9796775521
21
178.1871961246
31
0.0000000000
11
173.8914480025
21
178.2768164236
31
0.0000000000
0
SPLINE
5
4C5
100
AcDbEntity
8
0
100
AcDbSpline
62
7
6
CONTINUOUS
70
0
71
3
72
8
73
4
74
2
42
0.0000001000
43
0.0000001000
44
0.0000000001
12
-0.1762804921
22
0.0873007943
32
0.0000000000
13
-0.2422907308
23
0.0238846091
33
0.0000000000
40
0.0000000000
40
0.0000000000
40
0.0000000000
40
0.0000000000
40
1.0000000000
40
1.0000000000
40
1.0000000000
40
1.0000000000
10
173.8914480025
20
178.2768164236
30
0.0000000000
10
173.8326878385
20
178.3059166884
30
0.0000000000
10
173.7632311450
20
178.3242453408
30
0.0000000000
10
173.6824675680
20
178.3322068772
30
0.0000000000
11
173.8914480025
21
178.2768164236
31
0.0000000000
11
173.6824675680
21
178.3322068772
31
0.0000000000
0
SPLINE
5
4C6
100
AcDbEntity
8
0
100
AcDbSpline
62
7
6
CONTINUOUS
70
0
71
3
72
8
73
4
74
2
42
0.0000001000
43
0.0000001000
44
0.0000000001
12
0.1259912252
22
-0.0186827081
32
0.0000000000
13
0.1525776075
23
-0.0718420604
33
0.0000000000
40
0.0000000000
40
0.0000000000
40
0.0000000000
40
0.0000000000
40
1.0000000000
40
1.0000000000
40
1.0000000000
40
1.0000000000
10
173.7276951672
20
178.3098878738
30
0.0000000000
10
173.7696922423
20
178.3036603045
30
0.0000000000
10
173.8149198414
20
178.2887970853
30
0.0000000000
10
173.8657790439
20
178.2648497318
30
0.0000000000
11
173.7276951672
21
178.3098878738
31
0.0000000000
11
173.8657790439
21
178.2648497318
31
0.0000000000
0
SPLINE
5
4C7
100
AcDbEntity
8
0
100
AcDbSpline
62
7
6
CONTINUOUS
70
0
71
3
72
8
73
4
74
2
42
0.0000001000
43
0.0000001000
44
0.0000000001
12
0.1769378139
22
-0.0833122064
32
0.0000000000
13
0.0000000000
23
-0.0671012507
33
0.0000000000
40
0.0000000000
40
0.0000000000
40
0.0000000000
40
0.0000000000
40
1.0000000000
40
1.0000000000
40
1.0000000000
40
1.0000000000
10
173.8657790439
20
178.2648497318
30
0.0000000000
10
173.9247583152
20
178.2370789964
30
0.0000000000
10
173.9538332059
20
178.2115476318
30
0.0000000000
10
173.9538332059
20
178.1891805482
30
0.0000000000
11
173.8657790439
21
178.2648497318
31
0.0000000000
11
173.9538332059
21
178.1891805482
31
0.0000000000
0
SPLINE
5
4C8
100
AcDbEntity
8
0
100
AcDbSpline
62
7
6
CONTINUOUS
70
0
71
3
72
8
73
4
74
2
42
0.0000001000
43
0.0000001000
44
0.0000000001
12
0.0000000000
22
-0.1093503358
32
0.0000000000
13
-0.2471365660
23
-0.0998496540
33
0.0000000000
40
0.0000000000
40
0.0000000000
40
0.0000000000
40
0.0000000000
40
1.0000000000
40
1.0000000000
40
1.0000000000
40
1.0000000000
10
173.9538332059
20
178.1891805482
30
0.0000000000
10
173.9538332059
20
178.1527304363
30
0.0000000000
10
173.9134514154
20
178.1181900779
30
0.0000000000
10
173.8310725601
20
178.0849068599
30
0.0000000000
11
173.9538332059
21
178.1891805482
31
0.0000000000
11
173.8310725601
21
178.0849068599
31
0.0000000000
0
SPLINE
5
4C9
100
AcDbEntity
8
0
100
AcDbSpline
62
7
6
CONTINUOUS
70
0
71
3
72
8
73
4
74
2
42
0.0000001000
43
0.0000001000
44
0.0000000001
12
-0.4555066466
22
-0.1840366313
32
0.0000000000
13
-1.6718062341
23
-0.0143819222
33
0.0000000000
40
0.0000000000
40
0.0000000000
40
0.0000000000
40
0.0000000000
40
1.0000000000
40
1.0000000000
40
1.0000000000
40
1.0000000000
10
173.8310725601
20
178.0849068599
30
0.0000000000
10
173.6792370112
20
178.0235613161
30
0.0000000000
10
173.3254925610
20
177.9899894823
30
0.0000000000
10
172.7682238163
20
177.9851955082
30
0.0000000000
11
173.8310725601
21
178.0849068599
31
0.0000000000
11
172.7682238163
21
177.9851955082
31
0.0000000000
0
SPLINE
5
4CA
100
AcDbEntity
8
0
100
AcDbSpline
62
7
6
CONTINUOUS
70
0
71
3
72
8
73
4
74
2
42
0.0000001000
43
0.0000001000
44
0.0000000001
12
-0.3246696353
22
0.5348670266
32
0.0000000000
13
-0.6099772554
23
0.1315605183
33
0.0000000000
40
0.0000000000
40
0.0000000000
40
0.0000000000
40
0.0000000000
40
1.0000000000
40
1.0000000000
40
1.0000000000
40
1.0000000000
10
172.7682238163
20
177.9851955082
30
0.0000000000
10
172.6600006045
20
178.1634845171
30
0.0000000000
10
172.5033192695
20
178.2741473841
30
0.0000000000
10
172.2999935177
20
178.3180008902
30
0.0000000000
11
172.7682238163
21
177.9851955082
31
0.0000000000
11
172.2999935177
21
178.3180008902
31
0.0000000000
0
SPLINE
5
4CB
100
AcDbEntity
8
0
100
AcDbSpline
62
7
6
CONTINUOUS
70
0
71
3
72
8
73
4
74
2
42
0.0000001000
43
0.0000001000
44
0.0000000001
12
-0.4367188353
22
0.0941919651
32
0.0000000000
13
-0.3634363174
23
-0.1468378037
33
0.0000000000
40
0.0000000000
40
0.0000000000
40
0.0000000000
40
0.0000000000
40
1.0000000000
40
1.0000000000
40
1.0000000000
40
1.0000000000
10
172.2999935177
20
178.3180008902
30
0.0000000000
10
172.1544205726
20
178.3493982119
30
0.0000000000
10
172.0203530372
20
178.3407941187
30
0.0000000000
10
171.8992075981
20
178.2918481842
30
0.0000000000
11
172.2999935177
21
178.3180008902
31
0.0000000000
11
171.8992075981
21
178.2918481842
31
0.0000000000
0
SPLINE
5
4CC
100
AcDbEntity
8
0
100
AcDbSpline
62
7
6
CONTINUOUS
70
0
71
3
72
8
73
4
74
2
42
0.0000001000
43
0.0000001000
44
0.0000000001
12
0.3488989592
22
0.1409643297
32
0.0000000000
13
0.4176885695
23
-0.0942807274
33
0.0000000000
40
0.0000000000
40
0.0000000000
40
0.0000000000
40
0.0000000000
40
1.0000000000
40
1.0000000000
40
1.0000000000
40
1.0000000000
10
171.8992075981
20
178.2785934268
30
0.0000000000
10
172.0155072511
20
178.3255815367
30
0.0000000000
10
172.1431137384
20
178.3324038715
30
0.0000000000
10
172.2823432616
20
178.3009769624
30
0.0000000000
11
171.8992075981
21
178.2785934268
31
0.0000000000
11
172.2823432616
21
178.3009769624
31
0.0000000000
0
SPLINE
5
4CD
100
AcDbEntity
8
0
100
AcDbSpline
62
7
6
CONTINUOUS
70
0
71
3
72
8
73
4
74
2
42
0.0000001000
43
0.0000001000
44
0.0000000001
12
0.6241613417
22
-0.1408857929
32
0.0000000000
13
0.2762113810
23
-0.4923146146
33
0.0000000000
40
0.0000000000
40
0.0000000000
40
0.0000000000
40
0.0000000000
40
1.0000000000
40
1.0000000000
40
1.0000000000
40
1.0000000000
10
172.2823432616
20
178.3009769624
30
0.0000000000
10
172.4903970422
20
178.2540150315
30
0.0000000000
10
172.6406173290
20
178.1481975158
30
0.0000000000
10
172.7326877893
20
177.9840926442
30
0.0000000000
11
172.2823432616
21
178.3009769624
31
0.0000000000
11
172.7326877893
21
177.9840926442
31
0.0000000000
0
SPLINE
5
4CE
100
AcDbEntity
8
0
100
AcDbSpline
62
7
6
CONTINUOUS
70
0
71
3
72
8
73
4
74
2
42
0.0000001000
43
0.0000001000
44
0.0000000001
12
-1.8898675919
22
0.0590554540
32
0.0000000000
13
0.0000000000
23
0.3106540879
33
0.0000000000
40
0.0000000000
40
0.0000000000
40
0.0000000000
40
0.0000000000
40
1.0000000000
40
1.0000000000
40
1.0000000000
40
1.0000000000
10
172.7326877893
20
177.9840926442
30
0.0000000000
10
172.1027319254
20
178.0037777956
30
0.0000000000
10
171.7861386002
20
178.0647433241
30
0.0000000000
10
171.7861386002
20
178.1682946867
30
0.0000000000
11
172.7326877893
21
177.9840926442
31
0.0000000000
11
171.7861386002
21
178.1682946867
31
0.0000000000
0
SPLINE
5
4CF
100
AcDbEntity
8
0
100
AcDbSpline
62
7
6
CONTINUOUS
70
0
71
3
72
8
73
4
74
2
42
0.0000001000
43
0.0000001000
44
0.0000000001
12
0.0000000000
22
0.1292320683
32
0.0000000000
13
0.2229073405
23
0.0900604115
33
0.0000000000
40
0.0000000000
40
0.0000000000
40
0.0000000000
40
0.0000000000
40
1.0000000000
40
1.0000000000
40
1.0000000000
40
1.0000000000
10
171.7861386002
20
178.1682946867
30
0.0000000000
10
171.7861386002
20
178.2113720428
30
0.0000000000
10
171.8249051512
20
178.2485732897
30
0.0000000000
10
171.8992075981
20
178.2785934268
30
0.0000000000
11
171.7861386002
21
178.1682946867
31
0.0000000000
11
171.8992075981
21
178.2785934268
31
0.0000000000
0
SPLINE
5
4D0
100
AcDbEntity
8
0
100
AcDbSpline
62
7
6
CONTINUOUS
70
0
71
3
72
8
73
4
74
2
42
0.0000001000
43
0.0000001000
44
0.0000000001
12
1.5118943095
22
0.0889464472
32
0.0000000000
13
0.0000000000
23
-0.4398859545
33
0.0000000000
40
0.0000000000
40
0.0000000000
40
0.0000000000
40
0.0000000000
40
1.0000000000
40
1.0000000000
40
1.0000000000
40
1.0000000000
10
173.1995013357
20
177.5737567363
30
0.0000000000
10
173.7034661056
20
177.6034055520
30
0.0000000000
10
173.9538332059
20
177.5446772195
30
0.0000000000
10
173.9538332059
20
177.3980485680
30
0.0000000000
11
173.1995013357
21
177.5737567363
31
0.0000000000
11
173.9538332059
21
177.3980485680
31
0.0000000000
0
SPLINE
5
4D1
100
AcDbEntity
8
0
100
AcDbSpline
62
7
6
CONTINUOUS
70
0
71
3
72
8
73
4
74
2
42
0.0000001000
43
0.0000001000
44
0.0000000001
12
0.0000000000
22
-0.1863924528
32
0.0000000000
13
-0.3004405327
23
-0.1213858545
33
0.0000000000
40
0.0000000000
40
0.0000000000
40
0.0000000000
40
0.0000000000
40
1.0000000000
40
1.0000000000
40
1.0000000000
40
1.0000000000
10
173.9538332059
20
177.3980485680
30
0.0000000000
10
173.9538332059
20
177.3359177505
30
0.0000000000
10
173.9037597859
20
177.2850356031
30
0.0000000000
10
173.8036129416
20
177.2445736516
30
0.0000000000
11
173.9538332059
21
177.3980485680
31
0.0000000000
11
173.8036129416
21
177.2445736516
31
0.0000000000
0
SPLINE
5
4D2
100
AcDbEntity
8
0
100
AcDbSpline
62
7
6
CONTINUOUS
70
0
71
3
72
8
73
4
74
2
42
0.0000001000
43
0.0000001000
44
0.0000000001
12
-0.3973568201
22
-0.1605425763
32
0.0000000000
13
-0.4397858252
23
0.1681570600
33
0.0000000000
40
0.0000000000
40
0.0000000000
40
0.0000000000
40
0.0000000000
40
1.0000000000
40
1.0000000000
40
1.0000000000
40
1.0000000000
10
173.8036129416
20
177.2445736516
30
0.0000000000
10
173.6711606683
20
177.1910594595
30
0.0000000000
10
173.5306320192
20
177.1914425170
30
0.0000000000
10
173.3840367441
20
177.2474948703
30
0.0000000000
11
173.8036129416
21
177.2445736516
31
0.0000000000
11
173.3840367441
21
177.2474948703
31
0.0000000000
0
SPLINE
5
4D3
100
AcDbEntity
8
0
100
AcDbSpline
62
7
6
CONTINUOUS
70
0
71
3
72
8
73
4
74
2
42
0.0000001000
43
0.0000001000
44
0.0000000001
12
-0.3597736011
22
0.1375634856
32
0.0000000000
13
-0.2324458135
23
0.2788956482
33
0.0000000000
40
0.0000000000
40
0.0000000000
40
0.0000000000
40
0.0000000000
40
1.0000000000
40
1.0000000000
40
1.0000000000
40
1.0000000000
10
173.3840367441
20
177.2474948703
30
0.0000000000
10
173.2641122104
20
177.2933493655
30
0.0000000000
10
173.1639142757
20
177.3622085904
30
0.0000000000
10
173.0864323379
20
177.4551738064
30
0.0000000000
11
173.3840367441
21
177.2474948703
31
0.0000000000
11
173.0864323379
21
177.4551738064
31
0.0000000000
0
SPLINE
5
4D4
100
AcDbEntity
8
0
100
AcDbSpline
62
7
6
CONTINUOUS
70
0
71
3
72
10
73
6
74
4
42
0.0000001000
43
0.0000001000
44
0.0000000001
12
4.3305673830
22
0.5424397249
32
0.0000000000
13
3.9389564483
23
-1.8795416496
33
0.0000000000
40
0.0000000000
40
0.0000000000
40
0.0000000000
40
0.0000000000
40
0.3337162472
40
0.6672291530
40
1.0000000000
40
1.0000000000
40
1.0000000000
40
1.0000000000
10
174.9796775521
20
185.1269461889
30
0.0000000000
10
175.4614044506
20
185.1872865053
30
0.0000000000
10
176.4386612664
20
185.2163012575
30
0.0000000000
10
177.8826579084
20
184.9829133168
30
0.0000000000
10
178.7997120310
20
184.6479882527
30
0.0000000000
10
179.2366353223
20
184.4395026971
30
0.0000000000
11
174.9796775521
21
185.1269461889
31
0.0000000000
11
176.4355119505
21
185.1700974481
31
0.0000000000
11
177.8724399891
21
184.9377845419
31
0.0000000000
11
179.2366353223
21
184.4395026971
31
0.0000000000
0
SPLINE
5
4D5
100
AcDbEntity
8
0
100
AcDbSpline
62
9
6
CONTINUOUS
70
0
71
3
72
9
73
5
74
3
42
0.0000001000
43
0.0000001000
44
0.0000000001
12
-1.4968484921
22
0.6326479624
32
0.0000000000
13
-1.2789671148
23
1.0025178162
33
0.0000000000
40
0.0000000000
40
0.0000000000
40
0.0000000000
40
0.0000000000
40
0.5340072048
40
1.0000000000
40
1.0000000000
40
1.0000000000
40
1.0000000000
10
163.8852707838
20
168.1516067739
30
0.0000000000
10
163.6188281574
20
168.2642196306
30
0.0000000000
10
163.1308115431
20
168.5028541290
30
0.0000000000
10
162.6783407057
20
168.8043240513
30
0.0000000000
10
162.4796775521
20
168.9600460778
30
0.0000000000
11
163.8852707838
21
168.1516067739
31
0.0000000000
11
163.1077557463
21
168.5370030951
31
0.0000000000
11
162.4796775521
21
168.9600460778
31
0.0000000000
0
SPLINE
5
4D6
100
AcDbEntity
8
0
100
AcDbSpline
62
7
6
CONTINUOUS
70
0
71
3
72
15
73
11
74
9
42
0.0000001000
43
0.0000001000
44
0.0000000001
12
12.3232285474
22
-2.4198071751
32
0.0000000000
13
10.6458023670
23
6.6621558492
33
0.0000000000
40
0.0000000000
40
0.0000000000
40
0.0000000000
40
0.0000000000
40
0.1286280368
40
0.2571007366
40
0.3845864701
40
0.5102970341
40
0.6339175081
40
0.7561405329
40
0.8778010628
40
1.0000000000
40
1.0000000000
40
1.0000000000
40
1.0000000000
10
174.9796775521
20
164.8378784883
30
0.0000000000
10
175.5080484506
20
164.7341268061
30
0.0000000000
10
176.5747077207
20
164.5763822940
30
0.0000000000
10
178.1855792295
20
164.5008264559
30
0.0000000000
10
179.7836735560
20
164.5909882387
30
0.0000000000
10
181.3438243569
20
164.8414275597
30
0.0000000000
10
182.8500011459
20
165.2391016703
30
0.0000000000
10
184.2963612487
20
165.7695285404
30
0.0000000000
10
185.6850847665
20
166.4217034266
30
0.0000000000
10
186.5716501164
20
166.9303068413
30
0.0000000000
10
187.0052853614
20
167.2016762961
30
0.0000000000
11
174.9796775521
21
164.8378784883
31
0.0000000000
11
176.5779122593
21
164.6031280200
31
0.0000000000
11
178.1896190916
21
164.5285341732
31
0.0000000000
11
179.7881037482
21
164.6189057146
31
0.0000000000
11
181.3469877834
21
164.8685296298
31
0.0000000000
11
182.8483252830
21
165.2637850695
31
0.0000000000
11
184.2898674289
21
165.7910544203
31
0.0000000000
11
185.6734576473
21
166.4392045914
31
0.0000000000
11
187.0052853614
21
167.2016762961
31
0.0000000000
0
SPLINE
5
4D7
100
AcDbEntity
8
0
100
AcDbSpline
62
7
6
CONTINUOUS
70
0
71
3
72
9
73
5
74
3
42
0.0000001000
43
0.0000001000
44
0.0000000001
12
0.0000137354
22
0.6851306465
32
0.0000000000
13
0.0000111254
23
0.6851306465
33
0.0000000000
40
0.0000000000
40
0.0000000000
40
0.0000000000
40
0.0000000000
40
0.5073645387
40
1.0000000000
40
1.0000000000
40
1.0000000000
40
1.0000000000
10
174.9796775405
20
164.8378784617
30
0.0000000000
10
174.9796798635
20
164.9537487932
30
0.0000000000
10
174.9796746837
20
165.1821256754
30
0.0000000000
10
174.9796757252
20
165.4105025576
30
0.0000000000
10
174.9796775521
20
165.5230091083
30
0.0000000000
11
174.9796775405
21
164.8378784617
31
0.0000000000
11
174.9796762089
21
165.1854894562
31
0.0000000000
11
174.9796775521
21
165.5230091083
31
0.0000000000
0
SPLINE
5
4D8
100
AcDbEntity
8
0
100
AcDbSpline
62
9
6
CONTINUOUS
70
0
71
3
72
13
73
9
74
7
42
0.0000001000
43
0.0000001000
44
0.0000000001
12
11.4571298634
22
-3.0146830328
32
0.0000000000
13
9.1685395984
23
7.5028008189
33
0.0000000000
40
0.0000000000
40
0.0000000000
40
0.0000000000
40
0.0000000000
40
0.1507161422
40
0.3040945763
40
0.4620701878
40
0.6261202630
40
0.8021223283
40
1.0000000000
40
1.0000000000
40
1.0000000000
40
1.0000000000
10
174.9796775521
20
165.5221079930
30
0.0000000000
10
175.5552690234
20
165.3706541942
30
0.0000000000
10
176.7397203727
20
165.1454141720
30
0.0000000000
10
178.5701905049
20
165.0747035577
30
0.0000000000
10
180.4419694444
20
165.3058873820
30
0.0000000000
10
182.3358879588
20
165.8682034194
30
0.0000000000
10
184.2547645597
20
166.8004202672
30
0.0000000000
10
185.4663538946
20
167.6568844952
30
0.0000000000
10
186.0711036509
20
168.1517634144
30
0.0000000000
11
174.9796775521
21
165.5221079930
31
0.0000000000
11
176.7343140462
21
165.1912833741
31
0.0000000000
11
178.5501492174
21
165.1237120276
31
0.0000000000
11
180.4076371123
21
165.3527487888
31
0.0000000000
11
182.2717837459
21
165.9025013332
31
0.0000000000
11
184.1496743957
21
166.8087234566
31
0.0000000000
11
186.0711036509
21
168.1517634144
31
0.0000000000
0
SPLINE
5
4D9
100
AcDbEntity
8
0
100
AcDbSpline
62
9
6
CONTINUOUS
70
0
71
3
72
9
73
5
74
3
42
0.0000001000
43
0.0000001000
44
0.0000000001
12
0.9775887154
22
-0.9025462830
32
0.0000000000
13
0.8841587684
23
-0.9942498487
33
0.0000000000
40
0.0000000000
40
0.0000000000
40
0.0000000000
40
0.0000000000
40
0.4950370357
40
1.0000000000
40
1.0000000000
40
1.0000000000
40
1.0000000000
10
186.0740801721
20
168.1516106038
30
0.0000000000
10
186.2353943787
20
168.0026793249
30
0.0000000000
10
186.5534634723
20
167.6932993259
30
0.0000000000
10
186.8560485630
20
167.3687888201
30
0.0000000000
10
187.0048710406
20
167.2014357031
30
0.0000000000
11
186.0740801721
21
168.1516106038
31
0.0000000000
11
186.5465118056
21
167.6926623025
31
0.0000000000
11
187.0048710406
21
167.2014357031
31
0.0000000000
0
SPLINE
5
4DA
100
AcDbEntity
8
0
100
AcDbSpline
62
7
6
CONTINUOUS
70
0
71
3
72
9
73
5
74
3
42
0.0000001000
43
0.0000001000
44
0.0000000001
12
0.4863711212
22
0.3042972158
32
0.0000000000
13
0.4614433499
23
0.3409159690
33
0.0000000000
40
0.0000000000
40
0.0000000000
40
0.0000000000
40
0.0000000000
40
0.5062754964
40
1.0000000000
40
1.0000000000
40
1.0000000000
40
1.0000000000
10
187.0052853614
20
167.2016762961
30
0.0000000000
10
187.0873646217
20
167.2530290374
30
0.0000000000
10
187.2476306311
20
167.3574664609
30
0.0000000000
10
187.4037355891
20
167.4680337505
30
0.0000000000
10
187.4796775521
20
167.5241399397
30
0.0000000000
11
187.0052853614
21
167.2016762961
31
0.0000000000
11
187.2485755892
21
167.3603484301
31
0.0000000000
11
187.4796775521
21
167.5241399397
31
0.0000000000
0
SPLINE
5
4DB
100
AcDbEntity
8
0
100
AcDbSpline
62
9
6
CONTINUOUS
70
0
71
3
72
9
73
5
74
3
42
0.0000001000
43
0.0000001000
44
0.0000000001
12
1.4968484921
22
0.6326479624
32
0.0000000000
13
1.2789671148
23
1.0025178162
33
0.0000000000
40
0.0000000000
40
0.0000000000
40
0.0000000000
40
0.0000000000
40
0.5340072048
40
1.0000000000
40
1.0000000000
40
1.0000000000
40
1.0000000000
10
186.0740843204
20
168.1516067739
30
0.0000000000
10
186.3405269468
20
168.2642196306
30
0.0000000000
10
186.8285435611
20
168.5028541290
30
0.0000000000
10
187.2810143985
20
168.8043240513
30
0.0000000000
10
187.4796775521
20
168.9600460778
30
0.0000000000
11
186.0740843204
21
168.1516067739
31
0.0000000000
11
186.8515993579
21
168.5370030951
31
0.0000000000
11
187.4796775521
21
168.9600460778
31
0.0000000000
0
SPLINE
5
4DC
100
AcDbEntity
8
0
100
AcDbSpline
62
7
6
CONTINUOUS
70
0
71
3
72
9
73
5
74
3
42
0.0000001000
43
0.0000001000
44
0.0000000001
12
0.4614462169
22
-0.3409180871
32
0.0000000000
13
0.4863742393
23
-0.3042989526
33
0.0000000000
40
0.0000000000
40
0.0000000000
40
0.0000000000
40
0.0000000000
40
0.4937214362
40
1.0000000000
40
1.0000000000
40
1.0000000000
40
1.0000000000
10
162.4796775521
20
167.5241399397
30
0.0000000000
10
162.5556195151
20
167.4680337505
30
0.0000000000
10
162.7117254561
20
167.3574657942
30
0.0000000000
10
162.8719924471
20
167.2530276982
30
0.0000000000
10
162.9540727309
20
167.2016743527
30
0.0000000000
11
162.4796775521
21
167.5241399397
31
0.0000000000
11
162.7107795150
21
167.3603484301
31
0.0000000000
11
162.9540727309
21
167.2016743527
31
0.0000000000
0
SPLINE
5
4DD
100
AcDbEntity
8
0
100
AcDbSpline
62
9
6
CONTINUOUS
70
0
71
3
72
13
73
9
74
7
42
0.0000001000
43
0.0000001000
44
0.0000000001
12
-11.4571298634
22
-3.0146830328
32
0.0000000000
13
-9.1685395984
23
7.5028008189
33
0.0000000000
40
0.0000000000
40
0.0000000000
40
0.0000000000
40
0.0000000000
40
0.1507161422
40
0.3040945763
40
0.4620701878
40
0.6261202630
40
0.8021223283
40
1.0000000000
40
1.0000000000
40
1.0000000000
40
1.0000000000
10
174.9796775521
20
165.5221079930
30
0.0000000000
10
174.4040860808
20
165.3706541942
30
0.0000000000
10
173.2196347315
20
165.1454141720
30
0.0000000000
10
171.3891645993
20
165.0747035577
30
0.0000000000
10
169.5173856598
20
165.3058873820
30
0.0000000000
10
167.6234671454
20
165.8682034194
30
0.0000000000
10
165.7045905446
20
166.8004202672
30
0.0000000000
10
164.4930012096
20
167.6568844952
30
0.0000000000
10
163.8882514533
20
168.1517634144
30
0.0000000000
11
174.9796775521
21
165.5221079930
31
0.0000000000
11
173.2250410580
21
165.1912833741
31
0.0000000000
11
171.4092058868
21
165.1237120276
31
0.0000000000
11
169.5517179919
21
165.3527487888
31
0.0000000000
11
167.6875713584
21
165.9025013332
31
0.0000000000
11
165.8096807085
21
166.8087234566
31
0.0000000000
11
163.8882514533
21
168.1517634144
31
0.0000000000
0
SPLINE
5
4DE
100
AcDbEntity
8
0
100
AcDbSpline
62
9
6
CONTINUOUS
70
0
71
3
72
9
73
5
74
3
42
0.0000001000
43
0.0000001000
44
0.0000000001
12
-0.9775887154
22
-0.9025462830
32
0.0000000000
13
-0.8841587684
23
-0.9942498487
33
0.0000000000
40
0.0000000000
40
0.0000000000
40
0.0000000000
40
0.0000000000
40
0.4950370357
40
1.0000000000
40
1.0000000000
40
1.0000000000
40
1.0000000000
10
163.8852749321
20
168.1516106038
30
0.0000000000
10
163.7239607255
20
168.0026793249
30
0.0000000000
10
163.4058916319
20
167.6932993259
30
0.0000000000
10
163.1033065412
20
167.3687888201
30
0.0000000000
10
162.9544840636
20
167.2014357031
30
0.0000000000
11
163.8852749321
21
168.1516106038
31
0.0000000000
11
163.4128432986
21
167.6926623025
31
0.0000000000
11
162.9544840636
21
167.2014357031
31
0.0000000000
0
SPLINE
5
4DF
100
AcDbEntity
8
0
100
AcDbSpline
62
7
6
CONTINUOUS
70
0
71
3
72
15
73
11
74
9
42
0.0000001000
43
0.0000001000
44
0.0000000001
12
10.6458124466
22
-6.6621574728
32
0.0000000000
13
12.3232377768
23
2.4198089874
33
0.0000000000
40
0.0000000000
40
0.0000000000
40
0.0000000000
40
0.0000000000
40
0.1235410839
40
0.2464859869
40
0.3696490966
40
0.4935455023
40
0.6186472912
40
0.7449379018
40
0.8721450470
40
1.0000000000
40
1.0000000000
40
1.0000000000
40
1.0000000000
10
162.9540727309
20
167.2016743527
30
0.0000000000
10
163.3924711337
20
166.9273243010
30
0.0000000000
10
164.2888264301
20
166.4136037385
30
0.0000000000
10
165.6920176225
20
165.7569738009
30
0.0000000000
10
167.1494721351
20
165.2262478110
30
0.0000000000
10
168.6592751028
20
164.8322841814
30
0.0000000000
10
170.2137835466
20
164.5873013203
30
0.0000000000
10
171.7991599289
20
164.5012684555
30
0.0000000000
10
173.3963462091
20
164.5779612728
30
0.0000000000
10
174.4544818899
20
164.7347503002
30
0.0000000000
10
174.9796775521
20
164.8378784883
30
0.0000000000
11
162.9540727309
21
167.2016743527
31
0.0000000000
11
164.3008689728
21
166.4314212273
31
0.0000000000
11
165.6999727194
21
165.7783652931
31
0.0000000000
11
167.1538183967
21
165.2503729525
31
0.0000000000
11
168.6596445533
21
164.8585769496
31
0.0000000000
11
170.2116800219
21
164.6145697182
31
0.0000000000
11
171.7953683380
21
164.5284270404
31
0.0000000000
11
173.3911162225
21
164.6040707405
31
0.0000000000
11
174.9796775521
21
164.8378784883
31
0.0000000000
0
SPLINE
5
4E0
100
AcDbEntity
8
0
100
AcDbSpline
62
7
6
CONTINUOUS
70
0
71
3
72
10
73
6
74
4
42
0.0000001000
43
0.0000001000
44
0.0000000001
12
-4.3305673830
22
0.5424397249
32
0.0000000000
13
-3.9389564483
23
-1.8795416496
33
0.0000000000
40
0.0000000000
40
0.0000000000
40
0.0000000000
40
0.0000000000
40
0.3337162472
40
0.6672291530
40
1.0000000000
40
1.0000000000
40
1.0000000000
40
1.0000000000
10
174.9796775521
20
185.1269461889
30
0.0000000000
10
174.4979506536
20
185.1872865053
30
0.0000000000
10
173.5206938378
20
185.2163012575
30
0.0000000000
10
172.0766971959
20
184.9829133168
30
0.0000000000
10
171.1596430732
20
184.6479882527
30
0.0000000000
10
170.7227197820
20
184.4395026971
30
0.0000000000
11
174.9796775521
21
185.1269461889
31
0.0000000000
11
173.5238431537
21
185.1700974481
31
0.0000000000
11
172.0869151151
21
184.9377845419
31
0.0000000000
11
170.7227197820
21
184.4395026971
31
0.0000000000
0
SPLINE
5
4E1
100
AcDbEntity
8
0
100
AcDbSpline
62
9
6
CONTINUOUS
70
0
71
3
72
9
73
5
74
3
42
0.0000001000
43
0.0000001000
44
0.0000000001
12
-1.4968484921
22
-0.6326479624
32
0.0000000000
13
-1.2789671148
23
-1.0025178162
33
0.0000000000
40
0.0000000000
40
0.0000000000
40
0.0000000000
40
0.0000000000
40
0.5340072048
40
1.0000000000
40
1.0000000000
40
1.0000000000
40
1.0000000000
10
163.8852707838
20
91.0022856038
30
0.0000000000
10
163.6188281574
20
90.8896727471
30
0.0000000000
10
163.1308115431
20
90.6510382488
30
0.0000000000
10
162.6783407057
20
90.3495683264
30
0.0000000000
10
162.4796775521
20
90.1938463000
30
0.0000000000
11
163.8852707838
21
91.0022856038
31
0.0000000000
11
163.1077557463
21
90.6168892826
31
0.0000000000
11
162.4796775521
21
90.1938463000
31
0.0000000000
0
SPLINE
5
4E2
100
AcDbEntity
8
0
100
AcDbSpline
62
9
6
CONTINUOUS
70
0
71
3
72
13
73
9
74
7
42
0.0000001000
43
0.0000001000
44
0.0000000001
12
-12.7565677471
22
2.0750520061
32
0.0000000000
13
-11.3044962112
23
-6.2645212846
33
0.0000000000
40
0.0000000000
40
0.0000000000
40
0.0000000000
40
0.0000000000
40
0.1555347339
40
0.3145014164
40
0.4770673213
40
0.6431888292
40
0.8155608834
40
1.0000000000
40
1.0000000000
40
1.0000000000
40
1.0000000000
10
174.9796775521
20
96.7652178649
30
0.0000000000
10
174.3183144286
20
96.8727987521
30
0.0000000000
10
172.9689038373
20
97.0211953176
30
0.0000000000
10
170.9102249621
20
97.0415293651
30
0.0000000000
10
168.8153538496
20
96.8318080244
30
0.0000000000
10
166.7008879057
20
96.3752634141
30
0.0000000000
10
164.5627452805
20
95.6496752422
30
0.0000000000
10
163.1746864968
20
94.9789204185
30
0.0000000000
10
162.4796893985
20
94.5937794946
30
0.0000000000
11
174.9796775521
21
96.7652178649
31
0.0000000000
11
172.9817333954
21
96.9865605898
31
0.0000000000
11
170.9272865129
21
97.0042259596
31
0.0000000000
11
168.8367245557
21
96.7946552017
31
0.0000000000
11
166.7379644938
21
96.3421210004
31
0.0000000000
11
164.6286201687
21
95.6254223718
31
0.0000000000
11
162.4796893985
21
94.5937794946
31
0.0000000000
0
SPLINE
5
4E3
100
AcDbEntity
8
0
100
AcDbSpline
62
9
6
CONTINUOUS
70
0
71
3
72
9
73
5
74
3
42
0.0000001000
43
0.0000001000
44
0.0000000001
12
-1.5182078237
22
1.4016659775
32
0.0000000000
13
-1.2919690332
23
1.6125875249
33
0.0000000000
40
0.0000000000
40
0.0000000000
40
0.0000000000
40
0.0000000000
40
0.4945813323
40
1.0000000000
40
1.0000000000
40
1.0000000000
40
1.0000000000
10
163.8852749321
20
91.0022817739
30
0.0000000000
10
163.6349825160
20
91.2333610495
30
0.0000000000
10
163.1475775860
20
91.7210953127
30
0.0000000000
10
162.6973393079
20
92.2432214954
30
0.0000000000
10
162.4796775521
20
92.5148987749
30
0.0000000000
11
163.8852749321
21
91.0022817739
31
0.0000000000
11
163.1619511172
21
91.7242222042
31
0.0000000000
11
162.4796775521
21
92.5148987749
31
0.0000000000
0
SPLINE
5
4E4
100
AcDbEntity
8
0
100
AcDbSpline
62
9
6
CONTINUOUS
70
0
71
3
72
13
73
9
74
7
42
0.0000001000
43
0.0000001000
44
0.0000000001
12
-11.4571298634
22
3.0146830328
32
0.0000000000
13
-9.1685395984
23
-7.5028008189
33
0.0000000000
40
0.0000000000
40
0.0000000000
40
0.0000000000
40
0.0000000000
40
0.1507161422
40
0.3040945764
40
0.4620701878
40
0.6261202630
40
0.8021223283
40
1.0000000000
40
1.0000000000
40
1.0000000000
40
1.0000000000
10
174.9796775521
20
93.6317843847
30
0.0000000000
10
174.4040860808
20
93.7832381836
30
0.0000000000
10
173.2196347314
20
94.0084782057
30
0.0000000000
10
171.3891645990
20
94.0791888200
30
0.0000000000
10
169.5173856593
20
93.8480049956
30
0.0000000000
10
167.6234671449
20
93.2856889581
30
0.0000000000
10
165.7045905442
20
92.3534721103
30
0.0000000000
10
164.4930012095
20
91.4970078824
30
0.0000000000
10
163.8882514533
20
91.0021289633
30
0.0000000000
11
174.9796775521
21
93.6317843847
31
0.0000000000
11
173.2250410579
21
93.9626090037
31
0.0000000000
11
171.4092058865
21
94.0301803501
31
0.0000000000
11
169.5517179914
21
93.8011435888
31
0.0000000000
11
167.6875713578
21
93.2513910443
31
0.0000000000
11
165.8096807080
21
92.3451689208
31
0.0000000000
11
163.8882514533
21
91.0021289633
31
0.0000000000
0
SPLINE
5
4E5
100
AcDbEntity
8
0
100
AcDbSpline
62
7
6
CONTINUOUS
70
0
71
3
72
10
73
6
74
4
42
0.0000001000
43
0.0000001000
44
0.0000000001
12
-4.3305673830
22
-0.5424397249
32
0.0000000000
13
-3.9389564483
23
1.8795416496
33
0.0000000000
40
0.0000000000
40
0.0000000000
40
0.0000000000
40
0.0000000000
40
0.3337162472
40
0.6672291530
40
1.0000000000
40
1.0000000000
40
1.0000000000
40
1.0000000000
10
174.9796775521
20
74.0269461889
30
0.0000000000
10
174.4979506536
20
73.9666058724
30
0.0000000000
10
173.5206938378
20
73.9375911202
30
0.0000000000
10
172.0766971959
20
74.1709790609
30
0.0000000000
10
171.1596430732
20
74.5059041250
30
0.0000000000
10
170.7227197820
20
74.7143896806
30
0.0000000000
11
174.9796775521
21
74.0269461889
31
0.0000000000
11
173.5238431537
21
73.9837949296
31
0.0000000000
11
172.0869151151
21
74.2161078358
31
0.0000000000
11
170.7227197820
21
74.7143896806
31
0.0000000000
0
SPLINE
5
4E6
100
AcDbEntity
8
0
100
AcDbSpline
62
7
6
CONTINUOUS
70
0
71
3
72
10
73
6
74
4
42
0.0000001000
43
0.0000001000
44
0.0000000001
12
4.3305673830
22
-0.5424397249
32
0.0000000000
13
3.9389564483
23
1.8795416496
33
0.0000000000
40
0.0000000000
40
0.0000000000
40
0.0000000000
40
0.0000000000
40
0.3337162472
40
0.6672291530
40
1.0000000000
40
1.0000000000
40
1.0000000000
40
1.0000000000
10
174.9796775521
20
74.0269461889
30
0.0000000000
10
175.4614044506
20
73.9666058724
30
0.0000000000
10
176.4386612664
20
73.9375911202
30
0.0000000000
10
177.8826579084
20
74.1709790609
30
0.0000000000
10
178.7997120310
20
74.5059041250
30
0.0000000000
10
179.2366353223
20
74.7143896806
30
0.0000000000
11
174.9796775521
21
74.0269461889
31
0.0000000000
11
176.4355119505
21
73.9837949296
31
0.0000000000
11
177.8724399891
21
74.2161078358
31
0.0000000000
11
179.2366353223
21
74.7143896806
31
0.0000000000
0
SPLINE
5
4E7
100
AcDbEntity
8
0
100
AcDbSpline
62
7
6
CONTINUOUS
70
0
71
3
72
14
73
10
74
8
42
0.0000001000
43
0.0000001000
44
0.0000000001
12
-0.0000481845
22
3.1308485585
32
0.0000000000
13
-0.0006570083
23
3.1308484899
33
0.0000000000
40
0.0000000000
40
0.0000000000
40
0.0000000000
40
0.0000000000
40
0.1326220780
40
0.2700198695
40
0.4113560137
40
0.5558226752
40
0.7026224797
40
0.8509903944
40
1.0000000000
40
1.0000000000
40
1.0000000000
40
1.0000000000
10
174.9796775521
20
93.6308832694
30
0.0000000000
10
174.9796754220
20
93.7692898167
30
0.0000000000
10
174.9796785939
20
94.0510869231
30
0.0000000000
10
174.9796772011
20
94.4803847173
30
0.0000000000
10
174.9796778781
20
94.9220437106
30
0.0000000000
10
174.9796765836
20
95.3735147967
30
0.0000000000
10
174.9796811676
20
95.8323243530
30
0.0000000000
10
174.9796639027
20
96.2958749968
30
0.0000000000
10
174.9797070776
20
96.6062229954
30
0.0000000000
10
174.9796744441
20
96.7617318283
30
0.0000000000
11
174.9796775521
21
93.6308832694
31
0.0000000000
11
174.9796775521
21
94.0461029112
31
0.0000000000
11
174.9796775521
21
94.4762745886
31
0.0000000000
11
174.9796775521
21
94.9187766521
31
0.0000000000
11
174.9796775521
21
95.3710798910
31
0.0000000000
11
174.9796775521
21
95.8306878473
31
0.0000000000
11
174.9796775521
21
96.2952053195
31
0.0000000000
11
174.9796744441
21
96.7617318283
31
0.0000000000
0
SPLINE
5
4E8
100
AcDbEntity
8
0
100
AcDbSpline
62
9
6
CONTINUOUS
70
0
71
3
72
13
73
9
74
7
42
0.0000001000
43
0.0000001000
44
0.0000000001
12
12.7565677471
22
2.0750520061
32
0.0000000000
13
11.3044962112
23
-6.2645212846
33
0.0000000000
40
0.0000000000
40
0.0000000000
40
0.0000000000
40
0.0000000000
40
0.1555347339
40
0.3145014164
40
0.4770673213
40
0.6431888292
40
0.8155608834
40
1.0000000000
40
1.0000000000
40
1.0000000000
40
1.0000000000
10
174.9796775521
20
96.7652178649
30
0.0000000000
10
175.6410406756
20
96.8727987521
30
0.0000000000
10
176.9904512669
20
97.0211953176
30
0.0000000000
10
179.0491301421
20
97.0415293651
30
0.0000000000
10
181.1440012546
20
96.8318080244
30
0.0000000000
10
183.2584671985
20
96.3752634141
30
0.0000000000
10
185.3966098237
20
95.6496752422
30
0.0000000000
10
186.7846686074
20
94.9789204185
30
0.0000000000
10
187.4796657057
20
94.5937794946
30
0.0000000000
11
174.9796775521
21
96.7652178649
31
0.0000000000
11
176.9776217089
21
96.9865605898
31
0.0000000000
11
179.0320685913
21
97.0042259596
31
0.0000000000
11
181.1226305485
21
96.7946552017
31
0.0000000000
11
183.2213906105
21
96.3421210004
31
0.0000000000
11
185.3307349355
21
95.6254223718
31
0.0000000000
11
187.4796657057
21
94.5937794946
31
0.0000000000
0
SPLINE
5
4E9
100
AcDbEntity
8
0
100
AcDbSpline
62
9
6
CONTINUOUS
70
0
71
3
72
9
73
5
74
3
42
0.0000001000
43
0.0000001000
44
0.0000000001
12
1.5182078237
22
1.4016659775
32
0.0000000000
13
1.2919690332
23
1.6125875249
33
0.0000000000
40
0.0000000000
40
0.0000000000
40
0.0000000000
40
0.0000000000
40
0.4945813323
40
1.0000000000
40
1.0000000000
40
1.0000000000
40
1.0000000000
10
186.0740801721
20
91.0022817739
30
0.0000000000
10
186.3243725882
20
91.2333610495
30
0.0000000000
10
186.8117775182
20
91.7210953127
30
0.0000000000
10
187.2620157963
20
92.2432214954
30
0.0000000000
10
187.4796775521
20
92.5148987749
30
0.0000000000
11
186.0740801721
21
91.0022817739
31
0.0000000000
11
186.7974039870
21
91.7242222042
31
0.0000000000
11
187.4796775521
21
92.5148987749
31
0.0000000000
0
SPLINE
5
4EA
100
AcDbEntity
8
0
100
AcDbSpline
62
9
6
CONTINUOUS
70
0
71
3
72
13
73
9
74
7
42
0.0000001000
43
0.0000001000
44
0.0000000001
12
11.4571298634
22
3.0146830328
32
0.0000000000
13
9.1685395984
23
-7.5028008189
33
0.0000000000
40
0.0000000000
40
0.0000000000
40
0.0000000000
40
0.0000000000
40
0.1507161422
40
0.3040945764
40
0.4620701878
40
0.6261202630
40
0.8021223283
40
1.0000000000
40
1.0000000000
40
1.0000000000
40
1.0000000000
10
174.9796775521
20
93.6317843847
30
0.0000000000
10
175.5552690234
20
93.7832381836
30
0.0000000000
10
176.7397203728
20
94.0084782057
30
0.0000000000
10
178.5701905052
20
94.0791888200
30
0.0000000000
10
180.4419694449
20
93.8480049956
30
0.0000000000
10
182.3358879593
20
93.2856889581
30
0.0000000000
10
184.2547645600
20
92.3534721103
30
0.0000000000
10
185.4663538948
20
91.4970078824
30
0.0000000000
10
186.0711036509
20
91.0021289633
30
0.0000000000
11
174.9796775521
21
93.6317843847
31
0.0000000000
11
176.7343140463
21
93.9626090037
31
0.0000000000
11
178.5501492177
21
94.0301803501
31
0.0000000000
11
180.4076371128
21
93.8011435888
31
0.0000000000
11
182.2717837464
21
93.2513910443
31
0.0000000000
11
184.1496743962
21
92.3451689208
31
0.0000000000
11
186.0711036509
21
91.0021289633
31
0.0000000000
0
SPLINE
5
4EB
100
AcDbEntity
8
0
100
AcDbSpline
62
9
6
CONTINUOUS
70
0
71
3
72
9
73
5
74
3
42
0.0000001000
43
0.0000001000
44
0.0000000001
12
1.4968484921
22
-0.6326479624
32
0.0000000000
13
1.2789671148
23
-1.0025178162
33
0.0000000000
40
0.0000000000
40
0.0000000000
40
0.0000000000
40
0.0000000000
40
0.5340072048
40
1.0000000000
40
1.0000000000
40
1.0000000000
40
1.0000000000
10
186.0740843204
20
91.0022856038
30
0.0000000000
10
186.3405269468
20
90.8896727471
30
0.0000000000
10
186.8285435611
20
90.6510382488
30
0.0000000000
10
187.2810143985
20
90.3495683264
30
0.0000000000
10
187.4796775521
20
90.1938463000
30
0.0000000000
11
186.0740843204
21
91.0022856038
31
0.0000000000
11
186.8515993579
21
90.6168892826
31
0.0000000000
11
187.4796775521
21
90.1938463000
31
0.0000000000
0
ENDSEC
0
SECTION
2
OBJECTS
0
DICTIONARY
5
4EC
100
AcDbDictionary
3
ACAD_GROUP
350
4ED
3
ACAD_MLINESTYLE
350
4EE
0
DICTIONARY
5
4ED
102
{ACAD_REACTORS
330
4EC
102
}
100
AcDbDictionary
0
DICTIONARY
5
4EE
102
{ACAD_REACTORS
330
4EC
102
}
100
AcDbDictionary
3
STANDARD
350
4EF
0
MLINESTYLE
5
4EF
102
{ACAD_REACTORS
330
4EE
102
}
100
AcDbMlineStyle
2
STANDARD
70
0
3

62
256
51
90.0
52
90.0
71
2
49
0.5
62
256
6
BYLAYER
49
-0.5
62
256
6
BYLAYER
0
ENDSEC
0
EOF
