999
DXF file: C:\Aktuell-Internet\CAD-Daten-NEU\2vwa-22.dxf
999
Pro/ENGINEER 2001400 by Parametric Technology Corporation
0
SECTION
2
HEADER
9
$ACADVER
1
AC1014
9
$EXTMAX
10
420.0000000000
20
297.0000000000
9
$EXTMIN
10
0.0000000000
20
0.0000000000
9
$LIMMIN
10
0.0000000000
20
0.0000000000
9
$LIMMAX
10
420.0000000000
20
297.0000000000
9
$VIEWCTR
10
210.0000000000
20
148.5000000000
9
$VIEWSIZE
40
297.0000000000
9
$CLAYER
8
0
9
$LTSCALE
40
23.1000000000
9
$CELTYPE
6
BYLAYER
9
$DIMSCALE
40
1
9
$DIMASZ
40
3.5000000000
9
$DIMEXO
40
2.6250000000
9
$DIMDLI
40
15.9600000000
9
$DIMEXE
40
7.5600000000
9
$DIMCEN
40
3.7800000000
9
$DIMLFAC
40
1.0000000000
9
$DIMTXT
40
3.5000000000
9
$DIMTOL
70
1
9
$DIMTFAC
40
0.6000000000
9
$DIMTP
40
0.0050000000
9
$DIMTM
40
0.0050000000
9
$HANDSEED
5
2E4
0
ENDSEC
0
SECTION
2
CLASSES
0
ENDSEC
0
SECTION
2
TABLES
0
TABLE
2
VPORT
5
8
100
AcDbSymbolTable
70
2
0
VPORT
5
1F4
100
AcDbSymbolTableRecord
100
AcDbViewportTableRecord
2
*ACTIVE
70
0
10
0.0
20
0.0
11
1.0
21
1.0
12
210.0000000000
22
148.5000000000
13
0.0
23
0.0
14
1.0
24
1.0
15
0.0
25
0.0
16
0.0
26
0.0
36
1.0
17
0.0
27
0.0
37
0.0
40
297.0000000000
41
1.4141414141
42
50.0
43
0.0
44
0.0
50
0.0
51
0.0
71
0
72
100
73
1
74
1
75
0
76
0
77
0
78
0
0
ENDTAB
0
TABLE
2
LTYPE
5
5
100
AcDbSymbolTable
70
6
0
LTYPE
5
14
100
AcDbSymbolTableRecord
100
AcDbLinetypeTableRecord
2
BYBLOCK
70
0
3

72
65
73
0
40
0.0
0
LTYPE
5
15
100
AcDbSymbolTableRecord
100
AcDbLinetypeTableRecord
2
BYLAYER
70
0
3

72
65
73
0
40
0.0
0
LTYPE
5
16
100
AcDbSymbolTableRecord
100
AcDbLinetypeTableRecord
2
CONTINUOUS
70
64
3
Solid line
72
65
73
0
40
0
0
LTYPE
5
1F5
100
AcDbSymbolTableRecord
100
AcDbLinetypeTableRecord
2
CENTER
70
64
3
____ _ ____ _ ____ _ ____ _ ____ _ ____ _ ____
72
65
73
4
40
0.6
49
0.375
74
0
49
-0.075
74
0
49
0.075
74
0
49
-0.075
74
0
0
LTYPE
5
1F6
100
AcDbSymbolTableRecord
100
AcDbLinetypeTableRecord
2
HIDDEN
70
64
3
- - - - - - - - - - - - - - - - - - - -
72
65
73
2
40
0.2
49
0.1
74
0
49
-0.1
74
0
0
LTYPE
5
1F7
100
AcDbSymbolTableRecord
100
AcDbLinetypeTableRecord
2
PHANTOM
70
64
3
_____ _ _ _____ _ _ _____ _ _ _____
72
65
73
6
40
0.8
49
0.45
74
0
49
-0.05
74
0
49
0.1
74
0
49
-0.05
74
0
49
0.1
74
0
49
-0.05
74
0
0
LTYPE
5
1F8
100
AcDbSymbolTableRecord
100
AcDbLinetypeTableRecord
2
DOT
70
64
3
. . . . . . . . . . . . . . . . . . . .
72
65
73
2
40
0.2
49
0.1
74
0
49
-0.1
74
0
0
LTYPE
5
1F9
100
AcDbSymbolTableRecord
100
AcDbLinetypeTableRecord
2
DASHED
70
64
3
- - - - - - - - - - - - - - - - - - - -
72
65
73
2
40
0.2
49
0.1
74
0
49
-0.1
74
0
0
ENDTAB
0
TABLE
2
LAYER
5
2
100
AcDbSymbolTable
70
36
0
LAYER
5
10
100
AcDbSymbolTableRecord
100
AcDbLayerTableRecord
2
0
70
0
62
7
6
CONTINUOUS
0
LAYER
5
1FA
100
AcDbSymbolTableRecord
100
AcDbLayerTableRecord
2
DEFAULT_1
70
0
62
7
6
CENTER
0
LAYER
5
1FB
100
AcDbSymbolTableRecord
100
AcDbLayerTableRecord
2
DEFAULT_2
70
0
62
8
6
HIDDEN
0
LAYER
5
1FC
100
AcDbSymbolTableRecord
100
AcDbLayerTableRecord
2
DEFAULT_3
70
0
62
7
6
PHANTOM
0
LAYER
5
1FD
100
AcDbSymbolTableRecord
100
AcDbLayerTableRecord
2
ZEICHNUNGSBEMASSUNGEN
70
0
62
7
6
CONTINUOUS
0
ENDTAB
0
TABLE
2
STYLE
5
3
100
AcDbSymbolTable
70
1
0
STYLE
5
11
100
AcDbSymbolTableRecord
100
AcDbTextStyleTableRecord
2
STANDARD
70
0
40
0.0
41
1.0
50
0.0
71
0
42
0.0
3
txt
4

0
STYLE
5
1FE
100
AcDbSymbolTableRecord
100
AcDbTextStyleTableRecord
2
TEXTSTYLE_0
70
0
40
0.0
41
0.80
50
0.0
71
0
42
0.2
3
txt
4

0
ENDTAB
0
TABLE
2
VIEW
5
6
100
AcDbSymbolTable
70
0
0
ENDTAB
0
TABLE
2
UCS
5
7
100
AcDbSymbolTable
70
0
0
ENDTAB
0
TABLE
2
APPID
5
9
100
AcDbSymbolTable
70
1
0
APPID
5
1FF
100
AcDbSymbolTableRecord
100
AcDbRegAppTableRecord
2
ACAD
70
0
0
ENDTAB
0
TABLE
2
DIMSTYLE
5
A
100
AcDbSymbolTable
70
1
0
DIMSTYLE
105
200
100
AcDbSymbolTableRecord
100
AcDbDimStyleTableRecord
2
STANDARD
70
0
3

4

5

6

7

40
1.0
41
0.18
42
0.0625
43
0.38
44
0.18
45
0.0
46
0.0
47
0.0050000000
48
0.0050000000
140
3.5000000000
141
0.09
142
0.0
143
25.4
144
1.0000000000
145
0.0
146
0.6000000000
147
0.09
71
1
72
0
73
1
74
1
75
0
76
0
77
0
78
0
170
0
171
2
172
0
173
0
174
0
175
0
176
0
177
0
178
0
270
2
271
3
272
4
273
2
274
2
340
11
275
0
280
0
281
0
282
0
283
1
284
0
285
0
286
0
287
3
288
0
0
ENDTAB
0
TABLE
2
BLOCK_RECORD
5
1
100
AcDbSymbolTable
70
0
0
BLOCK_RECORD
5
1B
100
AcDbSymbolTableRecord
100
AcDbBlockTableRecord
2
*MODEL_SPACE
0
BLOCK_RECORD
5
1C
100
AcDbSymbolTableRecord
100
AcDbBlockTableRecord
2
*PAPER_SPACE
0
ENDTAB
0
ENDSEC
0
SECTION
2
BLOCKS
0
BLOCK
5
1E
100
AcDbEntity
8
0
100
AcDbBlockBegin
2
*MODEL_SPACE
70
0
10
0.0
20
0.0
30
0.0
3
*MODEL_SPACE
1

0
ENDBLK
5
1F
100
AcDbEntity
8
0
100
AcDbBlockEnd
0
BLOCK
5
20
100
AcDbEntity
8
0
100
AcDbBlockBegin
2
*PAPER_SPACE
70
0
10
0.0
20
0.0
30
0.0
3
*PAPER_SPACE
1

0
ENDBLK
5
21
100
AcDbEntity
8
0
100
AcDbBlockEnd
0
ENDSEC
0
SECTION
2
ENTITIES
0
TEXT
5
201
100
AcDbEntity
8
0
100
AcDbText
62
2
6
CONTINUOUS
10
260.8213947859
20
125.2520275108
7
TEXTSTYLE_0
40
8.0000000000
1
VWA-22/VIP
50
90.0000000000
72
5
11
260.8213947859
21
192.1091697303
100
AcDbText
0
LINE
5
202
100
AcDbEntity
8
0
100
AcDbLine
62
7
6
CONTINUOUS
10
0.0000000000
20
0.0000000000
11
0.0000000000
21
297.0000000000
0
LINE
5
203
100
AcDbEntity
8
0
100
AcDbLine
62
7
6
CONTINUOUS
10
0.0000000000
20
0.0000000000
11
420.0000000000
21
0.0000000000
0
LINE
5
204
100
AcDbEntity
8
0
100
AcDbLine
62
7
6
CONTINUOUS
10
0.0000000000
20
297.0000000000
11
420.0000000000
21
297.0000000000
0
LINE
5
205
100
AcDbEntity
8
0
100
AcDbLine
62
7
6
CONTINUOUS
10
420.0000000000
20
0.0000000000
11
420.0000000000
21
297.0000000000
0
LINE
5
206
100
AcDbEntity
8
0
100
AcDbLine
62
7
6
CONTINUOUS
10
200.1551596051
20
48.6616034377
11
161.8751596051
21
48.6616034377
0
LINE
5
207
100
AcDbEntity
8
0
100
AcDbLine
62
7
6
CONTINUOUS
10
137.2351596051
20
48.6616034377
11
98.9551596051
21
48.6616034377
0
LINE
5
208
100
AcDbEntity
8
0
100
AcDbLine
62
7
6
CONTINUOUS
10
161.8751596051
20
62.4116034377
11
137.2351596051
21
62.4116034377
0
LINE
5
209
100
AcDbEntity
8
DEFAULT_1
100
AcDbLine
62
2
6
CENTER
10
116.5551596051
20
75.9416034377
11
105.4447437487
21
75.9416034377
0
LINE
5
20A
100
AcDbEntity
8
DEFAULT_1
100
AcDbLine
62
2
6
CENTER
10
116.5551596051
20
75.9416034377
11
195.1032816212
21
75.9416034377
0
LINE
5
20B
100
AcDbEntity
8
0
100
AcDbLine
62
7
6
CONTINUOUS
10
161.8751596051
20
89.9116034377
11
137.2351596051
21
89.9116034377
0
LINE
5
20C
100
AcDbEntity
8
0
100
AcDbLine
62
7
6
CONTINUOUS
10
112.2101596051
20
99.2999012340
11
113.0434933358
21
98.8743693698
0
LINE
5
20D
100
AcDbEntity
8
0
100
AcDbLine
62
7
6
CONTINUOUS
10
113.4601596051
20
99.9381990302
11
112.8351596051
21
100.3637308944
0
LINE
5
20E
100
AcDbEntity
8
0
100
AcDbLine
62
7
6
CONTINUOUS
10
114.2934933358
20
98.6616034377
11
115.1268258744
21
98.6616034377
0
LINE
5
20F
100
AcDbEntity
8
0
100
AcDbLine
62
7
6
CONTINUOUS
10
123.4601596051
20
98.6616034377
11
124.2934930377
21
98.6616034377
0
LINE
5
210
100
AcDbEntity
8
0
100
AcDbLine
62
7
6
CONTINUOUS
10
172.1684933358
20
98.6616034377
11
173.8351596051
21
98.6616034377
0
LINE
5
211
100
AcDbEntity
8
0
100
AcDbLine
62
7
6
CONTINUOUS
10
178.8351596051
20
98.6616034377
11
180.0851596051
21
98.6616034377
0
LINE
5
212
100
AcDbEntity
8
0
100
AcDbLine
62
7
6
CONTINUOUS
10
183.0018264704
20
98.6616034377
11
184.6684930377
21
98.6616034377
0
LINE
5
213
100
AcDbEntity
8
0
100
AcDbLine
62
7
6
CONTINUOUS
10
187.5851596051
20
98.6616034377
11
188.8351596051
21
98.6616034377
0
LINE
5
214
100
AcDbEntity
8
0
100
AcDbLine
62
7
6
CONTINUOUS
10
124.5018261724
20
99.7254330981
11
123.6684930377
21
99.7254330981
0
LINE
5
215
100
AcDbEntity
8
0
100
AcDbLine
62
7
6
CONTINUOUS
10
115.3351596051
20
99.7254330981
11
114.5018258744
21
99.7254330981
0
LINE
5
216
100
AcDbEntity
8
0
100
AcDbLine
62
7
6
CONTINUOUS
10
113.0434933358
20
98.8743693698
11
114.2934933358
21
98.6616034377
0
LINE
5
217
100
AcDbEntity
8
0
100
AcDbLine
62
7
6
CONTINUOUS
10
122.2101596051
20
98.8743693698
11
123.4601596051
21
98.6616034377
0
LINE
5
218
100
AcDbEntity
8
0
100
AcDbLine
62
7
6
CONTINUOUS
10
114.5018258744
20
99.7254330981
11
113.4601596051
21
99.9381990302
0
LINE
5
219
100
AcDbEntity
8
0
100
AcDbLine
62
7
6
CONTINUOUS
10
123.6684930377
20
99.7254330981
11
122.6268264704
21
99.9381990302
0
LINE
5
21A
100
AcDbEntity
8
0
100
AcDbLine
62
7
6
CONTINUOUS
10
121.3768264704
20
99.2999012340
11
122.2101596051
21
98.8743693698
0
LINE
5
21B
100
AcDbEntity
8
0
100
AcDbLine
62
7
6
CONTINUOUS
10
122.6268264704
20
99.9381990302
11
122.0018264704
21
100.3637308944
0
LINE
5
21C
100
AcDbEntity
8
0
100
AcDbLine
62
7
6
CONTINUOUS
10
111.3768258744
20
100.1509649623
11
112.2101596051
21
99.2999012340
0
LINE
5
21D
100
AcDbEntity
8
0
100
AcDbLine
62
7
6
CONTINUOUS
10
120.5434927397
20
100.1509649623
11
121.3768264704
21
99.2999012340
0
LINE
5
21E
100
AcDbEntity
8
0
100
AcDbLine
62
7
6
CONTINUOUS
10
125.5434928887
20
99.9381990302
11
124.5018261724
21
99.7254330981
0
LINE
5
21F
100
AcDbEntity
8
0
100
AcDbLine
62
7
6
CONTINUOUS
10
116.3768258744
20
99.9381990302
11
115.3351596051
21
99.7254330981
0
LINE
5
220
100
AcDbEntity
8
0
100
AcDbLine
62
7
6
CONTINUOUS
10
124.2934930377
20
98.6616034377
11
125.7518263214
21
98.8743693698
0
LINE
5
221
100
AcDbEntity
8
0
100
AcDbLine
62
7
6
CONTINUOUS
10
115.1268258744
20
98.6616034377
11
116.5851596051
21
98.8743693698
0
LINE
5
222
100
AcDbEntity
8
0
100
AcDbLine
62
7
6
CONTINUOUS
10
127.6268262655
20
101.0020286906
11
126.5851596051
21
101.0020286906
0
LINE
5
223
100
AcDbEntity
8
0
100
AcDbLine
62
7
6
CONTINUOUS
10
118.4601596051
20
101.0020286906
11
117.4184933358
21
101.0020286906
0
LINE
5
224
100
AcDbEntity
8
0
100
AcDbLine
62
7
6
CONTINUOUS
10
171.1268258744
20
105.2573482264
11
174.8768258744
21
105.2573482264
0
LINE
5
225
100
AcDbEntity
8
0
100
AcDbLine
62
7
6
CONTINUOUS
10
175.0851596051
20
106.1084119547
11
170.9184933358
21
106.1084119547
0
LINE
5
226
100
AcDbEntity
8
0
100
AcDbLine
62
7
6
CONTINUOUS
10
111.1684933358
20
107.5977736283
11
117.0018258744
21
107.5977736283
0
LINE
5
227
100
AcDbEntity
8
0
100
AcDbLine
62
7
6
CONTINUOUS
10
120.3351596051
20
107.5977736283
11
126.1684928887
21
107.5977736283
0
LINE
5
228
100
AcDbEntity
8
0
100
AcDbLine
62
7
6
CONTINUOUS
10
187.1684928887
20
108.6616034377
11
185.5018261724
21
108.6616034377
0
LINE
5
229
100
AcDbEntity
8
0
100
AcDbLine
62
7
6
CONTINUOUS
10
182.1684927397
20
108.6616034377
11
180.5018264704
21
108.6616034377
0
LINE
5
22A
100
AcDbEntity
8
0
100
AcDbLine
62
7
6
CONTINUOUS
10
177.1684933358
20
108.6616034377
11
175.9184933358
21
108.6616034377
0
LINE
5
22B
100
AcDbEntity
8
0
100
AcDbLine
62
7
6
CONTINUOUS
10
170.0851596051
20
108.6616034377
11
168.8351596051
21
108.6616034377
0
LINE
5
22C
100
AcDbEntity
8
0
100
AcDbLine
62
7
6
CONTINUOUS
10
127.8351596051
20
108.6616034377
11
120.3351596051
21
108.6616034377
0
LINE
5
22D
100
AcDbEntity
8
0
100
AcDbLine
62
7
6
CONTINUOUS
10
118.6684927397
20
108.6616034377
11
111.1684933358
21
108.6616034377
0
LINE
5
22E
100
AcDbEntity
8
0
100
AcDbLine
62
7
6
CONTINUOUS
10
112.8351596051
20
100.3637308944
11
112.4184933358
21
101.0020286906
0
LINE
5
22F
100
AcDbEntity
8
0
100
AcDbLine
62
7
6
CONTINUOUS
10
122.0018264704
20
100.3637308944
11
121.5851596051
21
101.0020286906
0
LINE
5
230
100
AcDbEntity
8
0
100
AcDbLine
62
7
6
CONTINUOUS
10
111.1684933358
20
101.0020286906
11
111.3768258744
21
100.1509649623
0
LINE
5
231
100
AcDbEntity
8
0
100
AcDbLine
62
7
6
CONTINUOUS
10
98.9551596051
20
48.6616034377
11
98.9551596051
21
62.4116034377
0
LINE
5
232
100
AcDbEntity
8
0
100
AcDbLine
62
7
6
CONTINUOUS
10
98.9551596051
20
89.9116034377
11
98.9551596051
21
198.0616034377
0
LINE
5
233
100
AcDbEntity
8
0
100
AcDbLine
62
7
6
CONTINUOUS
10
105.4513321068
20
63.5156485453
11
105.4513321068
21
112.6569397164
0
LINE
5
234
100
AcDbEntity
8
0
100
AcDbLine
62
7
6
CONTINUOUS
10
120.3351596051
20
101.0020286906
11
120.5434927397
21
100.1509649623
0
LINE
5
235
100
AcDbEntity
8
0
100
AcDbLine
62
7
6
CONTINUOUS
10
111.1684933358
20
108.6616034377
11
111.1684933358
21
107.5977736283
0
LINE
5
236
100
AcDbEntity
8
0
100
AcDbLine
62
7
6
CONTINUOUS
10
111.1684933358
20
101.4275611509
11
111.1684933358
21
101.0020286906
0
LINE
5
237
100
AcDbEntity
8
0
100
AcDbLine
62
7
6
CONTINUOUS
10
112.4184933358
20
101.0020286906
11
112.4184933358
21
101.4275611509
0
LINE
5
238
100
AcDbEntity
8
DEFAULT_1
100
AcDbLine
62
2
6
CENTER
10
116.5551596051
20
75.9416034377
11
116.5551596051
21
67.4416034377
0
LINE
5
239
100
AcDbEntity
8
DEFAULT_1
100
AcDbLine
62
2
6
CENTER
10
116.5551596051
20
75.9416034377
11
116.5551596051
21
84.4416034377
0
LINE
5
23A
100
AcDbEntity
8
0
100
AcDbLine
62
7
6
CONTINUOUS
10
117.0551596051
20
215.6616034377
11
117.0551596051
21
204.6616034377
0
LINE
5
23B
100
AcDbEntity
8
0
100
AcDbLine
62
7
6
CONTINUOUS
10
118.6684927397
20
107.5977736283
11
118.6684927397
21
108.6616034377
0
LINE
5
23C
100
AcDbEntity
8
0
100
AcDbLine
62
7
6
CONTINUOUS
10
120.3351596051
20
108.6616034377
11
120.3351596051
21
107.5977736283
0
LINE
5
23D
100
AcDbEntity
8
0
100
AcDbLine
62
7
6
CONTINUOUS
10
120.3351596051
20
101.4275611509
11
120.3351596051
21
101.0020286906
0
LINE
5
23E
100
AcDbEntity
8
0
100
AcDbLine
62
7
6
CONTINUOUS
10
121.5851596051
20
101.0020286906
11
121.5851596051
21
101.4275611509
0
LINE
5
23F
100
AcDbEntity
8
0
100
AcDbLine
62
7
6
CONTINUOUS
10
127.8351596051
20
107.5977736283
11
127.8351596051
21
108.6616034377
0
LINE
5
240
100
AcDbEntity
8
0
100
AcDbLine
62
7
6
CONTINUOUS
10
111.3768258744
20
102.2786248792
11
111.1684933358
21
101.4275611509
0
LINE
5
241
100
AcDbEntity
8
0
100
AcDbLine
62
7
6
CONTINUOUS
10
144.0785637265
20
184.7866029132
11
145.2019678479
21
185.6116044868
0
LINE
5
242
100
AcDbEntity
8
0
100
AcDbLine
62
7
6
CONTINUOUS
10
145.2019678479
20
185.6116044868
11
146.0445209389
21
185.8866034377
0
LINE
5
243
100
AcDbEntity
8
0
100
AcDbLine
62
7
6
CONTINUOUS
10
146.0445209389
20
184.2366034377
11
145.2019678479
21
183.9616029132
0
LINE
5
244
100
AcDbEntity
8
0
100
AcDbLine
62
7
6
CONTINUOUS
10
137.2351596051
20
48.6620423800
11
137.2351596051
21
104.5416034377
0
LINE
5
245
100
AcDbEntity
8
0
100
AcDbLine
62
7
6
CONTINUOUS
10
138.0551596051
20
220.0616034377
11
138.0551596051
21
278.1112686767
0
LINE
5
246
100
AcDbEntity
8
0
100
AcDbLine
62
7
6
CONTINUOUS
10
142.9551596051
20
182.3116029132
11
143.2360106354
21
183.6866039622
0
LINE
5
247
100
AcDbEntity
8
0
100
AcDbLine
62
7
6
CONTINUOUS
10
118.2518264704
20
100.1509649623
11
118.4601596051
21
101.0020286906
0
LINE
5
248
100
AcDbEntity
8
0
100
AcDbLine
62
7
6
CONTINUOUS
10
120.5434927397
20
102.2786248792
11
120.3351596051
21
101.4275611509
0
LINE
5
249
100
AcDbEntity
8
0
100
AcDbLine
62
7
6
CONTINUOUS
10
144.6402657872
20
183.4116034377
11
144.3594147568
21
182.5866034377
0
LINE
5
24A
100
AcDbEntity
8
0
100
AcDbLine
62
7
6
CONTINUOUS
10
143.2360106354
20
183.6866039622
11
144.0785637265
21
184.7866029132
0
LINE
5
24B
100
AcDbEntity
8
0
100
AcDbLine
62
7
6
CONTINUOUS
10
145.2019678479
20
183.9616029132
11
144.6402657872
21
183.4116034377
0
LINE
5
24C
100
AcDbEntity
8
0
100
AcDbLine
62
7
6
CONTINUOUS
10
142.9551596051
20
158.6616034377
11
142.9551596051
21
160.3116034377
0
LINE
5
24D
100
AcDbEntity
8
0
100
AcDbLine
62
7
6
CONTINUOUS
10
142.9551596051
20
168.0116031755
11
142.9551596051
21
169.6616031755
0
LINE
5
24E
100
AcDbEntity
8
0
100
AcDbLine
62
7
6
CONTINUOUS
10
142.9551596051
20
171.8616034377
11
142.9551596051
21
173.5116034377
0
LINE
5
24F
100
AcDbEntity
8
0
100
AcDbLine
62
7
6
CONTINUOUS
10
142.9551596051
20
175.7116029132
11
142.9551596051
21
182.3116029132
0
LINE
5
250
100
AcDbEntity
8
0
100
AcDbLine
62
7
6
CONTINUOUS
10
144.3594147568
20
182.5866034377
11
144.3594147568
21
177.3616029132
0
LINE
5
251
100
AcDbEntity
8
0
100
AcDbLine
62
7
6
CONTINUOUS
10
148.5721809988
20
177.3616029132
11
148.5721809988
21
182.5866034377
0
LINE
5
252
100
AcDbEntity
8
DEFAULT_1
100
AcDbLine
62
2
6
CENTER
10
149.5551596051
20
291.5471938968
11
149.5551596051
21
45.6616034377
0
LINE
5
253
100
AcDbEntity
8
0
100
AcDbLine
62
7
6
CONTINUOUS
10
150.2572871809
20
182.3116029132
11
150.2572871809
21
177.3616029132
0
LINE
5
254
100
AcDbEntity
8
0
100
AcDbLine
62
7
6
CONTINUOUS
10
127.4184929260
20
100.1509649623
11
127.6268262655
21
101.0020286906
0
LINE
5
255
100
AcDbEntity
8
0
100
AcDbLine
62
7
6
CONTINUOUS
10
112.4184933358
20
101.4275611509
11
112.8351596051
21
102.2786248792
0
LINE
5
256
100
AcDbEntity
8
0
100
AcDbLine
62
7
6
CONTINUOUS
10
142.9551596051
20
169.6616031755
11
156.1551596051
21
165.2616034377
0
LINE
5
257
100
AcDbEntity
8
0
100
AcDbLine
62
7
6
CONTINUOUS
10
154.4700532263
20
164.1616033066
11
142.9551596051
21
168.0116031755
0
LINE
5
258
100
AcDbEntity
8
0
100
AcDbLine
62
7
6
CONTINUOUS
10
168.8351596051
20
108.6616034377
11
172.1684933358
21
98.6616034377
0
LINE
5
259
100
AcDbEntity
8
0
100
AcDbLine
62
7
6
CONTINUOUS
10
173.0018258744
20
99.5126671661
11
171.1268258744
21
105.2573482264
0
LINE
5
25A
100
AcDbEntity
8
0
100
AcDbLine
62
7
6
CONTINUOUS
10
170.9184933358
20
106.1084119547
11
170.0851596051
21
108.6616034377
0
LINE
5
25B
100
AcDbEntity
8
0
100
AcDbLine
62
7
6
CONTINUOUS
10
156.1551596051
20
177.3616029132
11
156.1551596051
21
175.7116029132
0
LINE
5
25C
100
AcDbEntity
8
0
100
AcDbLine
62
7
6
CONTINUOUS
10
156.1551596051
20
173.5116034377
11
156.1551596051
21
171.8616034377
0
LINE
5
25D
100
AcDbEntity
8
0
100
AcDbLine
62
7
6
CONTINUOUS
10
156.1551596051
20
165.2616034377
11
156.1551596051
21
163.0616035689
0
LINE
5
25E
100
AcDbEntity
8
0
100
AcDbLine
62
7
6
CONTINUOUS
10
121.5851596051
20
101.4275611509
11
122.0018264704
21
102.2786248792
0
LINE
5
25F
100
AcDbEntity
8
0
100
AcDbLine
62
7
6
CONTINUOUS
10
111.7934933358
20
102.9169226754
11
111.3768258744
21
102.2786248792
0
LINE
5
260
100
AcDbEntity
8
0
100
AcDbLine
62
7
6
CONTINUOUS
10
142.9551596051
20
160.3116034377
11
154.4700532263
21
164.1616033066
0
LINE
5
261
100
AcDbEntity
8
0
100
AcDbLine
62
7
6
CONTINUOUS
10
156.1551596051
20
163.0616035689
11
142.9551596051
21
158.6616034377
0
LINE
5
262
100
AcDbEntity
8
0
100
AcDbLine
62
7
6
CONTINUOUS
10
156.1551596051
20
171.8616034377
11
142.9551596051
21
171.8616034377
0
LINE
5
263
100
AcDbEntity
8
0
100
AcDbLine
62
7
6
CONTINUOUS
10
142.9551596051
20
173.5116034377
11
156.1551596051
21
173.5116034377
0
LINE
5
264
100
AcDbEntity
8
0
100
AcDbLine
62
7
6
CONTINUOUS
10
156.1551596051
20
175.7116029132
11
142.9551596051
21
175.7116029132
0
LINE
5
265
100
AcDbEntity
8
0
100
AcDbLine
62
7
6
CONTINUOUS
10
144.3594147568
20
177.3616029132
11
148.5721809988
21
177.3616029132
0
LINE
5
266
100
AcDbEntity
8
0
100
AcDbLine
62
7
6
CONTINUOUS
10
150.2572871809
20
177.3616029132
11
156.1551596051
21
177.3616029132
0
LINE
5
267
100
AcDbEntity
8
0
100
AcDbLine
62
7
6
CONTINUOUS
10
149.1338830595
20
184.7866029132
11
149.9764361506
21
183.6866039622
0
LINE
5
268
100
AcDbEntity
8
0
100
AcDbLine
62
7
6
CONTINUOUS
10
148.5721809988
20
182.5866034377
11
148.2913299685
21
183.4116034377
0
LINE
5
269
100
AcDbEntity
8
0
100
AcDbLine
62
7
6
CONTINUOUS
10
149.9764361506
20
183.6866039622
11
150.2572871809
21
182.3116029132
0
LINE
5
26A
100
AcDbEntity
8
0
100
AcDbLine
62
7
6
CONTINUOUS
10
161.0551596051
20
278.1112686767
11
161.0551596051
21
220.0616034377
0
LINE
5
26B
100
AcDbEntity
8
0
100
AcDbLine
62
7
6
CONTINUOUS
10
161.8751596051
20
48.6620423800
11
161.8751596051
21
104.5416034377
0
LINE
5
26C
100
AcDbEntity
8
0
100
AcDbLine
62
7
6
CONTINUOUS
10
117.4184933358
20
101.0020286906
11
117.0018258744
21
100.3637308944
0
LINE
5
26D
100
AcDbEntity
8
0
100
AcDbLine
62
7
6
CONTINUOUS
10
120.9601596051
20
102.9169226754
11
120.5434927397
21
102.2786248792
0
LINE
5
26E
100
AcDbEntity
8
0
100
AcDbLine
62
7
6
CONTINUOUS
10
126.5851596051
20
101.0020286906
11
126.1684928887
21
100.3637308944
0
LINE
5
26F
100
AcDbEntity
8
0
100
AcDbLine
62
7
6
CONTINUOUS
10
146.8870748167
20
184.2366034377
11
146.0445209389
21
184.2366034377
0
LINE
5
270
100
AcDbEntity
8
0
100
AcDbLine
62
7
6
CONTINUOUS
10
146.0445209389
20
185.8866034377
11
147.1679258471
21
185.8866034377
0
LINE
5
271
100
AcDbEntity
8
0
100
AcDbLine
62
7
6
CONTINUOUS
10
147.7296279078
20
183.9616029132
11
146.8870748167
21
184.2366034377
0
LINE
5
272
100
AcDbEntity
8
0
100
AcDbLine
62
7
6
CONTINUOUS
10
147.1679258471
20
185.8866034377
11
148.0104789381
21
185.6116044868
0
LINE
5
273
100
AcDbEntity
8
0
100
AcDbLine
62
7
6
CONTINUOUS
10
148.0104789381
20
185.6116044868
11
149.1338830595
21
184.7866029132
0
LINE
5
274
100
AcDbEntity
8
0
100
AcDbLine
62
7
6
CONTINUOUS
10
148.2913299685
20
183.4116034377
11
147.7296279078
21
183.9616029132
0
LINE
5
275
100
AcDbEntity
8
0
100
AcDbLine
62
7
6
CONTINUOUS
10
181.3351596051
20
106.3211778868
11
183.0018264704
21
98.6616034377
0
LINE
5
276
100
AcDbEntity
8
0
100
AcDbLine
62
7
6
CONTINUOUS
10
117.4184933358
20
99.2999012340
11
118.2518264704
21
100.1509649623
0
LINE
5
277
100
AcDbEntity
8
0
100
AcDbLine
62
7
6
CONTINUOUS
10
112.8351596051
20
102.2786248792
11
118.6684927397
21
107.5977736283
0
LINE
5
278
100
AcDbEntity
8
0
100
AcDbLine
62
7
6
CONTINUOUS
10
117.0018258744
20
107.5977736283
11
111.7934933358
21
102.9169226754
0
LINE
5
279
100
AcDbEntity
8
0
100
AcDbLine
62
7
6
CONTINUOUS
10
183.8351596051
20
100.5764968265
11
182.1684927397
21
108.6616034377
0
LINE
5
27A
100
AcDbEntity
8
0
100
AcDbLine
62
7
6
CONTINUOUS
10
186.3351596051
20
106.3211778868
11
187.5851596051
21
98.6616034377
0
LINE
5
27B
100
AcDbEntity
8
0
100
AcDbLine
62
7
6
CONTINUOUS
10
182.0551596051
20
215.6616034377
11
182.0551596051
21
204.6616034377
0
LINE
5
27C
100
AcDbEntity
8
0
100
AcDbLine
62
7
6
CONTINUOUS
10
126.5851596051
20
99.2999012340
11
127.4184929260
21
100.1509649623
0
LINE
5
27D
100
AcDbEntity
8
0
100
AcDbLine
62
7
6
CONTINUOUS
10
122.0018264704
20
102.2786248792
11
127.8351596051
21
107.5977736283
0
LINE
5
27E
100
AcDbEntity
8
0
100
AcDbLine
62
7
6
CONTINUOUS
10
126.1684928887
20
107.5977736283
11
120.9601596051
21
102.9169226754
0
LINE
5
27F
100
AcDbEntity
8
0
100
AcDbLine
62
7
6
CONTINUOUS
10
188.8351596051
20
98.6616034377
11
187.1684928887
21
108.6616034377
0
LINE
5
280
100
AcDbEntity
8
0
100
AcDbLine
62
7
6
CONTINUOUS
10
193.6589871034
20
63.5156485453
11
193.6589871034
21
112.6569397164
0
LINE
5
281
100
AcDbEntity
8
0
100
AcDbLine
62
7
6
CONTINUOUS
10
180.0851596051
20
98.6616034377
11
181.3351596051
21
106.3211778868
0
LINE
5
282
100
AcDbEntity
8
0
100
AcDbLine
62
7
6
CONTINUOUS
10
180.5018264704
20
108.6616034377
11
178.8351596051
21
98.6616034377
0
LINE
5
283
100
AcDbEntity
8
0
100
AcDbLine
62
7
6
CONTINUOUS
10
175.9184933358
20
108.6616034377
11
175.0851596051
21
106.1084119547
0
LINE
5
284
100
AcDbEntity
8
0
100
AcDbLine
62
7
6
CONTINUOUS
10
174.8768258744
20
105.2573482264
11
173.0018258744
21
99.5126671661
0
LINE
5
285
100
AcDbEntity
8
0
100
AcDbLine
62
7
6
CONTINUOUS
10
117.0018258744
20
100.3637308944
11
116.3768258744
21
99.9381990302
0
LINE
5
286
100
AcDbEntity
8
0
100
AcDbLine
62
7
6
CONTINUOUS
10
126.1684928887
20
100.3637308944
11
125.5434928887
21
99.9381990302
0
LINE
5
287
100
AcDbEntity
8
0
100
AcDbLine
62
7
6
CONTINUOUS
10
193.5551596051
20
204.6616034377
11
105.5551596051
21
204.6616034377
0
LINE
5
288
100
AcDbEntity
8
0
100
AcDbLine
62
7
6
CONTINUOUS
10
200.1551596051
20
48.6616034377
11
200.1551596051
21
62.4116034377
0
LINE
5
289
100
AcDbEntity
8
0
100
AcDbLine
62
7
6
CONTINUOUS
10
200.1551596051
20
89.9116034377
11
200.1551596051
21
198.0616034377
0
LINE
5
28A
100
AcDbEntity
8
0
100
AcDbLine
62
7
6
CONTINUOUS
10
185.5018261724
20
108.6616034377
11
183.8351596051
21
100.5764968265
0
LINE
5
28B
100
AcDbEntity
8
0
100
AcDbLine
62
7
6
CONTINUOUS
10
184.6684930377
20
98.6616034377
11
186.3351596051
21
106.3211778868
0
LINE
5
28C
100
AcDbEntity
8
0
100
AcDbLine
62
7
6
CONTINUOUS
10
173.8351596051
20
98.6616034377
11
177.1684933358
21
108.6616034377
0
LINE
5
28D
100
AcDbEntity
8
0
100
AcDbLine
62
7
6
CONTINUOUS
10
116.5851596051
20
98.8743693698
11
117.4184933358
21
99.2999012340
0
LINE
5
28E
100
AcDbEntity
8
0
100
AcDbLine
62
7
6
CONTINUOUS
10
125.7518263214
20
98.8743693698
11
126.5851596051
21
99.2999012340
0
LINE
5
28F
100
AcDbEntity
8
0
100
AcDbLine
62
7
6
CONTINUOUS
10
138.0551596051
20
220.0616034377
11
117.0551596051
21
215.6616034377
0
LINE
5
290
100
AcDbEntity
8
0
100
AcDbLine
62
7
6
CONTINUOUS
10
182.0551596051
20
215.6616034377
11
161.0551596051
21
220.0616034377
0
LINE
5
291
100
AcDbEntity
8
DEFAULT_2
100
AcDbLine
62
8
6
HIDDEN
10
161.0551596051
20
236.6116034377
11
138.0551596051
21
236.6116034377
0
LINE
5
292
100
AcDbEntity
8
DEFAULT_1
100
AcDbLine
62
2
6
CENTER
10
135.0551596051
20
250.6116034377
11
164.0551596051
21
250.6116034377
0
LINE
5
293
100
AcDbEntity
8
DEFAULT_2
100
AcDbLine
62
8
6
HIDDEN
10
161.0551596051
20
264.6116034377
11
138.0551596051
21
264.6116034377
0
LINE
5
294
100
AcDbEntity
8
0
100
AcDbLine
62
7
6
CONTINUOUS
10
151.0551596051
20
288.1116034377
11
148.0551596051
21
288.1116034377
0
LINE
5
295
100
AcDbEntity
8
DEFAULT_1
100
AcDbLine
62
2
6
CENTER
10
297.9637028411
20
75.9416034377
11
241.3916917633
21
75.9416034377
0
LINE
5
296
100
AcDbEntity
8
0
100
AcDbLine
62
7
6
CONTINUOUS
10
219.5602272782
20
128.8907203306
11
219.5602272782
21
198.0616034377
0
LINE
5
297
100
AcDbEntity
8
0
100
AcDbLine
62
7
6
CONTINUOUS
10
241.5460322427
20
118.6385711108
11
219.5602272782
21
128.8907203365
0
LINE
5
298
100
AcDbEntity
8
0
100
AcDbLine
62
7
6
CONTINUOUS
10
237.6602272782
20
231.9033165039
11
237.6602272782
21
204.6616034377
0
LINE
5
299
100
AcDbEntity
8
0
100
AcDbLine
62
7
6
CONTINUOUS
10
245.3567517153
20
63.5156485453
11
245.3567517153
21
112.6569397164
0
LINE
5
29A
100
AcDbEntity
8
0
100
AcDbLine
62
7
6
CONTINUOUS
10
321.8602272782
20
158.6616034377
11
320.3279459825
21
158.6616034377
0
LINE
5
29B
100
AcDbEntity
8
0
100
AcDbLine
62
7
6
CONTINUOUS
10
321.8602272782
20
160.3116034377
11
320.3279459825
21
160.3116034377
0
LINE
5
29C
100
AcDbEntity
8
DEFAULT_1
100
AcDbLine
62
2
6
CENTER
10
270.1602272782
20
250.6116034377
11
270.1602272782
21
45.8185968399
0
LINE
5
29D
100
AcDbEntity
8
DEFAULT_1
100
AcDbLine
62
2
6
CENTER
10
270.1602272782
20
250.6116034377
11
270.1602272782
21
290.4042701834
0
LINE
5
29E
100
AcDbEntity
8
0
100
AcDbLine
62
7
6
CONTINUOUS
10
321.8602272782
20
164.1616033066
11
320.7602272782
21
164.1616033066
0
LINE
5
29F
100
AcDbEntity
8
0
100
AcDbLine
62
7
6
CONTINUOUS
10
321.8602272782
20
168.0116031755
11
320.3279459825
21
168.0116031755
0
LINE
5
2A0
100
AcDbEntity
8
0
100
AcDbLine
62
7
6
CONTINUOUS
10
321.8602272782
20
169.6616031755
11
320.3279459825
21
169.6616031755
0
LINE
5
2A1
100
AcDbEntity
8
0
100
AcDbLine
62
7
6
CONTINUOUS
10
321.8602272782
20
171.8616034377
11
320.3279459825
21
171.8616034377
0
LINE
5
2A2
100
AcDbEntity
8
0
100
AcDbLine
62
7
6
CONTINUOUS
10
321.8602272782
20
173.5116034377
11
320.3279459825
21
173.5116034377
0
LINE
5
2A3
100
AcDbEntity
8
0
100
AcDbLine
62
7
6
CONTINUOUS
10
321.8602272782
20
175.7116029132
11
320.3279459825
21
175.7116029132
0
LINE
5
2A4
100
AcDbEntity
8
0
100
AcDbLine
62
7
6
CONTINUOUS
10
321.8602272782
20
182.3116029132
11
320.3279459825
21
182.3116029132
0
LINE
5
2A5
100
AcDbEntity
8
0
100
AcDbLine
62
7
6
CONTINUOUS
10
321.8602272782
20
183.6866039622
11
320.3640952198
21
183.6866039622
0
LINE
5
2A6
100
AcDbEntity
8
0
100
AcDbLine
62
7
6
CONTINUOUS
10
321.8602272782
20
184.7866029132
11
320.4629796639
21
184.7866029132
0
LINE
5
2A7
100
AcDbEntity
8
0
100
AcDbLine
62
7
6
CONTINUOUS
10
321.8602272782
20
185.6116044868
11
320.5726237846
21
185.6116044868
0
LINE
5
2A8
100
AcDbEntity
8
0
100
AcDbLine
62
7
6
CONTINUOUS
10
321.8602272782
20
185.8866034377
11
320.6382959432
21
185.8866034377
0
LINE
5
2A9
100
AcDbEntity
8
0
100
AcDbLine
62
7
6
CONTINUOUS
10
294.9637028411
20
63.5156485453
11
294.9637028411
21
112.6569397164
0
LINE
5
2AA
100
AcDbEntity
8
0
100
AcDbLine
62
7
6
CONTINUOUS
10
302.6602272782
20
204.6616034377
11
302.6602272782
21
231.9033165039
0
LINE
5
2AB
100
AcDbEntity
8
0
100
AcDbLine
62
7
6
CONTINUOUS
10
314.1597109139
20
204.6616034377
11
226.1607436425
21
204.6616034377
0
LINE
5
2AC
100
AcDbEntity
8
0
100
AcDbLine
62
7
6
CONTINUOUS
10
320.3279459825
20
158.6616034377
11
320.3279459825
21
160.3116034377
0
LINE
5
2AD
100
AcDbEntity
8
0
100
AcDbLine
62
7
6
CONTINUOUS
10
320.3279459825
20
168.0116031755
11
320.3279459825
21
169.6616031755
0
LINE
5
2AE
100
AcDbEntity
8
0
100
AcDbLine
62
7
6
CONTINUOUS
10
320.3279459825
20
171.8616034377
11
320.3279459825
21
173.5116034377
0
LINE
5
2AF
100
AcDbEntity
8
0
100
AcDbLine
62
7
6
CONTINUOUS
10
320.3279459825
20
175.7116029132
11
320.3279459825
21
182.3116029132
0
LINE
5
2B0
100
AcDbEntity
8
0
100
AcDbLine
62
7
6
CONTINUOUS
10
320.7602272782
20
128.8907203306
11
320.7602272782
21
158.6616034377
0
LINE
5
2B1
100
AcDbEntity
8
0
100
AcDbLine
62
7
6
CONTINUOUS
10
320.7602272782
20
162.5184211956
11
320.7602272782
21
165.8047854176
0
LINE
5
2B2
100
AcDbEntity
8
0
100
AcDbLine
62
7
6
CONTINUOUS
10
320.7602272782
20
169.6616031755
11
320.7602272782
21
171.8616034377
0
LINE
5
2B3
100
AcDbEntity
8
0
100
AcDbLine
62
7
6
CONTINUOUS
10
320.7602272782
20
173.5116034377
11
320.7602272782
21
175.7116029132
0
LINE
5
2B4
100
AcDbEntity
8
0
100
AcDbLine
62
7
6
CONTINUOUS
10
320.7602272782
20
185.8866034377
11
320.7602272782
21
198.0616034377
0
LINE
5
2B5
100
AcDbEntity
8
0
100
AcDbLine
62
7
6
CONTINUOUS
10
321.8602272782
20
158.6616034377
11
321.8602272782
21
169.6616031755
0
LINE
5
2B6
100
AcDbEntity
8
0
100
AcDbLine
62
7
6
CONTINUOUS
10
321.8602272782
20
171.8616034377
11
321.8602272782
21
173.5116034377
0
LINE
5
2B7
100
AcDbEntity
8
0
100
AcDbLine
62
7
6
CONTINUOUS
10
321.8602272782
20
175.7116029132
11
321.8602272782
21
185.8866034377
0
LINE
5
2B8
100
AcDbEntity
8
0
100
AcDbLine
62
7
6
CONTINUOUS
10
302.6602272782
20
220.2816034377
11
302.4865009566
21
220.2816034377
0
LINE
5
2B9
100
AcDbEntity
8
0
100
AcDbLine
62
7
6
CONTINUOUS
10
237.8339535998
20
220.2816034377
11
237.6602272782
21
220.2816034377
0
LINE
5
2BA
100
AcDbEntity
8
0
100
AcDbLine
62
7
6
CONTINUOUS
10
320.7602272782
20
128.8907203365
11
298.7744223136
21
118.6385711108
0
LINE
5
2BB
100
AcDbEntity
8
DEFAULT_1
100
AcDbLine
62
2
6
CENTER
10
270.1602272782
20
250.6116034377
11
228.8195309840
21
250.6116034377
0
LINE
5
2BC
100
AcDbEntity
8
DEFAULT_1
100
AcDbLine
62
2
6
CENTER
10
270.1602272782
20
250.6116034377
11
311.1100379033
21
250.6116034377
0
ARC
5
2BD
100
AcDbEntity
8
0
100
AcDbCircle
62
7
6
CONTINUOUS
10
148.0551596051
20
278.1116034377
40
10.0000000000
100
AcDbArc
50
90.0000000000
51
180.0000000000
0
ARC
5
2BE
100
AcDbEntity
8
0
100
AcDbCircle
62
7
6
CONTINUOUS
10
151.0551596051
20
278.1116034377
40
10.0000000000
100
AcDbArc
50
0.0000000000
51
90.0000000000
0
CIRCLE
5
2BF
100
AcDbEntity
8
0
100
AcDbCircle
62
7
6
CONTINUOUS
10
116.5551596051
20
75.9416034377
40
5.5000000000
0
ARC
5
2C0
100
AcDbEntity
8
0
100
AcDbCircle
62
7
6
CONTINUOUS
10
105.5551596051
20
198.0616034377
40
6.6000000000
100
AcDbArc
50
90.0000000000
51
180.0000000000
0
ARC
5
2C1
100
AcDbEntity
8
0
100
AcDbCircle
62
7
6
CONTINUOUS
10
193.5551596051
20
198.0616034377
40
6.6000000000
100
AcDbArc
50
0.0000000000
51
90.0000000000
0
ARC
5
2C2
100
AcDbEntity
8
0
100
AcDbCircle
62
7
6
CONTINUOUS
10
149.5551596051
20
104.5416034377
40
12.3200000000
100
AcDbArc
50
0.0000000000
51
180.0000000000
0
ARC
5
2C3
100
AcDbEntity
8
0
100
AcDbCircle
62
7
6
CONTINUOUS
10
314.1602272782
20
198.0616034377
40
6.6000000000
100
AcDbArc
50
0.0000000000
51
90.0000000000
0
CIRCLE
5
2C4
100
AcDbEntity
8
0
100
AcDbCircle
62
7
6
CONTINUOUS
10
270.1602272782
20
76.1616034377
40
13.7500000000
0
ARC
5
2C5
100
AcDbEntity
8
0
100
AcDbCircle
62
7
6
CONTINUOUS
10
270.1602272782
20
79.4616034377
40
30.8000000000
100
AcDbArc
50
221.2178438636
51
318.7821561364
0
ARC
5
2C6
100
AcDbEntity
8
0
100
AcDbCircle
62
7
6
CONTINUOUS
10
226.1602272782
20
198.0616034377
40
6.6000000000
100
AcDbArc
50
90.0000000000
51
180.0000000000
0
ARC
5
2C7
100
AcDbEntity
8
0
100
AcDbCircle
62
7
6
CONTINUOUS
10
301.5637028411
20
112.6569397164
40
6.6000000000
100
AcDbArc
50
115.0000000000
51
180.0000000000
0
ARC
5
2C8
100
AcDbEntity
8
0
100
AcDbCircle
62
7
6
CONTINUOUS
10
238.7567517153
20
112.6569397164
40
6.6000000000
100
AcDbArc
50
0.0000000000
51
65.0000000000
0
ARC
5
2C9
100
AcDbEntity
8
0
100
AcDbCircle
62
7
6
CONTINUOUS
10
251.9567517153
20
63.5156485453
40
6.6000000000
100
AcDbArc
50
180.0000000000
51
221.2178438636
0
ARC
5
2CA
100
AcDbEntity
8
0
100
AcDbCircle
62
7
6
CONTINUOUS
10
288.3637028411
20
63.5156485453
40
6.6000000000
100
AcDbArc
50
318.7821561364
51
360.0000000000
0
CIRCLE
5
2CB
100
AcDbEntity
8
0
100
AcDbCircle
62
7
6
CONTINUOUS
10
270.1602272782
20
250.6116034377
40
14.0000000000
0
ARC
5
2CC
100
AcDbEntity
8
0
100
AcDbCircle
62
7
6
CONTINUOUS
10
270.1602272782
20
250.6116034377
40
37.5000000000
100
AcDbArc
50
330.0735651334
51
209.9264348666
0
SPLINE
5
2CD
100
AcDbEntity
8
0
100
AcDbSpline
62
7
6
CONTINUOUS
70
0
71
3
72
23
73
19
74
17
42
0.0000001000
43
0.0000001000
44
0.0000000001
40
0.0000000000
40
0.0000000000
40
0.0000000000
40
0.0000000000
40
0.0099287038
40
0.0392224712
40
0.0863289856
40
0.1491266383
40
0.2250820966
40
0.3113521951
40
0.4048216585
40
0.5020421945
40
0.5992759610
40
0.6925137911
40
0.7779803615
40
0.8529597395
40
0.9148835294
40
0.9613506521
40
0.9902223281
40
1.0000000000
40
1.0000000000
40
1.0000000000
40
1.0000000000
10
200.1551596051
20
62.4116034377
30
0.0000000000
10
200.1309957050
20
62.5005265340
30
0.0000000000
10
200.0363368736
20
62.8520272178
30
0.0000000000
10
199.8349988828
20
63.6275587360
30
0.0000000000
10
199.5329567283
20
64.8837569805
30
0.0000000000
10
199.1748528244
20
66.5714194286
30
0.0000000000
10
198.8138120720
20
68.6289596327
30
0.0000000000
10
198.5048802772
20
70.9827377073
30
0.0000000000
10
198.2973340925
20
73.5459875307
30
0.0000000000
10
198.2260286505
20
76.2186261963
30
0.0000000000
10
198.3035241953
20
78.8889404366
30
0.0000000000
10
198.5160118999
20
81.4422557049
30
0.0000000000
10
198.8268978612
20
83.7769203060
30
0.0000000000
10
199.1863969475
20
85.8097039423
30
0.0000000000
10
199.5410670419
20
87.4744642734
30
0.0000000000
10
199.8394372668
20
88.7130668350
30
0.0000000000
10
200.0380756421
20
89.4776717538
30
0.0000000000
10
200.1313632772
20
89.8240330037
30
0.0000000000
10
200.1551596051
20
89.9116034377
30
0.0000000000
11
200.1551596051
21
62.4116034377
31
0.0000000000
11
200.0832761766
21
62.6785376044
31
0.0000000000
11
199.8783655112
21
63.4680006130
31
0.0000000000
11
199.5719134923
21
64.7432774038
31
0.0000000000
11
199.2093642761
21
66.4537436576
31
0.0000000000
11
198.8444535580
21
68.5368412528
31
0.0000000000
11
198.5325775756
21
70.9185155061
31
0.0000000000
11
198.3231314698
21
73.5125319404
31
0.0000000000
11
198.2511628728
21
76.2184739364
31
0.0000000000
11
198.3294530330
21
78.9246089387
31
0.0000000000
11
198.5441511797
21
81.5117245112
31
0.0000000000
11
198.8575591054
21
83.8706303861
31
0.0000000000
11
199.2205417116
21
85.9264731139
31
0.0000000000
11
199.5794373086
21
87.6128417884
31
0.0000000000
11
199.8822705463
21
88.8706787656
31
0.0000000000
11
200.0843605021
21
89.6487322386
31
0.0000000000
11
200.1551596051
21
89.9116034377
31
0.0000000000
0
SPLINE
5
2CE
100
AcDbEntity
8
0
100
AcDbSpline
62
7
6
CONTINUOUS
70
0
71
3
72
23
73
19
74
17
42
0.0000001000
43
0.0000001000
44
0.0000000001
40
0.0000000000
40
0.0000000000
40
0.0000000000
40
0.0000000000
40
0.0097928338
40
0.0387080357
40
0.0852411819
40
0.1472649221
40
0.2223642992
40
0.3079258198
40
0.4011618015
40
0.4983375335
40
0.5954978388
40
0.6889114873
40
0.7751170371
40
0.8510094219
40
0.9137513711
40
0.9608150665
40
0.9900810212
40
1.0000000000
40
1.0000000000
40
1.0000000000
40
1.0000000000
10
98.9551596051
20
89.9116034377
30
0.0000000000
10
98.9789928337
20
89.8238972091
30
0.0000000000
10
99.0724209231
20
89.4770096797
30
0.0000000000
10
99.2713372533
20
88.7112809680
30
0.0000000000
10
99.5701086354
20
87.4707745367
30
0.0000000000
10
99.9251874962
20
85.8033861769
30
0.0000000000
10
100.2848953654
20
83.7676688363
30
0.0000000000
10
100.5955462434
20
81.4309746203
30
0.0000000000
10
100.8074320907
20
78.8772823142
30
0.0000000000
10
100.8842711775
20
76.2080664223
30
0.0000000000
10
100.8124750027
20
73.5370596507
30
0.0000000000
10
100.6046451472
20
70.9755166740
30
0.0000000000
10
100.2956399346
20
68.6234673838
30
0.0000000000
10
99.9347144063
20
66.5676358006
30
0.0000000000
10
99.5768312590
20
64.8814604094
30
0.0000000000
10
99.2750279307
20
63.6264109362
30
0.0000000000
10
99.0738688614
20
62.8516035204
30
0.0000000000
10
98.9792998378
20
62.5004394385
30
0.0000000000
10
98.9551596051
20
62.4116034377
30
0.0000000000
11
98.9551596051
21
89.9116034377
31
0.0000000000
11
99.0260675770
21
89.6483243581
31
0.0000000000
11
99.2284487413
21
88.8690943925
31
0.0000000000
11
99.5316566706
21
87.6094567664
31
0.0000000000
11
99.8909840285
21
85.9203346924
31
0.0000000000
11
100.2542419448
21
83.8611477193
31
0.0000000000
11
100.5674956423
21
81.4995544053
31
0.0000000000
11
100.7815541678
21
78.9124373755
31
0.0000000000
11
100.8591675389
21
76.2078992883
31
0.0000000000
11
100.7867043582
21
73.5036479902
31
0.0000000000
11
100.5769595388
21
70.9112147154
31
0.0000000000
11
100.2650176825
21
68.5313615838
31
0.0000000000
11
99.9002278899
21
66.4500256237
31
0.0000000000
11
99.5379077166
21
64.7410961601
31
0.0000000000
11
99.2316980703
21
63.4669872229
31
0.0000000000
11
99.0269732243
21
62.6782759949
31
0.0000000000
11
98.9551596051
21
62.4116034377
31
0.0000000000
0
SPLINE
5
2CF
100
AcDbEntity
8
0
100
AcDbSpline
62
7
6
CONTINUOUS
70
0
71
3
72
17
73
13
74
11
42
0.0000001000
43
0.0000001000
44
0.0000000001
40
0.0000000000
40
0.0000000000
40
0.0000000000
40
0.0000000000
40
0.0092970674
40
0.0372520021
40
0.0833611370
40
0.1463178459
40
0.2251064893
40
0.3216183968
40
0.4401611298
40
0.5866711088
40
0.7697758493
40
1.0000000000
40
1.0000000000
40
1.0000000000
40
1.0000000000
10
98.9551596051
20
48.6616034377
30
0.0000000000
10
98.9743651732
20
48.6931554435
30
0.0000000000
10
99.0512647972
20
48.8196128267
30
0.0000000000
10
99.2228582617
20
49.1028919910
30
0.0000000000
10
99.5032797546
20
49.5695011049
30
0.0000000000
10
99.8843597686
20
50.2112382282
30
0.0000000000
10
100.3619083302
20
51.0285665008
30
0.0000000000
10
100.9416291227
20
52.0419319499
30
0.0000000000
10
101.6401660446
20
53.2972094729
30
0.0000000000
10
102.4817110816
20
54.8664422317
30
0.0000000000
10
103.4916626999
20
56.8484005008
30
0.0000000000
10
104.1945520007
20
58.3329879612
30
0.0000000000
10
104.5707066823
20
59.1667517565
30
0.0000000000
11
98.9551596051
21
48.6616034377
31
0.0000000000
11
99.0127355748
21
48.7562842429
31
0.0000000000
11
99.1853637480
21
49.0412757819
31
0.0000000000
11
99.4684498523
21
49.5123381069
31
0.0000000000
11
99.8515651105
21
50.1575541326
31
0.0000000000
11
100.3252712293
21
50.9684128567
31
0.0000000000
11
100.8963929005
21
51.9669571006
31
0.0000000000
11
101.5832605194
21
53.2016890837
31
0.0000000000
11
102.4081888422
21
54.7408256968
31
0.0000000000
11
103.3982679281
21
56.6857686720
31
0.0000000000
11
104.5707066823
21
59.1667517565
31
0.0000000000
0
SPLINE
5
2D0
100
AcDbEntity
8
0
100
AcDbSpline
62
7
6
CONTINUOUS
70
0
71
3
72
17
73
13
74
11
42
0.0000001000
43
0.0000001000
44
0.0000000001
40
0.0000000000
40
0.0000000000
40
0.0000000000
40
0.0000000000
40
0.2303387837
40
0.4134934908
40
0.5600096199
40
0.6785324313
40
0.7750117794
40
0.8537639349
40
0.9166867298
40
0.9627707497
40
0.9907084795
40
1.0000000000
40
1.0000000000
40
1.0000000000
40
1.0000000000
10
194.5396125279
20
59.1667517565
30
0.0000000000
10
194.9159544974
20
58.3325728289
30
0.0000000000
10
195.6191374212
20
56.8474002519
30
0.0000000000
10
196.6294344358
20
54.8648565233
30
0.0000000000
10
197.4710795956
20
53.2955143144
30
0.0000000000
10
198.1695498645
20
52.0404104190
30
0.0000000000
10
198.7491096679
20
51.0273601533
30
0.0000000000
10
199.2264601607
20
50.2103899653
30
0.0000000000
10
199.6073504694
20
49.5689815736
30
0.0000000000
10
199.8876175039
20
49.1026330160
30
0.0000000000
10
200.0591128076
20
48.8195167450
30
0.0000000000
10
200.1359654959
20
48.6931366180
30
0.0000000000
10
200.1551596051
20
48.6616034377
30
0.0000000000
11
194.5396125279
21
59.1667517565
31
0.0000000000
11
195.7126559601
21
56.6845432726
31
0.0000000000
11
196.7030414950
21
54.7390880579
31
0.0000000000
11
197.5280359928
21
53.1999037801
31
0.0000000000
11
198.2148107527
21
51.9653918839
31
0.0000000000
11
198.7857541501
21
50.9671927708
31
0.0000000000
11
199.2592491757
21
50.1567144250
31
0.0000000000
11
199.6421621644
21
49.5118484241
31
0.0000000000
11
199.9250956599
21
49.0410436439
31
0.0000000000
11
200.0976179636
21
48.7562277369
31
0.0000000000
11
200.1551596051
21
48.6616034377
31
0.0000000000
0
SPLINE
5
2D1
100
AcDbEntity
8
0
100
AcDbSpline
62
7
6
CONTINUOUS
70
0
71
3
72
11
73
7
74
5
42
0.0000001000
43
0.0000001000
44
0.0000000001
40
0.0000000000
40
0.0000000000
40
0.0000000000
40
0.0000000000
40
0.2386018009
40
0.4879367069
40
0.7438024040
40
1.0000000000
40
1.0000000000
40
1.0000000000
40
1.0000000000
10
104.5707066823
20
59.1667517565
30
0.0000000000
10
104.7168219047
20
59.4906227288
30
0.0000000000
10
104.9730691159
20
60.1726632459
30
0.0000000000
10
105.2473877362
20
61.2477341814
30
0.0000000000
10
105.4141859666
20
62.3711000671
30
0.0000000000
10
105.4513321068
20
63.1341407838
30
0.0000000000
10
105.4513321068
20
63.5156485453
30
0.0000000000
11
104.5707066823
21
59.1667517565
31
0.0000000000
11
104.9491890124
21
60.1632103407
31
0.0000000000
11
105.2265530726
21
61.2419897564
31
0.0000000000
11
105.3953798888
21
62.3724937445
31
0.0000000000
11
105.4513321068
21
63.5156485453
31
0.0000000000
0
SPLINE
5
2D2
100
AcDbEntity
8
0
100
AcDbSpline
62
7
6
CONTINUOUS
70
0
71
3
72
11
73
7
74
5
42
0.0000001000
43
0.0000001000
44
0.0000000001
40
0.0000000000
40
0.0000000000
40
0.0000000000
40
0.0000000000
40
0.2561975960
40
0.5120632931
40
0.7613981991
40
1.0000000000
40
1.0000000000
40
1.0000000000
40
1.0000000000
10
193.6589871034
20
63.5156485453
30
0.0000000000
10
193.6589871034
20
63.1341407838
30
0.0000000000
10
193.6961332435
20
62.3711000671
30
0.0000000000
10
193.8629314739
20
61.2477341814
30
0.0000000000
10
194.1372500942
20
60.1726632459
30
0.0000000000
10
194.3934973054
20
59.4906227288
30
0.0000000000
10
194.5396125279
20
59.1667517565
30
0.0000000000
11
193.6589871034
21
63.5156485453
31
0.0000000000
11
193.7149393213
21
62.3724937445
31
0.0000000000
11
193.8837661376
21
61.2419897564
31
0.0000000000
11
194.1611301978
21
60.1632103407
31
0.0000000000
11
194.5396125279
21
59.1667517565
31
0.0000000000
0
SPLINE
5
2D3
100
AcDbEntity
8
0
100
AcDbSpline
62
7
6
CONTINUOUS
70
0
71
3
72
13
73
9
74
7
42
0.0000001000
43
0.0000001000
44
0.0000000001
40
0.0000000000
40
0.0000000000
40
0.0000000000
40
0.0000000000
40
0.1788237531
40
0.3563374091
40
0.5256433478
40
0.6889159631
40
0.8474024224
40
1.0000000000
40
1.0000000000
40
1.0000000000
40
1.0000000000
10
105.4513321068
20
112.6569397164
30
0.0000000000
10
105.4513321068
20
113.0544033355
30
0.0000000000
10
105.4912952554
20
113.8470319736
30
0.0000000000
10
105.6731450793
20
115.0034823712
30
0.0000000000
10
105.9816812008
20
116.0976560197
30
0.0000000000
10
106.4260932605
20
117.0996749334
30
0.0000000000
10
107.0240054773
20
117.9764945004
30
0.0000000000
10
107.5423648986
20
118.4478349189
30
0.0000000000
10
107.8228239111
20
118.6385711108
30
0.0000000000
11
105.4513321068
21
112.6569397164
31
0.0000000000
11
105.5124241579
21
113.8477645221
31
0.0000000000
11
105.6995081669
21
115.0165412943
31
0.0000000000
11
106.0111985955
21
116.1015868522
31
0.0000000000
11
106.4598759133
21
117.0935286274
31
0.0000000000
11
107.0641963386
21
117.9604692161
31
0.0000000000
11
107.8228239111
21
118.6385711108
31
0.0000000000
0
SPLINE
5
2D4
100
AcDbEntity
8
0
100
AcDbSpline
62
7
6
CONTINUOUS
70
0
71
3
72
13
73
9
74
7
42
0.0000001000
43
0.0000001000
44
0.0000000001
40
0.0000000000
40
0.0000000000
40
0.0000000000
40
0.0000000000
40
0.1528682721
40
0.3116461321
40
0.4753023192
40
0.6446544844
40
0.8213774218
40
1.0000000000
40
1.0000000000
40
1.0000000000
40
1.0000000000
10
191.2874952990
20
118.6385711108
30
0.0000000000
10
191.5684511982
20
118.4474969933
30
0.0000000000
10
192.0876483125
20
117.9751543482
30
0.0000000000
10
192.6862550480
20
117.0962339638
30
0.0000000000
10
193.1305603039
20
116.0923980589
30
0.0000000000
10
193.4380730150
20
114.9987817896
30
0.0000000000
10
193.6191801637
20
113.8443768897
30
0.0000000000
10
193.6589871034
20
113.0539553133
30
0.0000000000
10
193.6589871034
20
112.6569397164
30
0.0000000000
11
191.2874952990
21
118.6385711108
31
0.0000000000
11
192.0473172590
21
117.9591004271
31
0.0000000000
11
192.6522785732
21
117.0902410942
31
0.0000000000
11
193.1012722059
21
116.0956382590
31
0.0000000000
11
193.4122353279
21
115.0100660042
31
0.0000000000
11
193.5980338729
21
113.8464258076
31
0.0000000000
11
193.6589871034
21
112.6569397164
31
0.0000000000
0
SPLINE
5
2D5
100
AcDbEntity
8
0
100
AcDbSpline
62
7
6
CONTINUOUS
70
0
71
3
72
21
73
17
74
15
42
0.0000001000
43
0.0000001000
44
0.0000000001
40
0.0000000000
40
0.0000000000
40
0.0000000000
40
0.0000000000
40
0.0606559100
40
0.1264282306
40
0.1963863274
40
0.2695954949
40
0.3451488431
40
0.4222078119
40
0.4999999978
40
0.5777921810
40
0.6548511477
40
0.7304044983
40
0.8036136693
40
0.8735717690
40
0.9393440908
40
1.0000000000
40
1.0000000000
40
1.0000000000
40
1.0000000000
10
191.2874952990
20
118.6385711108
30
0.0000000000
10
189.8318759890
20
119.6285171341
30
0.0000000000
10
186.6411028469
20
121.4649663111
30
0.0000000000
10
181.4015994512
20
123.7308042674
30
0.0000000000
10
175.6263985895
20
125.6051686603
30
0.0000000000
10
169.4440970743
20
127.0709735974
30
0.0000000000
10
162.9696708527
20
128.1206093772
30
0.0000000000
10
156.3080228731
20
128.7508658850
30
0.0000000000
10
149.5551598735
20
128.9609786579
30
0.0000000000
10
142.8022969336
20
128.7508659178
30
0.0000000000
10
136.1406490196
20
128.1206094615
30
0.0000000000
10
129.6662226828
20
127.0709737116
30
0.0000000000
10
123.4839209125
20
125.6051687490
30
0.0000000000
10
117.7087198376
20
123.7308043028
30
0.0000000000
10
112.4692163536
20
121.4649663075
30
0.0000000000
10
109.2784432033
20
119.6285171220
30
0.0000000000
10
107.8228239111
20
118.6385711108
30
0.0000000000
11
191.2874952990
21
118.6385711108
31
0.0000000000
11
186.7282740509
21
121.3036954893
31
0.0000000000
11
181.4826465710
21
123.6007008048
31
0.0000000000
11
175.6948870230
21
125.4984345091
31
0.0000000000
11
169.4957729356
21
126.9812752799
31
0.0000000000
11
163.0037753111
21
128.0420706809
31
0.0000000000
11
156.3248568606
21
128.6785976573
31
0.0000000000
11
149.5551597959
21
128.8907203365
31
0.0000000000
11
142.7854629625
21
128.6785976959
31
0.0000000000
11
136.1065446880
21
128.0420707823
31
0.0000000000
11
129.6145468540
21
126.9812753958
31
0.0000000000
11
123.4154324642
21
125.4984345871
31
0.0000000000
11
117.6276726716
21
123.6007008171
31
0.0000000000
11
112.3820451015
21
121.3036954602
31
0.0000000000
11
107.8228239111
21
118.6385711108
31
0.0000000000
0
SPLINE
5
2D6
100
AcDbEntity
8
0
100
AcDbSpline
62
7
6
CONTINUOUS
70
0
71
3
72
9
73
5
74
3
42
0.0000001000
43
0.0000001000
44
0.0000000001
40
0.0000000000
40
0.0000000000
40
0.0000000000
40
0.0000000000
40
0.4998706389
40
1.0000000000
40
1.0000000000
40
1.0000000000
40
1.0000000000
10
320.3279459825
20
182.3116029132
30
0.0000000000
10
320.3341023607
20
182.5407069368
30
0.0000000000
10
320.3462851484
20
182.9990371512
30
0.0000000000
10
320.3582018308
20
183.4573743614
30
0.0000000000
10
320.3640952198
20
183.6866039622
30
0.0000000000
11
320.3279459825
21
182.3116029132
31
0.0000000000
11
320.3462155046
21
182.9989203190
31
0.0000000000
11
320.3640952198
21
183.6866039622
31
0.0000000000
0
SPLINE
5
2D7
100
AcDbEntity
8
0
100
AcDbSpline
62
7
6
CONTINUOUS
70
0
71
3
72
9
73
5
74
3
42
0.0000001000
43
0.0000001000
44
0.0000000001
40
0.0000000000
40
0.0000000000
40
0.0000000000
40
0.0000000000
40
0.4997079999
40
1.0000000000
40
1.0000000000
40
1.0000000000
40
1.0000000000
10
320.3640952198
20
183.6866039622
30
0.0000000000
10
320.3817496890
20
183.8697207853
30
0.0000000000
10
320.4158954604
20
184.2362835298
30
0.0000000000
10
320.4476735949
20
184.6030591141
30
0.0000000000
10
320.4629796639
20
184.7866029132
30
0.0000000000
11
320.3640952198
21
183.6866039622
31
0.0000000000
11
320.4152843012
21
184.2361226049
31
0.0000000000
11
320.4629796639
21
184.7866029132
31
0.0000000000
0
SPLINE
5
2D8
100
AcDbEntity
8
0
100
AcDbSpline
62
7
6
CONTINUOUS
70
0
71
3
72
9
73
5
74
3
42
0.0000001000
43
0.0000001000
44
0.0000000001
40
0.0000000000
40
0.0000000000
40
0.0000000000
40
0.0000000000
40
0.5001119862
40
1.0000000000
40
1.0000000000
40
1.0000000000
40
1.0000000000
10
320.4629796639
20
184.7866029132
30
0.0000000000
10
320.4833263812
20
184.9238471662
30
0.0000000000
10
320.5219493153
20
185.1985837972
30
0.0000000000
10
320.5564284299
20
185.4738712437
30
0.0000000000
10
320.5726237846
20
185.6116044868
30
0.0000000000
11
320.4629796639
21
184.7866029132
31
0.0000000000
11
320.5209215468
21
185.1987830962
31
0.0000000000
11
320.5726237846
21
185.6116044868
31
0.0000000000
0
SPLINE
5
2D9
100
AcDbEntity
8
0
100
AcDbSpline
62
7
6
CONTINUOUS
70
0
71
3
72
9
73
5
74
3
42
0.0000001000
43
0.0000001000
44
0.0000000001
40
0.0000000000
40
0.0000000000
40
0.0000000000
40
0.0000000000
40
0.5012723005
40
1.0000000000
40
1.0000000000
40
1.0000000000
40
1.0000000000
10
320.5726237846
20
185.6116044868
30
0.0000000000
10
320.5847076220
20
185.6572783955
30
0.0000000000
10
320.6077202393
20
185.7486873771
30
0.0000000000
10
320.6284997691
20
185.8406300133
30
0.0000000000
10
320.6382959432
20
185.8866034377
30
0.0000000000
11
320.5726237846
21
185.6116044868
31
0.0000000000
11
320.6072176806
21
185.7490540700
31
0.0000000000
11
320.6382959432
21
185.8866034377
31
0.0000000000
0
SPLINE
5
2DA
100
AcDbEntity
8
0
100
AcDbSpline
62
7
6
CONTINUOUS
70
0
71
3
72
8
73
4
74
2
42
0.0000001000
43
0.0000001000
44
0.0000000001
40
0.0000000000
40
0.0000000000
40
0.0000000000
40
0.0000000000
40
1.0000000000
40
1.0000000000
40
1.0000000000
40
1.0000000000
10
320.3279459825
20
160.3116034377
30
0.0000000000
10
320.4083051966
20
160.5158321892
30
0.0000000000
10
320.4788777337
20
160.7244088216
30
0.0000000000
10
320.5383715676
20
160.9361749003
30
0.0000000000
11
320.3279459825
21
160.3116034377
31
0.0000000000
11
320.5383715676
21
160.9361749003
31
0.0000000000
0
SPLINE
5
2DB
100
AcDbEntity
8
0
100
AcDbSpline
62
7
6
CONTINUOUS
70
0
71
3
72
8
73
4
74
2
42
0.0000001000
43
0.0000001000
44
0.0000000001
40
0.0000000000
40
0.0000000000
40
0.0000000000
40
0.0000000000
40
1.0000000000
40
1.0000000000
40
1.0000000000
40
1.0000000000
10
320.5383715676
20
160.9361749003
30
0.0000000000
10
320.5396816711
20
160.9408381649
30
0.0000000000
10
320.5409864024
20
160.9455029761
30
0.0000000000
10
320.5422857477
20
160.9501693216
30
0.0000000000
11
320.5383715676
21
160.9361749003
31
0.0000000000
11
320.5422857477
21
160.9501693216
31
0.0000000000
0
SPLINE
5
2DC
100
AcDbEntity
8
0
100
AcDbSpline
62
7
6
CONTINUOUS
70
0
71
3
72
9
73
5
74
3
42
0.0000001000
43
0.0000001000
44
0.0000000001
40
0.0000000000
40
0.0000000000
40
0.0000000000
40
0.0000000000
40
0.4132590170
40
1.0000000000
40
1.0000000000
40
1.0000000000
40
1.0000000000
10
320.5422857477
20
160.9501693216
30
0.0000000000
10
320.6009815003
20
161.1609636894
30
0.0000000000
10
320.7164171530
20
161.6786177221
30
0.0000000000
10
320.7600498358
20
162.2079270696
30
0.0000000000
10
320.7601372392
20
162.5185410645
30
0.0000000000
11
320.5422857477
21
160.9501693216
31
0.0000000000
11
320.6841284213
21
161.5908046126
31
0.0000000000
11
320.7601372392
21
162.5185410645
31
0.0000000000
0
SPLINE
5
2DD
100
AcDbEntity
8
0
100
AcDbSpline
62
7
6
CONTINUOUS
70
0
71
3
72
8
73
4
74
2
42
0.0000001000
43
0.0000001000
44
0.0000000001
40
0.0000000000
40
0.0000000000
40
0.0000000000
40
0.0000000000
40
1.0000000000
40
1.0000000000
40
1.0000000000
40
1.0000000000
10
320.3279459825
20
168.0116031755
30
0.0000000000
10
320.4083051740
20
167.8073744816
30
0.0000000000
10
320.4788776938
20
167.5987979093
30
0.0000000000
10
320.5383715172
20
167.3870318922
30
0.0000000000
11
320.3279459825
21
168.0116031755
31
0.0000000000
11
320.5383715172
21
167.3870318922
31
0.0000000000
0
SPLINE
5
2DE
100
AcDbEntity
8
0
100
AcDbSpline
62
7
6
CONTINUOUS
70
0
71
3
72
8
73
4
74
2
42
0.0000001000
43
0.0000001000
44
0.0000000001
40
0.0000000000
40
0.0000000000
40
0.0000000000
40
0.0000000000
40
1.0000000000
40
1.0000000000
40
1.0000000000
40
1.0000000000
10
320.5383715172
20
167.3870318922
30
0.0000000000
10
320.5396816377
20
167.3823685679
30
0.0000000000
10
320.5409863858
20
167.3777036969
30
0.0000000000
10
320.5422857477
20
167.3730372916
30
0.0000000000
11
320.5383715172
21
167.3870318922
31
0.0000000000
11
320.5422857477
21
167.3730372916
31
0.0000000000
0
SPLINE
5
2DF
100
AcDbEntity
8
0
100
AcDbSpline
62
7
6
CONTINUOUS
70
0
71
3
72
9
73
5
74
3
42
0.0000001000
43
0.0000001000
44
0.0000000001
40
0.0000000000
40
0.0000000000
40
0.0000000000
40
0.0000000000
40
0.4132590170
40
1.0000000000
40
1.0000000000
40
1.0000000000
40
1.0000000000
10
320.5422857477
20
167.3730372916
30
0.0000000000
10
320.6009815003
20
167.1622429238
30
0.0000000000
10
320.7164171530
20
166.6445888911
30
0.0000000000
10
320.7600498358
20
166.1152795436
30
0.0000000000
10
320.7601372392
20
165.8046655487
30
0.0000000000
11
320.5422857477
21
167.3730372916
31
0.0000000000
11
320.6841284213
21
166.7324020006
31
0.0000000000
11
320.7601372392
21
165.8046655487
31
0.0000000000
0
ENDSEC
0
SECTION
2
OBJECTS
0
DICTIONARY
5
2E0
100
AcDbDictionary
3
ACAD_GROUP
350
2E1
3
ACAD_MLINESTYLE
350
2E2
0
DICTIONARY
5
2E1
102
{ACAD_REACTORS
330
2E0
102
}
100
AcDbDictionary
0
DICTIONARY
5
2E2
102
{ACAD_REACTORS
330
2E0
102
}
100
AcDbDictionary
3
STANDARD
350
2E3
0
MLINESTYLE
5
2E3
102
{ACAD_REACTORS
330
2E2
102
}
100
AcDbMlineStyle
2
STANDARD
70
0
3

62
256
51
90.0
52
90.0
71
2
49
0.5
62
256
6
BYLAYER
49
-0.5
62
256
6
BYLAYER
0
ENDSEC
0
EOF
