999
DXF file: G:\TBM\JAKUBETZ\Internet\CAD-Daten\2vlbg-8t-m36.dxf
999
Pro/ENGINEER 2001400 by Parametric Technology Corporation
0
SECTION
2
HEADER
9
$ACADVER
1
AC1014
9
$EXTMAX
10
420.0000000000
20
297.0000000000
9
$EXTMIN
10
0.0000000000
20
0.0000000000
9
$LIMMIN
10
0.0000000000
20
0.0000000000
9
$LIMMAX
10
420.0000000000
20
297.0000000000
9
$VIEWCTR
10
210.0000000000
20
148.5000000000
9
$VIEWSIZE
40
297.0000000000
9
$CLAYER
8
0
9
$LTSCALE
40
23.1000000000
9
$CELTYPE
6
BYLAYER
9
$DIMSCALE
40
1
9
$DIMASZ
40
3.5000000000
9
$DIMEXO
40
2.6250000000
9
$DIMDLI
40
15.9600000000
9
$DIMEXE
40
7.5600000000
9
$DIMCEN
40
3.7800000000
9
$DIMLFAC
40
1.0000000000
9
$DIMTXT
40
3.5000000000
9
$DIMTOL
70
1
9
$DIMTFAC
40
0.6000000000
9
$DIMTP
40
0.0050000000
9
$DIMTM
40
0.0050000000
9
$HANDSEED
5
557
0
ENDSEC
0
SECTION
2
CLASSES
0
ENDSEC
0
SECTION
2
TABLES
0
TABLE
2
VPORT
5
8
100
AcDbSymbolTable
70
2
0
VPORT
5
1F4
100
AcDbSymbolTableRecord
100
AcDbViewportTableRecord
2
*ACTIVE
70
0
10
0.0
20
0.0
11
1.0
21
1.0
12
210.0000000000
22
148.5000000000
13
0.0
23
0.0
14
1.0
24
1.0
15
0.0
25
0.0
16
0.0
26
0.0
36
1.0
17
0.0
27
0.0
37
0.0
40
297.0000000000
41
1.4141414141
42
50.0
43
0.0
44
0.0
50
0.0
51
0.0
71
0
72
100
73
1
74
1
75
0
76
0
77
0
78
0
0
ENDTAB
0
TABLE
2
LTYPE
5
5
100
AcDbSymbolTable
70
6
0
LTYPE
5
14
100
AcDbSymbolTableRecord
100
AcDbLinetypeTableRecord
2
BYBLOCK
70
0
3

72
65
73
0
40
0.0
0
LTYPE
5
15
100
AcDbSymbolTableRecord
100
AcDbLinetypeTableRecord
2
BYLAYER
70
0
3

72
65
73
0
40
0.0
0
LTYPE
5
16
100
AcDbSymbolTableRecord
100
AcDbLinetypeTableRecord
2
CONTINUOUS
70
64
3
Solid line
72
65
73
0
40
0
0
LTYPE
5
1F5
100
AcDbSymbolTableRecord
100
AcDbLinetypeTableRecord
2
CENTER
70
64
3
____ _ ____ _ ____ _ ____ _ ____ _ ____ _ ____
72
65
73
4
40
0.6
49
0.375
74
0
49
-0.075
74
0
49
0.075
74
0
49
-0.075
74
0
0
LTYPE
5
1F6
100
AcDbSymbolTableRecord
100
AcDbLinetypeTableRecord
2
HIDDEN
70
64
3
- - - - - - - - - - - - - - - - - - - -
72
65
73
2
40
0.2
49
0.1
74
0
49
-0.1
74
0
0
LTYPE
5
1F7
100
AcDbSymbolTableRecord
100
AcDbLinetypeTableRecord
2
PHANTOM
70
64
3
_____ _ _ _____ _ _ _____ _ _ _____
72
65
73
6
40
0.8
49
0.45
74
0
49
-0.05
74
0
49
0.1
74
0
49
-0.05
74
0
49
0.1
74
0
49
-0.05
74
0
0
LTYPE
5
1F8
100
AcDbSymbolTableRecord
100
AcDbLinetypeTableRecord
2
DOT
70
64
3
. . . . . . . . . . . . . . . . . . . .
72
65
73
2
40
0.2
49
0.1
74
0
49
-0.1
74
0
0
LTYPE
5
1F9
100
AcDbSymbolTableRecord
100
AcDbLinetypeTableRecord
2
DASHED
70
64
3
- - - - - - - - - - - - - - - - - - - -
72
65
73
2
40
0.2
49
0.1
74
0
49
-0.1
74
0
0
ENDTAB
0
TABLE
2
LAYER
5
2
100
AcDbSymbolTable
70
36
0
LAYER
5
10
100
AcDbSymbolTableRecord
100
AcDbLayerTableRecord
2
0
70
0
62
7
6
CONTINUOUS
0
LAYER
5
1FA
100
AcDbSymbolTableRecord
100
AcDbLayerTableRecord
2
DEFAULT_1
70
0
62
7
6
CENTER
0
LAYER
5
1FB
100
AcDbSymbolTableRecord
100
AcDbLayerTableRecord
2
DEFAULT_2
70
0
62
8
6
HIDDEN
0
LAYER
5
1FC
100
AcDbSymbolTableRecord
100
AcDbLayerTableRecord
2
DEFAULT_3
70
0
62
7
6
PHANTOM
0
ENDTAB
0
TABLE
2
STYLE
5
3
100
AcDbSymbolTable
70
1
0
STYLE
5
11
100
AcDbSymbolTableRecord
100
AcDbTextStyleTableRecord
2
STANDARD
70
0
40
0.0
41
1.0
50
0.0
71
0
42
0.0
3
txt
4

0
STYLE
5
1FD
100
AcDbSymbolTableRecord
100
AcDbTextStyleTableRecord
2
TEXTSTYLE_0
70
0
40
0.0
41
0.80
50
0.0
71
0
42
0.2
3
txt
4

0
ENDTAB
0
TABLE
2
VIEW
5
6
100
AcDbSymbolTable
70
0
0
ENDTAB
0
TABLE
2
UCS
5
7
100
AcDbSymbolTable
70
0
0
ENDTAB
0
TABLE
2
APPID
5
9
100
AcDbSymbolTable
70
1
0
APPID
5
1FE
100
AcDbSymbolTableRecord
100
AcDbRegAppTableRecord
2
ACAD
70
0
0
ENDTAB
0
TABLE
2
DIMSTYLE
5
A
100
AcDbSymbolTable
70
1
0
DIMSTYLE
105
1FF
100
AcDbSymbolTableRecord
100
AcDbDimStyleTableRecord
2
STANDARD
70
0
3

4

5

6

7

40
1.0
41
0.18
42
0.0625
43
0.38
44
0.18
45
0.0
46
0.0
47
0.0050000000
48
0.0050000000
140
3.5000000000
141
0.09
142
0.0
143
25.4
144
1.0000000000
145
0.0
146
0.6000000000
147
0.09
71
1
72
0
73
1
74
1
75
0
76
0
77
0
78
0
170
0
171
2
172
0
173
0
174
0
175
0
176
0
177
0
178
0
270
2
271
3
272
4
273
2
274
2
340
11
275
0
280
0
281
0
282
0
283
1
284
0
285
0
286
0
287
3
288
0
0
ENDTAB
0
TABLE
2
BLOCK_RECORD
5
1
100
AcDbSymbolTable
70
0
0
BLOCK_RECORD
5
1B
100
AcDbSymbolTableRecord
100
AcDbBlockTableRecord
2
*MODEL_SPACE
0
BLOCK_RECORD
5
1C
100
AcDbSymbolTableRecord
100
AcDbBlockTableRecord
2
*PAPER_SPACE
0
ENDTAB
0
ENDSEC
0
SECTION
2
BLOCKS
0
BLOCK
5
1E
100
AcDbEntity
8
0
100
AcDbBlockBegin
2
*MODEL_SPACE
70
0
10
0.0
20
0.0
30
0.0
3
*MODEL_SPACE
1

0
ENDBLK
5
1F
100
AcDbEntity
8
0
100
AcDbBlockEnd
0
BLOCK
5
20
100
AcDbEntity
8
0
100
AcDbBlockBegin
2
*PAPER_SPACE
70
0
10
0.0
20
0.0
30
0.0
3
*PAPER_SPACE
1

0
ENDBLK
5
21
100
AcDbEntity
8
0
100
AcDbBlockEnd
0
ENDSEC
0
SECTION
2
ENTITIES
0
TEXT
5
200
100
AcDbEntity
8
0
100
AcDbText
62
2
6
CONTINUOUS
10
73.4235283326
20
-102.4608107749
7
TEXTSTYLE_0
40
8.0000000000
1
RUD VLBG 8t-M36
72
5
11
165.6140045231
21
-102.4608107749
100
AcDbText
0
TEXT
5
201
100
AcDbEntity
8
0
100
AcDbText
62
2
6
CONTINUOUS
10
174.0588232454
20
135.2301714954
7
TEXTSTYLE_0
40
8.0000000000
1
RUD VLBG 8t-M36
50
90.0000000000
72
5
11
174.0588232454
21
227.4206476859
100
AcDbText
0
TEXT
5
202
100
AcDbEntity
8
0
100
AcDbText
62
2
6
CONTINUOUS
10
327.4078440649
20
134.2717401153
7
TEXTSTYLE_0
40
8.0000000000
1
RUD VLBG 8t-M36
50
90.0000000000
72
5
11
327.4078440649
21
226.4622163057
100
AcDbText
0
LINE
5
203
100
AcDbEntity
8
0
100
AcDbLine
62
7
6
CONTINUOUS
10
0.0000000000
20
0.0000000000
11
0.0000000000
21
297.0000000000
0
LINE
5
204
100
AcDbEntity
8
0
100
AcDbLine
62
7
6
CONTINUOUS
10
0.0000000000
20
0.0000000000
11
420.0000000000
21
0.0000000000
0
LINE
5
205
100
AcDbEntity
8
0
100
AcDbLine
62
7
6
CONTINUOUS
10
0.0000000000
20
297.0000000000
11
420.0000000000
21
297.0000000000
0
LINE
5
206
100
AcDbEntity
8
0
100
AcDbLine
62
7
6
CONTINUOUS
10
420.0000000000
20
0.0000000000
11
420.0000000000
21
297.0000000000
0
LINE
5
207
100
AcDbEntity
8
0
100
AcDbLine
62
7
6
CONTINUOUS
10
133.8363861743
20
4.3354568922
11
102.7433861743
21
4.3354568922
0
LINE
5
208
100
AcDbEntity
8
0
100
AcDbLine
62
7
6
CONTINUOUS
10
100.2898861743
20
7.8354568922
11
136.2898861743
21
7.8354568922
0
LINE
5
209
100
AcDbEntity
8
0
100
AcDbLine
62
7
6
CONTINUOUS
10
103.7898861743
20
4.3354568922
11
100.2898861743
21
7.8354568922
0
LINE
5
20A
100
AcDbEntity
8
0
100
AcDbLine
62
7
6
CONTINUOUS
10
153.2898861743
20
67.3354568922
11
83.2898861743
21
67.3354568922
0
LINE
5
20B
100
AcDbEntity
8
0
100
AcDbLine
62
7
6
CONTINUOUS
10
153.2898861743
20
75.3354568922
11
83.2898861743
21
75.3354568922
0
LINE
5
20C
100
AcDbEntity
8
0
100
AcDbLine
62
7
6
CONTINUOUS
10
81.7898861743
20
75.8354568922
11
154.7898861743
21
75.8354568922
0
LINE
5
20D
100
AcDbEntity
8
0
100
AcDbLine
62
7
6
CONTINUOUS
10
57.2898861743
20
250.6887824535
11
57.2898861743
21
117.5854802436
0
LINE
5
20E
100
AcDbEntity
8
0
100
AcDbLine
62
7
6
CONTINUOUS
10
77.2898861743
20
242.4125003575
11
77.2898861743
21
129.0854568922
0
LINE
5
20F
100
AcDbEntity
8
0
100
AcDbLine
62
7
6
CONTINUOUS
10
77.2898861743
20
242.4125003575
11
77.3373955578
21
243.3861175969
0
LINE
5
210
100
AcDbEntity
8
DEFAULT_1
100
AcDbLine
62
2
6
CENTER
10
73.4235283326
20
105.8354568922
11
174.5020334403
21
105.8354568922
0
LINE
5
211
100
AcDbEntity
8
0
100
AcDbLine
62
7
6
CONTINUOUS
10
79.7898861743
20
77.8354568922
11
79.7898861743
21
133.8354568922
0
LINE
5
212
100
AcDbEntity
8
0
100
AcDbLine
62
7
6
CONTINUOUS
10
83.2898861743
20
144.3354568922
11
83.2898861743
21
136.3354568922
0
LINE
5
213
100
AcDbEntity
8
0
100
AcDbLine
62
7
6
CONTINUOUS
10
83.2898861743
20
75.3354568922
11
83.2898861743
21
67.3354568922
0
LINE
5
214
100
AcDbEntity
8
0
100
AcDbLine
62
7
6
CONTINUOUS
10
86.5356213688
20
144.8354568922
11
86.5356213688
21
164.3792559616
0
LINE
5
215
100
AcDbEntity
8
0
100
AcDbLine
62
7
6
CONTINUOUS
10
86.5356213688
20
164.3792559616
11
90.7898861743
21
166.8354568922
0
LINE
5
216
100
AcDbEntity
8
0
100
AcDbLine
62
7
6
CONTINUOUS
10
92.7398861743
20
144.3354568922
11
92.7398861743
21
144.8354568922
0
LINE
5
217
100
AcDbEntity
8
0
100
AcDbLine
62
7
6
CONTINUOUS
10
93.2898861743
20
136.3354568922
11
93.2898861743
21
135.8354568922
0
LINE
5
218
100
AcDbEntity
8
0
100
AcDbLine
62
7
6
CONTINUOUS
10
93.2898861743
20
75.8354568922
11
93.2898861743
21
75.3354568922
0
LINE
5
219
100
AcDbEntity
8
0
100
AcDbLine
62
7
6
CONTINUOUS
10
95.2256436895
20
166.8354568922
11
95.2256436895
21
167.0354568922
0
LINE
5
21A
100
AcDbEntity
8
0
100
AcDbLine
62
7
6
CONTINUOUS
10
100.2898861743
20
7.8354568922
11
100.2898861743
21
67.3354568922
0
LINE
5
21B
100
AcDbEntity
8
0
100
AcDbLine
62
7
6
CONTINUOUS
10
102.4127537715
20
144.8354568922
11
102.4127537715
21
164.3792559616
0
LINE
5
21C
100
AcDbEntity
8
0
100
AcDbLine
62
2
6
CONTINUOUS
10
102.7433861743
20
67.3354568922
11
102.7433861743
21
4.3354568922
0
LINE
5
21D
100
AcDbEntity
8
0
100
AcDbLine
62
7
6
CONTINUOUS
10
106.4820129619
20
166.8354568922
11
106.4820129619
21
167.0354568922
0
LINE
5
21E
100
AcDbEntity
8
0
100
AcDbLine
62
7
6
CONTINUOUS
10
81.7898861743
20
135.8354568922
11
154.7898861743
21
135.8354568922
0
LINE
5
21F
100
AcDbEntity
8
0
100
AcDbLine
62
7
6
CONTINUOUS
10
153.2898861743
20
136.3354568922
11
83.2898861743
21
136.3354568922
0
LINE
5
220
100
AcDbEntity
8
0
100
AcDbLine
62
7
6
CONTINUOUS
10
110.3274882059
20
166.8354568922
11
110.3274882059
21
167.0354568922
0
LINE
5
221
100
AcDbEntity
8
0
100
AcDbLine
62
7
6
CONTINUOUS
10
116.7324938505
20
166.8354568922
11
116.7324938505
21
167.0354568922
0
LINE
5
222
100
AcDbEntity
8
0
100
AcDbLine
62
7
6
CONTINUOUS
10
117.6888923227
20
166.8354568922
11
117.6888923227
21
167.0354568922
0
LINE
5
223
100
AcDbEntity
8
DEFAULT_1
100
AcDbLine
62
2
6
CENTER
10
118.2898861743
20
147.3354568922
11
118.2898861743
21
1.3354568922
0
LINE
5
224
100
AcDbEntity
8
0
100
AcDbLine
62
7
6
CONTINUOUS
10
153.2898861743
20
144.3354568922
11
83.2898861743
21
144.3354568922
0
LINE
5
225
100
AcDbEntity
8
0
100
AcDbLine
62
7
6
CONTINUOUS
10
86.5356213688
20
144.8354568922
11
150.0441509797
21
144.8354568922
0
LINE
5
226
100
AcDbEntity
8
0
100
AcDbLine
62
7
6
CONTINUOUS
10
121.4673774632
20
166.8354568922
11
121.4673774632
21
167.0354568922
0
LINE
5
227
100
AcDbEntity
8
0
100
AcDbLine
62
7
6
CONTINUOUS
10
122.6990106666
20
166.8354568922
11
122.6990106666
21
167.0354568922
0
LINE
5
228
100
AcDbEntity
8
0
100
AcDbLine
62
7
6
CONTINUOUS
10
127.1127053481
20
166.8354568922
11
127.1127053481
21
167.0354568922
0
LINE
5
229
100
AcDbEntity
8
0
100
AcDbLine
62
7
6
CONTINUOUS
10
130.3168337136
20
166.8354568922
11
130.3168337136
21
167.0354568922
0
LINE
5
22A
100
AcDbEntity
8
0
100
AcDbLine
62
2
6
CONTINUOUS
10
133.8363861743
20
67.3354568922
11
133.8363861743
21
4.3354568922
0
LINE
5
22B
100
AcDbEntity
8
0
100
AcDbLine
62
7
6
CONTINUOUS
10
134.1670185770
20
144.8354568922
11
134.1670185770
21
164.3792559616
0
LINE
5
22C
100
AcDbEntity
8
0
100
AcDbLine
62
7
6
CONTINUOUS
10
136.2898861743
20
7.8354568922
11
136.2898861743
21
67.3354568922
0
LINE
5
22D
100
AcDbEntity
8
0
100
AcDbLine
62
7
6
CONTINUOUS
10
90.7902083971
20
166.8354568922
11
145.7895639514
21
166.8354568922
0
LINE
5
22E
100
AcDbEntity
8
0
100
AcDbLine
62
7
6
CONTINUOUS
10
95.2256436895
20
167.0354568922
11
106.4820129619
21
167.0354568922
0
LINE
5
22F
100
AcDbEntity
8
0
100
AcDbLine
62
7
6
CONTINUOUS
10
110.3274882059
20
167.0354568922
11
116.7324938505
21
167.0354568922
0
LINE
5
230
100
AcDbEntity
8
0
100
AcDbLine
62
7
6
CONTINUOUS
10
117.6888923227
20
167.0354568922
11
121.4673774632
21
167.0354568922
0
LINE
5
231
100
AcDbEntity
8
0
100
AcDbLine
62
7
6
CONTINUOUS
10
122.6990106666
20
167.0354568922
11
127.1127053481
21
167.0354568922
0
LINE
5
232
100
AcDbEntity
8
0
100
AcDbLine
62
7
6
CONTINUOUS
10
130.3168337136
20
167.0354568922
11
141.0318101040
21
167.0354568922
0
LINE
5
233
100
AcDbEntity
8
0
100
AcDbLine
62
7
6
CONTINUOUS
10
141.0318101040
20
166.8354568922
11
141.0318101040
21
167.0354568922
0
LINE
5
234
100
AcDbEntity
8
0
100
AcDbLine
62
7
6
CONTINUOUS
10
143.2898861743
20
136.3354568922
11
143.2898861743
21
135.8354568922
0
LINE
5
235
100
AcDbEntity
8
0
100
AcDbLine
62
7
6
CONTINUOUS
10
143.2898861743
20
75.8354568922
11
143.2898861743
21
75.3354568922
0
LINE
5
236
100
AcDbEntity
8
0
100
AcDbLine
62
7
6
CONTINUOUS
10
143.8398861743
20
144.3354568922
11
143.8398861743
21
144.8354568922
0
LINE
5
237
100
AcDbEntity
8
0
100
AcDbLine
62
7
6
CONTINUOUS
10
150.0441509797
20
144.8354568922
11
150.0441509797
21
164.3792559616
0
LINE
5
238
100
AcDbEntity
8
0
100
AcDbLine
62
7
6
CONTINUOUS
10
150.0441509797
20
164.3792559616
11
145.7898861743
21
166.8354568922
0
LINE
5
239
100
AcDbEntity
8
0
100
AcDbLine
62
7
6
CONTINUOUS
10
153.2898861743
20
144.3354568922
11
153.2898861743
21
136.3354568922
0
LINE
5
23A
100
AcDbEntity
8
0
100
AcDbLine
62
7
6
CONTINUOUS
10
153.2898861743
20
75.3354568922
11
153.2898861743
21
67.3354568922
0
LINE
5
23B
100
AcDbEntity
8
0
100
AcDbLine
62
7
6
CONTINUOUS
10
156.7898861743
20
133.8354568922
11
156.7898861743
21
77.8354568922
0
LINE
5
23C
100
AcDbEntity
8
0
100
AcDbLine
62
7
6
CONTINUOUS
10
159.2898861743
20
129.0854568922
11
159.2898861743
21
242.4125003575
0
LINE
5
23D
100
AcDbEntity
8
0
100
AcDbLine
62
7
6
CONTINUOUS
10
159.2898861743
20
242.4125003575
11
159.2423767907
21
243.3861175969
0
LINE
5
23E
100
AcDbEntity
8
0
100
AcDbLine
62
7
6
CONTINUOUS
10
179.2898861743
20
250.6887824535
11
179.2898861743
21
117.5854802436
0
LINE
5
23F
100
AcDbEntity
8
0
100
AcDbLine
62
7
6
CONTINUOUS
10
132.7898861743
20
4.3354568922
11
136.2898861743
21
7.8354568922
0
LINE
5
240
100
AcDbEntity
8
0
100
AcDbLine
62
7
6
CONTINUOUS
10
295.7177307417
20
4.3354568922
11
264.6247307417
21
4.3354568922
0
LINE
5
241
100
AcDbEntity
8
0
100
AcDbLine
62
7
6
CONTINUOUS
10
262.1712307417
20
7.8354568922
11
298.1712307417
21
7.8354568922
0
LINE
5
242
100
AcDbEntity
8
0
100
AcDbLine
62
7
6
CONTINUOUS
10
265.6712307417
20
4.3354568922
11
262.1712307417
21
7.8354568922
0
LINE
5
243
100
AcDbEntity
8
0
100
AcDbLine
62
7
6
CONTINUOUS
10
245.1712307417
20
67.3354568922
11
315.1712307417
21
67.3354568922
0
LINE
5
244
100
AcDbEntity
8
0
100
AcDbLine
62
7
6
CONTINUOUS
10
245.1712307417
20
75.3354568922
11
315.1712307417
21
75.3354568922
0
LINE
5
245
100
AcDbEntity
8
0
100
AcDbLine
62
7
6
CONTINUOUS
10
240.1712307447
20
75.8354568922
11
323.1712307417
21
75.8354568922
0
LINE
5
246
100
AcDbEntity
8
0
100
AcDbLine
62
7
6
CONTINUOUS
10
237.6713151379
20
92.1943169717
11
237.6712307442
21
92.4014715758
0
LINE
5
247
100
AcDbEntity
8
0
100
AcDbLine
62
7
6
CONTINUOUS
10
237.6714381719
20
97.5134657208
11
237.6714381719
21
98.1517635171
0
LINE
5
248
100
AcDbEntity
8
0
100
AcDbLine
62
7
6
CONTINUOUS
10
237.6726741225
20
93.2581467811
11
237.6726741225
21
93.8964445774
0
LINE
5
249
100
AcDbEntity
8
0
100
AcDbLine
62
7
6
CONTINUOUS
10
237.6729715888
20
113.0683933432
11
237.6729715888
21
114.3449890847
0
LINE
5
24A
100
AcDbEntity
8
0
100
AcDbLine
62
7
6
CONTINUOUS
10
237.6815202047
20
113.0683933432
11
237.6815202047
21
123.0683933432
0
LINE
5
24B
100
AcDbEntity
8
0
100
AcDbLine
62
7
6
CONTINUOUS
10
237.7148506534
20
114.3449890847
11
237.7148506534
21
117.5364785130
0
LINE
5
24C
100
AcDbEntity
8
0
100
AcDbLine
62
7
6
CONTINUOUS
10
237.7148506534
20
118.8130741055
11
237.7148506534
21
121.7917977507
0
LINE
5
24D
100
AcDbEntity
8
0
100
AcDbLine
62
7
6
CONTINUOUS
10
237.7226595184
20
96.6624019925
11
237.7226595184
21
97.5134657208
0
LINE
5
24E
100
AcDbEntity
8
0
100
AcDbLine
62
7
6
CONTINUOUS
10
237.8441857162
20
92.4070829038
11
237.8441857162
21
96.6624019925
0
LINE
5
24F
100
AcDbEntity
8
0
100
AcDbLine
62
7
6
CONTINUOUS
10
237.8441857162
20
97.5134657208
11
237.8441857162
21
99.2155937735
0
LINE
5
250
100
AcDbEntity
8
0
100
AcDbLine
62
7
6
CONTINUOUS
10
237.9567516703
20
92.8326149170
11
237.9567516703
21
96.6624019925
0
LINE
5
251
100
AcDbEntity
8
0
100
AcDbLine
62
7
6
CONTINUOUS
10
237.9567516703
20
97.5134657208
11
237.9567516703
21
99.2155937735
0
LINE
5
252
100
AcDbEntity
8
0
100
AcDbLine
62
7
6
CONTINUOUS
10
238.1041658654
20
115.6215848263
11
238.1041658654
21
116.2598826225
0
LINE
5
253
100
AcDbEntity
8
0
100
AcDbLine
62
7
6
CONTINUOUS
10
238.1041658654
20
120.0896696980
11
238.1041658654
21
120.5152015622
0
LINE
5
254
100
AcDbEntity
8
0
100
AcDbLine
62
7
6
CONTINUOUS
10
238.1712307417
20
77.8354568922
11
238.1712307417
21
90.7665140269
0
LINE
5
255
100
AcDbEntity
8
0
100
AcDbLine
62
7
6
CONTINUOUS
10
238.1712307417
20
99.2155937735
11
238.1712307417
21
113.0683933432
0
LINE
5
256
100
AcDbEntity
8
0
100
AcDbLine
62
7
6
CONTINUOUS
10
238.1712307417
20
123.0683933432
11
238.1712307417
21
133.8354568922
0
LINE
5
257
100
AcDbEntity
8
0
100
AcDbLine
62
7
6
CONTINUOUS
10
238.2312675475
20
90.7049552981
11
238.2312675475
21
91.5560191010
0
LINE
5
258
100
AcDbEntity
8
0
100
AcDbLine
62
7
6
CONTINUOUS
10
238.2586083313
20
115.4088188942
11
238.2586083313
21
116.4726485546
0
LINE
5
259
100
AcDbEntity
8
0
100
AcDbLine
62
7
6
CONTINUOUS
10
238.2586083313
20
119.8769037659
11
238.2586083313
21
120.7279680903
0
LINE
5
25A
100
AcDbEntity
8
0
100
AcDbLine
62
7
6
CONTINUOUS
10
238.3049796658
20
96.6624019925
11
238.3049796658
21
97.5134657208
0
LINE
5
25B
100
AcDbEntity
8
0
100
AcDbLine
62
7
6
CONTINUOUS
10
238.4604876218
20
92.8326149170
11
238.4604876218
21
96.6624019925
0
LINE
5
25C
100
AcDbEntity
8
0
100
AcDbLine
62
7
6
CONTINUOUS
10
238.4604876218
20
97.5134657208
11
238.4604876218
21
99.2155937735
0
LINE
5
25D
100
AcDbEntity
8
0
100
AcDbLine
62
7
6
CONTINUOUS
10
238.5021285384
20
116.4726485546
11
238.5021285384
21
119.6641378339
0
LINE
5
25E
100
AcDbEntity
8
0
100
AcDbLine
62
7
6
CONTINUOUS
10
238.7134184639
20
116.4726485546
11
238.7134184639
21
119.6641378339
0
LINE
5
25F
100
AcDbEntity
8
0
100
AcDbLine
62
7
6
CONTINUOUS
10
238.7386488316
20
90.7049552981
11
238.7386488316
21
91.5560191010
0
LINE
5
260
100
AcDbEntity
8
0
100
AcDbLine
62
7
6
CONTINUOUS
10
238.8133488461
20
96.6624019925
11
238.8133488461
21
97.5134657208
0
LINE
5
261
100
AcDbEntity
8
0
100
AcDbLine
62
7
6
CONTINUOUS
10
239.2273325349
20
116.4726485546
11
239.2273325349
21
119.6641378339
0
LINE
5
262
100
AcDbEntity
8
0
100
AcDbLine
62
7
6
CONTINUOUS
10
239.4993130640
20
117.3237125809
11
239.4993130640
21
118.6003081734
0
LINE
5
263
100
AcDbEntity
8
0
100
AcDbLine
62
7
6
CONTINUOUS
10
239.9811728757
20
115.6215848263
11
239.9811728757
21
117.3237125809
0
LINE
5
264
100
AcDbEntity
8
0
100
AcDbLine
62
7
6
CONTINUOUS
10
240.3368789214
20
115.4088188942
11
240.3368789214
21
118.6003081734
0
LINE
5
265
100
AcDbEntity
8
0
100
AcDbLine
62
7
6
CONTINUOUS
10
240.8740922778
20
115.4088188942
11
240.8740922778
21
118.6003081734
0
LINE
5
266
100
AcDbEntity
8
0
100
AcDbLine
62
7
6
CONTINUOUS
10
245.1712307417
20
144.3354568922
11
245.1712307417
21
136.3354568922
0
LINE
5
267
100
AcDbEntity
8
0
100
AcDbLine
62
7
6
CONTINUOUS
10
245.1712307417
20
75.3354568922
11
245.1712307417
21
67.3354568922
0
LINE
5
268
100
AcDbEntity
8
0
100
AcDbLine
62
7
6
CONTINUOUS
10
237.6713151379
20
94.9602745358
11
237.6712307442
21
94.7531199027
0
LINE
5
269
100
AcDbEntity
8
0
100
AcDbLine
62
7
6
CONTINUOUS
10
237.7711167651
20
90.7049552981
11
238.1712307417
21
90.7049552981
0
LINE
5
26A
100
AcDbEntity
8
0
100
AcDbLine
62
7
6
CONTINUOUS
10
238.2312675475
20
90.7049552981
11
238.7386488316
21
90.7049552981
0
LINE
5
26B
100
AcDbEntity
8
0
100
AcDbLine
62
7
6
CONTINUOUS
10
237.7104146486
20
90.9177212488
11
238.0379277510
21
90.9177212488
0
LINE
5
26C
100
AcDbEntity
8
0
100
AcDbLine
62
7
6
CONTINUOUS
10
237.6776239154
20
91.5560191010
11
237.8858155760
21
91.5560191010
0
LINE
5
26D
100
AcDbEntity
8
0
100
AcDbLine
62
7
6
CONTINUOUS
10
238.2312675475
20
91.5560191010
11
238.7386488316
21
91.5560191010
0
LINE
5
26E
100
AcDbEntity
8
0
100
AcDbLine
62
7
6
CONTINUOUS
10
238.0672729845
20
91.7687851075
11
238.5724702038
21
91.7687851075
0
LINE
5
26F
100
AcDbEntity
8
0
100
AcDbLine
62
7
6
CONTINUOUS
10
237.6713151379
20
92.1943169717
11
237.8541698177
21
92.1943169717
0
LINE
5
270
100
AcDbEntity
8
0
100
AcDbLine
62
7
6
CONTINUOUS
10
237.9826696223
20
92.1943169717
11
238.4867474862
21
92.1943169717
0
LINE
5
271
100
AcDbEntity
8
0
100
AcDbLine
62
7
6
CONTINUOUS
10
237.9567516703
20
92.8326149170
11
238.4604876218
21
92.8326149170
0
LINE
5
272
100
AcDbEntity
8
0
100
AcDbLine
62
7
6
CONTINUOUS
10
237.6726741225
20
93.2581467811
11
237.8441857162
21
93.2581467811
0
LINE
5
273
100
AcDbEntity
8
0
100
AcDbLine
62
7
6
CONTINUOUS
10
237.6726741225
20
93.8964445774
11
237.8441857162
21
93.8964445774
0
LINE
5
274
100
AcDbEntity
8
0
100
AcDbLine
62
7
6
CONTINUOUS
10
237.6713151379
20
94.9602745358
11
237.8441857162
21
94.9602745358
0
LINE
5
275
100
AcDbEntity
8
0
100
AcDbLine
62
7
6
CONTINUOUS
10
237.6819533954
20
95.5985723321
11
237.8441857162
21
95.5985723321
0
LINE
5
276
100
AcDbEntity
8
0
100
AcDbLine
62
7
6
CONTINUOUS
10
237.6939542906
20
95.8113382642
11
237.8441857162
21
95.8113382642
0
LINE
5
277
100
AcDbEntity
8
0
100
AcDbLine
62
7
6
CONTINUOUS
10
237.6819533954
20
96.0241041962
11
237.8441857162
21
96.0241041962
0
LINE
5
278
100
AcDbEntity
8
0
100
AcDbLine
62
7
6
CONTINUOUS
10
237.6723050105
20
96.6624019925
11
237.8441857162
21
96.6624019925
0
LINE
5
279
100
AcDbEntity
8
0
100
AcDbLine
62
7
6
CONTINUOUS
10
237.9567516703
20
96.6624019925
11
238.8133488461
21
96.6624019925
0
LINE
5
27A
100
AcDbEntity
8
0
100
AcDbLine
62
7
6
CONTINUOUS
10
324.0104212116
20
92.5856709245
11
322.3320402718
21
92.5856709245
0
LINE
5
27B
100
AcDbEntity
8
0
100
AcDbLine
62
7
6
CONTINUOUS
10
252.6712307417
20
144.8354568922
11
252.6712307417
21
166.8354568922
0
LINE
5
27C
100
AcDbEntity
8
0
100
AcDbLine
62
7
6
CONTINUOUS
10
254.6212307417
20
144.3354568922
11
254.6212307417
21
144.8354568922
0
LINE
5
27D
100
AcDbEntity
8
0
100
AcDbLine
62
7
6
CONTINUOUS
10
255.1712307417
20
136.3354568922
11
255.1712307417
21
135.8354568922
0
LINE
5
27E
100
AcDbEntity
8
0
100
AcDbLine
62
7
6
CONTINUOUS
10
255.1712307417
20
75.8354568922
11
255.1712307417
21
75.3354568922
0
LINE
5
27F
100
AcDbEntity
8
0
100
AcDbLine
62
7
6
CONTINUOUS
10
237.6714381719
20
97.5134657208
11
237.8441857162
21
97.5134657208
0
LINE
5
280
100
AcDbEntity
8
0
100
AcDbLine
62
7
6
CONTINUOUS
10
237.9567516703
20
97.5134657208
11
238.8133488461
21
97.5134657208
0
LINE
5
281
100
AcDbEntity
8
0
100
AcDbLine
62
7
6
CONTINUOUS
10
237.6714381719
20
98.1517635171
11
237.8441857162
21
98.1517635171
0
LINE
5
282
100
AcDbEntity
8
0
100
AcDbLine
62
7
6
CONTINUOUS
10
237.6723050105
20
99.2155937735
11
238.4604876218
21
99.2155937735
0
LINE
5
283
100
AcDbEntity
8
0
100
AcDbLine
62
7
6
CONTINUOUS
10
237.6819533954
20
99.8538915698
11
238.1820926897
21
99.8538915698
0
LINE
5
284
100
AcDbEntity
8
0
100
AcDbLine
62
7
6
CONTINUOUS
10
237.7203188683
20
100.4921893660
11
238.1712307417
21
100.4921893660
0
LINE
5
285
100
AcDbEntity
8
0
100
AcDbLine
62
7
6
CONTINUOUS
10
237.7866170029
20
100.7049552981
11
238.1712307417
21
100.7049552981
0
LINE
5
286
100
AcDbEntity
8
DEFAULT_1
100
AcDbLine
62
2
6
CENTER
10
323.1712307417
20
105.8354568922
11
306.6616134407
21
105.8354568922
0
LINE
5
287
100
AcDbEntity
8
DEFAULT_1
100
AcDbLine
62
2
6
CENTER
10
323.1712307417
20
105.8354568922
11
339.0787944965
21
105.8354568922
0
LINE
5
288
100
AcDbEntity
8
0
100
AcDbLine
62
7
6
CONTINUOUS
10
257.2185584740
20
166.8354568922
11
257.2185584740
21
167.0354568922
0
LINE
5
289
100
AcDbEntity
8
0
100
AcDbLine
62
7
6
CONTINUOUS
10
262.1712307417
20
7.8354568922
11
262.1712307417
21
67.3354568922
0
LINE
5
28A
100
AcDbEntity
8
0
100
AcDbLine
62
2
6
CONTINUOUS
10
264.6247307417
20
67.3354568922
11
264.6247307417
21
4.3354568922
0
LINE
5
28B
100
AcDbEntity
8
0
100
AcDbLine
62
7
6
CONTINUOUS
10
237.6815202047
20
113.0683933432
11
238.4578021976
21
113.0683933432
0
LINE
5
28C
100
AcDbEntity
8
0
100
AcDbLine
62
7
6
CONTINUOUS
10
239.1213794574
20
113.0683933432
11
240.0755108394
21
113.0683933432
0
LINE
5
28D
100
AcDbEntity
8
0
100
AcDbLine
62
7
6
CONTINUOUS
10
238.0579964005
20
113.2811592939
11
238.5630706406
21
113.2811592939
0
LINE
5
28E
100
AcDbEntity
8
0
100
AcDbLine
62
7
6
CONTINUOUS
10
239.8137536911
20
113.2811592939
11
240.3432303214
21
113.2811592939
0
LINE
5
28F
100
AcDbEntity
8
0
100
AcDbLine
62
7
6
CONTINUOUS
10
240.0385126225
20
113.7066912140
11
240.5712856337
21
113.7066912140
0
LINE
5
290
100
AcDbEntity
8
0
100
AcDbLine
62
7
6
CONTINUOUS
10
238.1529842374
20
113.9194571461
11
238.6593205850
21
113.9194571461
0
LINE
5
291
100
AcDbEntity
8
0
100
AcDbLine
62
7
6
CONTINUOUS
10
237.7148506534
20
114.3449890847
11
237.9735670383
21
114.3449890847
0
LINE
5
292
100
AcDbEntity
8
0
100
AcDbLine
62
7
6
CONTINUOUS
10
239.1213794574
20
114.3449890847
11
239.5498525996
21
114.3449890847
0
LINE
5
293
100
AcDbEntity
8
0
100
AcDbLine
62
7
6
CONTINUOUS
10
238.9497194646
20
114.5577550168
11
239.4668974856
21
114.5577550168
0
LINE
5
294
100
AcDbEntity
8
0
100
AcDbLine
62
7
6
CONTINUOUS
10
240.2756370736
20
114.5577550168
11
240.8119329453
21
114.5577550168
0
LINE
5
295
100
AcDbEntity
8
0
100
AcDbLine
62
7
6
CONTINUOUS
10
238.2312005681
20
114.7705209489
11
238.5871542896
21
114.7705209489
0
LINE
5
296
100
AcDbEntity
8
0
100
AcDbLine
62
7
6
CONTINUOUS
10
238.8284144591
20
114.9832870300
11
239.3439117354
21
114.9832870300
0
LINE
5
297
100
AcDbEntity
8
0
100
AcDbLine
62
7
6
CONTINUOUS
10
238.2586083313
20
115.4088188942
11
238.5356247683
21
115.4088188942
0
LINE
5
298
100
AcDbEntity
8
0
100
AcDbLine
62
7
6
CONTINUOUS
10
240.3368789214
20
115.4088188942
11
240.8740922778
21
115.4088188942
0
LINE
5
299
100
AcDbEntity
8
0
100
AcDbLine
62
7
6
CONTINUOUS
10
238.7510529241
20
115.6215848263
11
239.2654840479
21
115.6215848263
0
LINE
5
29A
100
AcDbEntity
8
0
100
AcDbLine
62
7
6
CONTINUOUS
10
238.2586083313
20
116.4726485546
11
238.5021285384
21
116.4726485546
0
LINE
5
29B
100
AcDbEntity
8
0
100
AcDbLine
62
7
6
CONTINUOUS
10
238.7134184639
20
116.4726485546
11
239.2273325349
21
116.4726485546
0
LINE
5
29C
100
AcDbEntity
8
0
100
AcDbLine
62
7
6
CONTINUOUS
10
238.2312005681
20
117.1109466489
11
238.5021285384
21
117.1109466489
0
LINE
5
29D
100
AcDbEntity
8
0
100
AcDbLine
62
7
6
CONTINUOUS
10
239.4993130640
20
117.3237125809
11
239.9811728757
21
117.3237125809
0
LINE
5
29E
100
AcDbEntity
8
0
100
AcDbLine
62
7
6
CONTINUOUS
10
237.7148506534
20
117.5364785130
11
237.9735670383
21
117.5364785130
0
LINE
5
29F
100
AcDbEntity
8
0
100
AcDbLine
62
7
6
CONTINUOUS
10
238.1529842374
20
117.9620103772
11
238.5021285384
21
117.9620103772
0
LINE
5
2A0
100
AcDbEntity
8
0
100
AcDbLine
62
7
6
CONTINUOUS
10
238.1041658654
20
118.1747763093
11
238.5021285384
21
118.1747763093
0
LINE
5
2A1
100
AcDbEntity
8
0
100
AcDbLine
62
7
6
CONTINUOUS
10
238.1529842374
20
118.3875422414
11
238.5021285384
21
118.3875422414
0
LINE
5
2A2
100
AcDbEntity
8
0
100
AcDbLine
62
7
6
CONTINUOUS
10
239.4993130640
20
118.6003081734
11
240.8740922778
21
118.6003081734
0
LINE
5
2A3
100
AcDbEntity
8
0
100
AcDbLine
62
7
6
CONTINUOUS
10
237.7148506534
20
118.8130741055
11
237.9735670383
21
118.8130741055
0
LINE
5
2A4
100
AcDbEntity
8
0
100
AcDbLine
62
7
6
CONTINUOUS
10
238.2312005681
20
119.2386059697
11
238.5021285384
21
119.2386059697
0
LINE
5
2A5
100
AcDbEntity
8
0
100
AcDbLine
62
7
6
CONTINUOUS
10
238.7134184639
20
119.6641378339
11
239.2273325349
21
119.6641378339
0
LINE
5
2A6
100
AcDbEntity
8
0
100
AcDbLine
62
7
6
CONTINUOUS
10
238.2586083313
20
119.8769037659
11
238.5087765033
21
119.8769037659
0
LINE
5
2A7
100
AcDbEntity
8
0
100
AcDbLine
62
7
6
CONTINUOUS
10
238.7510529241
20
120.5152015622
11
239.2654840479
21
120.5152015622
0
LINE
5
2A8
100
AcDbEntity
8
0
100
AcDbLine
62
7
6
CONTINUOUS
10
239.9811728757
20
120.5152015622
11
240.8740922778
21
120.5152015622
0
LINE
5
2A9
100
AcDbEntity
8
0
100
AcDbLine
62
7
6
CONTINUOUS
10
238.2586083313
20
120.7279680903
11
238.5356247683
21
120.7279680903
0
LINE
5
2AA
100
AcDbEntity
8
0
100
AcDbLine
62
7
6
CONTINUOUS
10
238.8284144591
20
121.1534999545
11
239.3439117354
21
121.1534999545
0
LINE
5
2AB
100
AcDbEntity
8
0
100
AcDbLine
62
7
6
CONTINUOUS
10
238.2312005681
20
121.3662658866
11
238.5871542865
21
121.3662658866
0
LINE
5
2AC
100
AcDbEntity
8
0
100
AcDbLine
62
7
6
CONTINUOUS
10
238.9497194646
20
121.5790318186
11
239.4668974856
21
121.5790318186
0
LINE
5
2AD
100
AcDbEntity
8
0
100
AcDbLine
62
7
6
CONTINUOUS
10
240.2756370736
20
121.5790318186
11
240.8119329453
21
121.5790318186
0
LINE
5
2AE
100
AcDbEntity
8
0
100
AcDbLine
62
7
6
CONTINUOUS
10
237.7148506534
20
121.7917977507
11
237.9735670383
21
121.7917977507
0
LINE
5
2AF
100
AcDbEntity
8
0
100
AcDbLine
62
7
6
CONTINUOUS
10
239.1213794574
20
121.7917977507
11
239.5498525996
21
121.7917977507
0
LINE
5
2B0
100
AcDbEntity
8
0
100
AcDbLine
62
7
6
CONTINUOUS
10
238.1529842374
20
122.2173296149
11
238.6593205850
21
122.2173296149
0
LINE
5
2B1
100
AcDbEntity
8
0
100
AcDbLine
62
7
6
CONTINUOUS
10
240.0385126225
20
122.4300955470
11
240.5712856337
21
122.4300955470
0
LINE
5
2B2
100
AcDbEntity
8
0
100
AcDbLine
62
7
6
CONTINUOUS
10
238.0579964005
20
122.8556274111
11
238.5630706406
21
122.8556274111
0
LINE
5
2B3
100
AcDbEntity
8
0
100
AcDbLine
62
7
6
CONTINUOUS
10
239.8137536911
20
122.8556274111
11
240.3432303214
21
122.8556274111
0
LINE
5
2B4
100
AcDbEntity
8
0
100
AcDbLine
62
7
6
CONTINUOUS
10
237.6815202047
20
123.0683933432
11
238.4578021976
21
123.0683933432
0
LINE
5
2B5
100
AcDbEntity
8
0
100
AcDbLine
62
7
6
CONTINUOUS
10
239.1213794574
20
123.0683933432
11
240.0755108394
21
123.0683933432
0
LINE
5
2B6
100
AcDbEntity
8
0
100
AcDbLine
62
7
6
CONTINUOUS
10
280.1620717746
20
166.8354568922
11
280.1620717746
21
167.0354568922
0
LINE
5
2B7
100
AcDbEntity
8
DEFAULT_1
100
AcDbLine
62
2
6
CENTER
10
280.1712307417
20
144.8354568922
11
280.1712307417
21
1.3354568922
0
LINE
5
2B8
100
AcDbEntity
8
0
100
AcDbLine
62
7
6
CONTINUOUS
10
280.1712307417
20
144.8354568922
11
280.1712307417
21
164.3792559616
0
LINE
5
2B9
100
AcDbEntity
8
0
100
AcDbLine
62
7
6
CONTINUOUS
10
313.1712307417
20
135.8354568922
11
240.1712307447
21
135.8354568922
0
LINE
5
2BA
100
AcDbEntity
8
0
100
AcDbLine
62
7
6
CONTINUOUS
10
245.1712307417
20
136.3354568922
11
313.1712307417
21
136.3354568922
0
LINE
5
2BB
100
AcDbEntity
8
0
100
AcDbLine
62
2
6
CONTINUOUS
10
295.7177307417
20
67.3354568922
11
295.7177307417
21
4.3354568922
0
LINE
5
2BC
100
AcDbEntity
8
0
100
AcDbLine
62
7
6
CONTINUOUS
10
245.1712307417
20
144.3354568922
11
313.1712307417
21
144.3354568922
0
LINE
5
2BD
100
AcDbEntity
8
0
100
AcDbLine
62
7
6
CONTINUOUS
10
252.6712307417
20
144.8354568922
11
307.6712307417
21
144.8354568922
0
LINE
5
2BE
100
AcDbEntity
8
0
100
AcDbLine
62
7
6
CONTINUOUS
10
309.9621586078
20
104.1099388580
11
309.9607171674
21
104.1277271710
0
LINE
5
2BF
100
AcDbEntity
8
0
100
AcDbLine
62
7
6
CONTINUOUS
10
298.1712307417
20
7.8354568922
11
298.1712307417
21
67.3354568922
0
LINE
5
2C0
100
AcDbEntity
8
0
100
AcDbLine
62
7
6
CONTINUOUS
10
305.1712307417
20
136.3354568922
11
305.1712307417
21
135.8354568922
0
LINE
5
2C1
100
AcDbEntity
8
0
100
AcDbLine
62
7
6
CONTINUOUS
10
305.1712307417
20
75.8354568922
11
305.1712307417
21
75.3354568922
0
LINE
5
2C2
100
AcDbEntity
8
0
100
AcDbLine
62
7
6
CONTINUOUS
10
305.7212307417
20
144.3354568922
11
305.7212307417
21
144.8354568922
0
LINE
5
2C3
100
AcDbEntity
8
0
100
AcDbLine
62
7
6
CONTINUOUS
10
307.6712307417
20
144.8354568922
11
307.6712307417
21
166.8354568922
0
LINE
5
2C4
100
AcDbEntity
8
0
100
AcDbLine
62
7
6
CONTINUOUS
10
309.9212307417
20
277.5986453324
11
309.9212307417
21
277.3354568922
0
LINE
5
2C5
100
AcDbEntity
8
0
100
AcDbLine
62
7
6
CONTINUOUS
10
309.9212307417
20
105.0991910803
11
309.9212307417
21
109.1436509038
0
LINE
5
2C6
100
AcDbEntity
8
0
100
AcDbLine
62
7
6
CONTINUOUS
10
313.1712307417
20
245.7193693405
11
313.1712307417
21
212.1479230783
0
LINE
5
2C7
100
AcDbEntity
8
0
100
AcDbLine
62
7
6
CONTINUOUS
10
313.1712307417
20
153.5227014286
11
313.1712307417
21
129.0854568922
0
LINE
5
2C8
100
AcDbEntity
8
0
100
AcDbLine
62
7
6
CONTINUOUS
10
313.4212307417
20
170.0854568922
11
313.4212307417
21
177.5854568922
0
LINE
5
2C9
100
AcDbEntity
8
0
100
AcDbLine
62
7
6
CONTINUOUS
10
313.4212307417
20
179.0854568922
11
313.4212307417
21
186.5854568922
0
LINE
5
2CA
100
AcDbEntity
8
0
100
AcDbLine
62
7
6
CONTINUOUS
10
313.4212307417
20
188.8354568922
11
313.4212307417
21
196.3354568922
0
LINE
5
2CB
100
AcDbEntity
8
0
100
AcDbLine
62
7
6
CONTINUOUS
10
314.1712307417
20
156.1628071614
11
314.1712307417
21
209.5081066230
0
LINE
5
2CC
100
AcDbEntity
8
0
100
AcDbLine
62
7
6
CONTINUOUS
10
315.1712307417
20
75.3354568922
11
315.1712307417
21
67.3354568922
0
LINE
5
2CD
100
AcDbEntity
8
0
100
AcDbLine
62
7
6
CONTINUOUS
10
252.6712307417
20
166.8354568922
11
307.6712307417
21
166.8354568922
0
LINE
5
2CE
100
AcDbEntity
8
0
100
AcDbLine
62
7
6
CONTINUOUS
10
257.2185584740
20
167.0354568922
11
280.1620717746
21
167.0354568922
0
LINE
5
2CF
100
AcDbEntity
8
0
100
AcDbLine
62
7
6
CONTINUOUS
10
309.9938156281
20
275.9504547539
11
313.1712307417
21
245.7193693405
0
LINE
5
2D0
100
AcDbEntity
8
DEFAULT_1
100
AcDbLine
62
2
6
CENTER
10
323.1712307417
20
105.8354568922
11
323.1712307417
21
89.7345377061
0
LINE
5
2D1
100
AcDbEntity
8
DEFAULT_1
100
AcDbLine
62
2
6
CENTER
10
323.1712307417
20
105.8354568922
11
323.1712307417
21
120.9510824265
0
LINE
5
2D2
100
AcDbEntity
8
0
100
AcDbLine
62
7
6
CONTINUOUS
10
336.3486458553
20
275.9504547539
11
333.1712307417
21
245.7193693405
0
LINE
5
2D3
100
AcDbEntity
8
0
100
AcDbLine
62
7
6
CONTINUOUS
10
314.1712307417
20
170.0854568922
11
313.4212307417
21
170.0854568922
0
LINE
5
2D4
100
AcDbEntity
8
0
100
AcDbLine
62
7
6
CONTINUOUS
10
314.1712307417
20
177.5854568922
11
313.4212307417
21
177.5854568922
0
LINE
5
2D5
100
AcDbEntity
8
0
100
AcDbLine
62
7
6
CONTINUOUS
10
314.1712307417
20
179.0854568922
11
313.4212307417
21
179.0854568922
0
LINE
5
2D6
100
AcDbEntity
8
0
100
AcDbLine
62
7
6
CONTINUOUS
10
332.1712307417
20
156.1628071614
11
332.1712307417
21
209.5081066230
0
LINE
5
2D7
100
AcDbEntity
8
0
100
AcDbLine
62
7
6
CONTINUOUS
10
333.1712307417
20
129.0854568922
11
333.1712307417
21
153.5227014286
0
LINE
5
2D8
100
AcDbEntity
8
0
100
AcDbLine
62
7
6
CONTINUOUS
10
333.1712307417
20
212.1479230783
11
333.1712307417
21
245.7193693405
0
LINE
5
2D9
100
AcDbEntity
8
0
100
AcDbLine
62
7
6
CONTINUOUS
10
336.4212307417
20
277.6154682674
11
336.4212307417
21
277.3354568922
0
LINE
5
2DA
100
AcDbEntity
8
0
100
AcDbLine
62
7
6
CONTINUOUS
10
336.4212307417
20
109.1436509038
11
336.4212307417
21
105.0991910803
0
LINE
5
2DB
100
AcDbEntity
8
0
100
AcDbLine
62
7
6
CONTINUOUS
10
314.1712307417
20
186.5854568922
11
313.4212307417
21
186.5854568922
0
LINE
5
2DC
100
AcDbEntity
8
0
100
AcDbLine
62
7
6
CONTINUOUS
10
314.1712307417
20
188.8354568922
11
313.4212307417
21
188.8354568922
0
LINE
5
2DD
100
AcDbEntity
8
0
100
AcDbLine
62
7
6
CONTINUOUS
10
336.3817443160
20
104.1277271710
11
336.3938121072
21
104.3004574955
0
LINE
5
2DE
100
AcDbEntity
8
0
100
AcDbLine
62
7
6
CONTINUOUS
10
336.3803028756
20
104.1099388580
11
336.3817443160
21
104.1277271710
0
LINE
5
2DF
100
AcDbEntity
8
0
100
AcDbLine
62
7
6
CONTINUOUS
10
314.1712307417
20
196.3354568922
11
313.4212307417
21
196.3354568922
0
LINE
5
2E0
100
AcDbEntity
8
0
100
AcDbLine
62
7
6
CONTINUOUS
10
294.6712307417
20
4.3354568922
11
298.1712307417
21
7.8354568922
0
LINE
5
2E1
100
AcDbEntity
8
0
100
AcDbLine
62
7
6
CONTINUOUS
10
323.4218502637
20
290.5854568922
11
322.9206112197
21
290.5854568922
0
LINE
5
2E2
100
AcDbEntity
8
0
100
AcDbLine
62
7
6
CONTINUOUS
10
60.3616829440
20
-106.6494926931
11
59.8279097312
21
-105.7249703689
0
LINE
5
2E3
100
AcDbEntity
8
0
100
AcDbLine
62
7
6
CONTINUOUS
10
57.2898912772
20
-98.3114405058
11
57.2898912443
21
-98.9875121010
0
LINE
5
2E4
100
AcDbEntity
8
0
100
AcDbLine
62
7
6
CONTINUOUS
10
81.7898861743
20
-128.6494926931
11
154.7898861743
21
-128.6494926931
0
LINE
5
2E5
100
AcDbEntity
8
0
100
AcDbLine
62
7
6
CONTINUOUS
10
157.2102139784
20
-110.9337309382
11
156.7898861743
21
-111.0078460708
0
LINE
5
2E6
100
AcDbEntity
8
0
100
AcDbLine
62
7
6
CONTINUOUS
10
79.7898861743
20
-111.0078460708
11
79.3695583702
21
-110.9337309382
0
LINE
5
2E7
100
AcDbEntity
8
0
100
AcDbLine
62
7
6
CONTINUOUS
10
79.7898861743
20
-126.6491523088
11
79.7898861743
21
-110.9578233248
0
LINE
5
2E8
100
AcDbEntity
8
0
100
AcDbLine
62
7
6
CONTINUOUS
10
79.7898861743
20
-86.3411620615
11
79.7898861743
21
-52.1494926931
0
LINE
5
2E9
100
AcDbEntity
8
0
100
AcDbLine
62
7
6
CONTINUOUS
10
60.3616829440
20
-90.6494926931
11
59.8279443588
21
-91.5739550405
0
LINE
5
2EA
100
AcDbEntity
8
0
100
AcDbLine
62
7
6
CONTINUOUS
10
160.9564341154
20
-110.7005616097
11
160.9565520951
21
-110.7005537325
0
LINE
5
2EB
100
AcDbEntity
8
0
100
AcDbLine
62
7
6
CONTINUOUS
10
127.9033859813
20
-111.8994926931
11
108.6763758045
21
-111.8994926931
0
LINE
5
2EC
100
AcDbEntity
8
0
100
AcDbLine
62
7
6
CONTINUOUS
10
75.6233382538
20
-110.7005616110
11
75.6232202535
21
-110.7005537325
0
LINE
5
2ED
100
AcDbEntity
8
0
100
AcDbLine
62
7
6
CONTINUOUS
10
102.4127537715
20
-28.1494926931
11
86.5356213688
21
-55.6494926931
0
LINE
5
2EE
100
AcDbEntity
8
0
100
AcDbLine
62
7
6
CONTINUOUS
10
101.2995827965
20
-40.3418074904
11
100.8625424881
21
-40.6344815581
0
LINE
5
2EF
100
AcDbEntity
8
0
100
AcDbLine
62
7
6
CONTINUOUS
10
101.5496701317
20
-41.2058017763
11
101.9222061903
21
-40.9907070621
0
LINE
5
2F0
100
AcDbEntity
8
0
100
AcDbLine
62
7
6
CONTINUOUS
10
97.8507454234
20
-44.9471758239
11
97.6130222822
21
-45.5038973634
0
LINE
5
2F1
100
AcDbEntity
8
0
100
AcDbLine
62
7
6
CONTINUOUS
10
96.6621297173
20
-47.7307835214
11
96.4244064627
21
-48.2875053264
0
LINE
5
2F2
100
AcDbEntity
8
0
100
AcDbLine
62
7
6
CONTINUOUS
10
95.7232203351
20
-51.9165807107
11
95.5150573209
21
-52.3996233687
0
LINE
5
2F3
100
AcDbEntity
8
0
100
AcDbLine
62
7
6
CONTINUOUS
10
96.2664586918
20
-52.3884610637
11
96.4505038920
21
-52.1057560355
0
LINE
5
2F4
100
AcDbEntity
8
0
100
AcDbLine
62
7
6
CONTINUOUS
10
100.8625424881
20
-40.6344815581
11
99.3144523036
21
-42.4963718373
0
LINE
5
2F5
100
AcDbEntity
8
0
100
AcDbLine
62
7
6
CONTINUOUS
10
100.3886024933
20
-42.6022194857
11
101.5496701317
21
-41.2058017763
0
LINE
5
2F6
100
AcDbEntity
8
0
100
AcDbLine
62
7
6
CONTINUOUS
10
118.7803898059
20
-33.8231676374
11
119.1027992965
21
-33.5467751239
0
LINE
5
2F7
100
AcDbEntity
8
0
100
AcDbLine
62
7
6
CONTINUOUS
10
96.2150614176
20
-51.5693095576
11
95.7232203351
21
-51.9165807107
0
LINE
5
2F8
100
AcDbEntity
8
0
100
AcDbLine
62
7
6
CONTINUOUS
10
119.0532630141
20
-32.7969251730
11
118.6301987272
21
-33.0663919144
0
LINE
5
2F9
100
AcDbEntity
8
0
100
AcDbLine
62
7
6
CONTINUOUS
10
124.8349222727
20
-34.8264727381
11
125.2207074532
21
-34.6489607790
0
LINE
5
2FA
100
AcDbEntity
8
0
100
AcDbLine
62
7
6
CONTINUOUS
10
124.5194251828
20
-36.2959546418
11
123.7478548218
21
-36.6509785601
0
LINE
5
2FB
100
AcDbEntity
8
0
100
AcDbLine
62
7
6
CONTINUOUS
10
123.9758926143
20
-37.2082077483
11
124.3616777948
21
-37.0306957892
0
LINE
5
2FC
100
AcDbEntity
8
0
100
AcDbLine
62
7
6
CONTINUOUS
10
120.4797015572
20
-35.5822641946
11
119.8553299815
21
-35.8378795501
0
LINE
5
2FD
100
AcDbEntity
8
0
100
AcDbLine
62
7
6
CONTINUOUS
10
125.3784548412
20
-33.9142196316
11
124.7523239804
21
-34.1633724792
0
LINE
5
2FE
100
AcDbEntity
8
0
100
AcDbLine
62
7
6
CONTINUOUS
10
119.7908209697
20
-39.7149370813
11
120.2036615547
21
-39.5940551627
0
LINE
5
2FF
100
AcDbEntity
8
0
100
AcDbLine
62
7
6
CONTINUOUS
10
95.5150573209
20
-52.3996233687
11
95.2256436895
21
-54.8036737801
0
LINE
5
300
100
AcDbEntity
8
0
100
AcDbLine
62
7
6
CONTINUOUS
10
96.0373395785
20
-54.2916675439
11
96.2664586918
21
-52.3884610637
0
LINE
5
301
100
AcDbEntity
8
0
100
AcDbLine
62
7
6
CONTINUOUS
10
98.4844865495
20
-52.6554802134
11
98.2553674362
21
-54.5586866936
0
LINE
5
302
100
AcDbEntity
8
0
100
AcDbLine
62
7
6
CONTINUOUS
10
102.8326477192
20
-48.8297572065
11
102.6741655495
21
-49.2009050765
0
LINE
5
303
100
AcDbEntity
8
0
100
AcDbLine
62
7
6
CONTINUOUS
10
103.4959944371
20
-49.5518305049
11
103.6544766068
21
-49.1806826349
0
LINE
5
304
100
AcDbEntity
8
0
100
AcDbLine
62
7
6
CONTINUOUS
10
118.6301987272
20
-33.0663919144
11
118.1866893386
21
-33.6330284857
0
LINE
5
305
100
AcDbEntity
8
0
100
AcDbLine
62
7
6
CONTINUOUS
10
103.1609204177
20
-49.9572773745
11
103.4959944371
21
-49.5518305049
0
LINE
5
306
100
AcDbEntity
8
0
100
AcDbLine
62
7
6
CONTINUOUS
10
105.5579152808
20
-44.5385035160
11
104.3968476424
21
-45.9349212254
0
LINE
5
307
100
AcDbEntity
8
0
100
AcDbLine
62
7
6
CONTINUOUS
10
104.6969528201
20
-46.9717140800
11
106.2450430046
21
-45.1098238009
0
LINE
5
308
100
AcDbEntity
8
0
100
AcDbLine
62
7
6
CONTINUOUS
10
102.6741655495
20
-49.2009050765
11
102.3787121412
21
-49.5135648510
0
LINE
5
309
100
AcDbEntity
8
0
100
AcDbLine
62
7
6
CONTINUOUS
10
120.6401140349
20
-36.1904549233
11
121.0734020245
21
-35.7724033463
0
LINE
5
30A
100
AcDbEntity
8
0
100
AcDbLine
62
7
6
CONTINUOUS
10
124.7523239804
20
-34.1633724792
11
124.2654765038
21
-34.6210885110
0
LINE
5
30B
100
AcDbEntity
8
0
100
AcDbLine
62
7
6
CONTINUOUS
10
120.6267235405
20
-39.3245882238
11
120.9491330346
21
-39.0481956583
0
LINE
5
30C
100
AcDbEntity
8
0
100
AcDbLine
62
7
6
CONTINUOUS
10
123.6850136137
20
-37.4199498896
11
123.9758926143
21
-37.2082077483
0
LINE
5
30D
100
AcDbEntity
8
0
100
AcDbLine
62
7
6
CONTINUOUS
10
120.4663110663
20
-38.7163974431
11
120.2547800748
21
-38.8511308930
0
LINE
5
30E
100
AcDbEntity
8
0
100
AcDbLine
62
7
6
CONTINUOUS
10
120.2036615547
20
-39.5940551627
11
120.6267235405
21
-39.3245882238
0
LINE
5
30F
100
AcDbEntity
8
0
100
AcDbLine
62
7
6
CONTINUOUS
10
102.7284952815
20
-50.2114501000
11
103.1609204177
21
-49.9572773745
0
LINE
5
310
100
AcDbEntity
8
0
100
AcDbLine
62
7
6
CONTINUOUS
10
96.4505038920
20
-52.1057560355
11
96.7703586986
21
-51.9410209524
0
LINE
5
311
100
AcDbEntity
8
0
100
AcDbLine
62
7
6
CONTINUOUS
10
125.0716999220
20
-39.8200194150
11
124.6859147415
21
-39.9975313741
0
LINE
5
312
100
AcDbEntity
8
0
100
AcDbLine
62
7
6
CONTINUOUS
10
102.3787121412
20
-49.5135648510
11
101.9859075441
21
-49.6749504507
0
LINE
5
313
100
AcDbEntity
8
0
100
AcDbLine
62
7
6
CONTINUOUS
10
124.5281673225
20
-40.7322726073
11
125.1542981965
21
-40.4831197230
0
LINE
5
314
100
AcDbEntity
8
0
100
AcDbLine
62
7
6
CONTINUOUS
10
96.8427121064
20
-51.3400083495
11
96.2150614176
21
-51.5693095576
0
LINE
5
315
100
AcDbEntity
8
0
100
AcDbLine
62
7
6
CONTINUOUS
10
102.8541584236
20
-48.4001217720
11
102.8326477192
21
-48.8297572065
0
LINE
5
316
100
AcDbEntity
8
0
100
AcDbLine
62
7
6
CONTINUOUS
10
103.6544766068
20
-49.1806826349
11
103.7156076717
21
-48.6582606259
0
LINE
5
317
100
AcDbEntity
8
0
100
AcDbLine
62
7
6
CONTINUOUS
10
99.1425784136
20
-54.6654943335
11
99.3475797300
21
-52.9626253398
0
LINE
5
318
100
AcDbEntity
8
0
100
AcDbLine
62
7
6
CONTINUOUS
10
102.1754638408
20
-55.6403337260
11
102.2478172486
21
-55.0393211232
0
LINE
5
319
100
AcDbEntity
8
0
100
AcDbLine
62
7
6
CONTINUOUS
10
102.5492897698
20
-52.5351020401
11
102.6337021019
21
-51.8339204790
0
LINE
5
31A
100
AcDbEntity
8
0
100
AcDbLine
62
7
6
CONTINUOUS
10
105.7014087916
20
-44.1329687290
11
105.5579152808
21
-44.5385035160
0
LINE
5
31B
100
AcDbEntity
8
0
100
AcDbLine
62
7
6
CONTINUOUS
10
106.2450430046
20
-45.1098238009
11
106.4530407551
21
-44.6267096521
0
LINE
5
31C
100
AcDbEntity
8
0
100
AcDbLine
62
7
6
CONTINUOUS
10
118.5484091050
20
-34.2550706003
11
118.7803898059
21
-33.8231676374
0
LINE
5
31D
100
AcDbEntity
8
0
100
AcDbLine
62
7
6
CONTINUOUS
10
111.9390332132
20
-44.6494926931
11
105.5881802521
21
-55.6494926931
0
LINE
5
31E
100
AcDbEntity
8
0
100
AcDbLine
62
7
6
CONTINUOUS
10
120.7014562515
20
-35.2989459089
11
120.4797015572
21
-35.5822641946
0
LINE
5
31F
100
AcDbEntity
8
0
100
AcDbLine
62
7
6
CONTINUOUS
10
120.6880657678
20
-38.4330790533
11
120.4663110663
21
-38.7163974431
0
LINE
5
320
100
AcDbEntity
8
0
100
AcDbLine
62
7
6
CONTINUOUS
10
124.4935121241
20
-35.1783169158
11
124.8349222727
21
-34.8264727381
0
LINE
5
321
100
AcDbEntity
8
0
100
AcDbLine
62
7
6
CONTINUOUS
10
125.4131101060
20
-39.4681751392
11
125.0716999220
21
-39.8200194150
0
LINE
5
322
100
AcDbEntity
8
0
100
AcDbLine
62
7
6
CONTINUOUS
10
125.1542981965
20
-40.4831197230
11
125.6411456909
21
-40.0254036421
0
LINE
5
323
100
AcDbEntity
8
0
100
AcDbLine
62
7
6
CONTINUOUS
10
135.0307417561
20
-44.5898561199
11
135.8569416601
21
-44.2347156838
0
LINE
5
324
100
AcDbEntity
8
0
100
AcDbLine
62
7
6
CONTINUOUS
10
135.6069854153
20
-43.7965337533
11
134.9101556800
21
-44.0778816628
0
LINE
5
325
100
AcDbEntity
8
0
100
AcDbLine
62
7
6
CONTINUOUS
10
136.0450797523
20
-43.6627787135
11
135.6069854153
21
-43.7965337533
0
LINE
5
326
100
AcDbEntity
8
0
100
AcDbLine
62
7
6
CONTINUOUS
10
134.4105980480
20
-48.3120496124
11
134.8486920226
21
-48.1782947792
0
LINE
5
327
100
AcDbEntity
8
0
100
AcDbLine
62
7
6
CONTINUOUS
10
86.5356213688
20
-55.6494926931
11
102.4127537715
21
-83.1494926931
0
LINE
5
328
100
AcDbEntity
8
0
100
AcDbLine
62
7
6
CONTINUOUS
10
104.1189695561
20
-15.8151408728
11
104.1189695561
21
-16.3523542292
0
LINE
5
329
100
AcDbEntity
8
0
100
AcDbLine
62
7
6
CONTINUOUS
10
104.2770077567
20
-15.7538990250
11
104.2770077567
21
-16.2901948967
0
LINE
5
32A
100
AcDbEntity
8
0
100
AcDbLine
62
7
6
CONTINUOUS
10
104.9091551330
20
-15.5167745739
11
104.9091551330
21
-16.0495475851
0
LINE
5
32B
100
AcDbEntity
8
0
100
AcDbLine
62
7
6
CONTINUOUS
10
105.5413025093
20
-15.2920156425
11
105.5413025093
21
-15.8214922728
0
LINE
5
32C
100
AcDbEntity
8
0
100
AcDbLine
62
7
6
CONTINUOUS
10
106.3314880862
20
-15.0281145510
11
106.3314880862
21
-15.5537727908
0
LINE
5
32D
100
AcDbEntity
8
0
100
AcDbLine
62
7
6
CONTINUOUS
10
107.7538210394
20
-14.5996414088
11
107.7538210394
21
-15.1192168168
0
LINE
5
32E
100
AcDbEntity
8
0
100
AcDbLine
62
7
6
CONTINUOUS
10
106.4530407551
20
-44.6267096521
11
106.4820129619
21
-44.1259548037
0
LINE
5
32F
100
AcDbEntity
8
0
100
AcDbLine
62
7
6
CONTINUOUS
10
120.9436583514
20
-34.7184579518
11
120.7014562515
21
-35.2989459089
0
LINE
5
330
100
AcDbEntity
8
0
100
AcDbLine
62
7
6
CONTINUOUS
10
121.0734020245
20
-35.7724033463
11
121.3053804216
21
-35.3405002249
0
LINE
5
331
100
AcDbEntity
8
0
100
AcDbLine
62
7
6
CONTINUOUS
10
120.9491330346
20
-39.0481956583
11
121.1811137355
21
-38.6162926954
0
LINE
5
332
100
AcDbEntity
8
0
100
AcDbLine
62
7
6
CONTINUOUS
10
124.2470123584
20
-35.5643932351
11
124.4935121241
21
-35.1783169158
0
LINE
5
333
100
AcDbEntity
8
0
100
AcDbLine
62
7
6
CONTINUOUS
10
123.4385139188
20
-37.8060260127
11
123.6850136137
21
-37.4199498896
0
LINE
5
334
100
AcDbEntity
8
0
100
AcDbLine
62
7
6
CONTINUOUS
10
125.6596097301
20
-39.0820992124
11
125.4131101060
21
-39.4681751392
0
LINE
5
335
100
AcDbEntity
8
0
100
AcDbLine
62
7
6
CONTINUOUS
10
124.2654765038
20
-34.6210885110
11
123.8230039175
21
-35.2531371538
0
LINE
5
336
100
AcDbEntity
8
0
100
AcDbLine
62
7
6
CONTINUOUS
10
125.6411456909
20
-40.0254036421
11
126.0836181710
21
-39.3933552937
0
LINE
5
337
100
AcDbEntity
8
0
100
AcDbLine
62
7
6
CONTINUOUS
10
134.3957088270
20
-40.7130137355
11
133.5000848672
21
-41.4988287758
0
LINE
5
338
100
AcDbEntity
8
0
100
AcDbLine
62
7
6
CONTINUOUS
10
134.6829996159
20
-41.2662742027
11
130.3168337136
21
-45.0971217327
0
LINE
5
339
100
AcDbEntity
8
0
100
AcDbLine
62
7
6
CONTINUOUS
10
130.7160774584
20
-45.5521553542
11
135.9778670069
21
-40.9354930591
0
LINE
5
33A
100
AcDbEntity
8
0
100
AcDbLine
62
7
6
CONTINUOUS
10
133.7458447571
20
-44.7420505065
11
133.1489955078
21
-45.1986680822
0
LINE
5
33B
100
AcDbEntity
8
0
100
AcDbLine
62
7
6
CONTINUOUS
10
133.3989517526
20
-45.6368500127
11
134.1251665938
21
-45.1064318871
0
LINE
5
33C
100
AcDbEntity
8
0
100
AcDbLine
62
7
6
CONTINUOUS
10
134.9101556800
20
-44.0778816628
11
133.7458447571
21
-44.7420505065
0
LINE
5
33D
100
AcDbEntity
8
0
100
AcDbLine
62
7
6
CONTINUOUS
10
134.1251665938
20
-45.1064318871
11
135.0307417561
21
-44.5898561199
0
LINE
5
33E
100
AcDbEntity
8
0
100
AcDbLine
62
7
6
CONTINUOUS
10
136.3305110253
20
-46.8683965421
11
135.4249358630
21
-47.3849723094
0
LINE
5
33F
100
AcDbEntity
8
0
100
AcDbLine
62
7
6
CONTINUOUS
10
135.5455242275
20
-47.8969507781
11
136.7098351504
21
-47.2327819344
0
LINE
5
340
100
AcDbEntity
8
0
100
AcDbLine
62
7
6
CONTINUOUS
10
135.4249358630
20
-47.3849723094
11
134.5987380662
21
-47.7401168604
0
LINE
5
341
100
AcDbEntity
8
0
100
AcDbLine
62
7
6
CONTINUOUS
10
134.8486920226
20
-48.1782947792
11
135.5455242275
21
-47.8969507781
0
LINE
5
342
100
AcDbEntity
8
0
100
AcDbLine
62
7
6
CONTINUOUS
10
135.4502282347
20
-51.2633671182
11
135.0250257632
21
-51.4337213647
0
LINE
5
343
100
AcDbEntity
8
0
100
AcDbLine
62
7
6
CONTINUOUS
10
138.0141035832
20
-51.2610382882
11
138.4393059517
21
-51.0906840582
0
LINE
5
344
100
AcDbEntity
8
0
100
AcDbLine
62
7
6
CONTINUOUS
10
133.9995307964
20
-49.8481977040
11
133.2971538111
21
-50.0956167080
0
LINE
5
345
100
AcDbEntity
8
0
100
AcDbLine
62
7
6
CONTINUOUS
10
133.4647603629
20
-50.5714208403
11
134.1671373482
21
-50.3240018363
0
LINE
5
346
100
AcDbEntity
8
0
100
AcDbLine
62
7
6
CONTINUOUS
10
75.6233382331
20
-86.5984237766
11
75.6232202535
21
-86.5984316537
0
LINE
5
347
100
AcDbEntity
8
0
100
AcDbLine
62
7
6
CONTINUOUS
10
108.6763863672
20
-85.3994926931
11
127.9033859813
21
-85.3994926931
0
LINE
5
348
100
AcDbEntity
8
0
100
AcDbLine
62
7
6
CONTINUOUS
10
102.4127537715
20
-83.1494926931
11
134.1670185770
21
-83.1494926931
0
LINE
5
349
100
AcDbEntity
8
0
100
AcDbLine
62
7
6
CONTINUOUS
10
160.9564340947
20
-86.5984237752
11
160.9565520951
21
-86.5984316537
0
LINE
5
34A
100
AcDbEntity
8
0
100
AcDbLine
62
7
6
CONTINUOUS
10
98.3727947572
20
-52.3371726386
11
98.4844865495
21
-52.6554802134
0
LINE
5
34B
100
AcDbEntity
8
0
100
AcDbLine
62
7
6
CONTINUOUS
10
105.6658774365
20
-43.7097923047
11
105.7014087916
21
-44.1329687290
0
LINE
5
34C
100
AcDbEntity
8
0
100
AcDbLine
62
7
6
CONTINUOUS
10
108.5440066162
20
-14.3868414138
11
108.5440066162
21
-14.9034481831
0
LINE
5
34D
100
AcDbEntity
8
0
100
AcDbLine
62
7
6
CONTINUOUS
10
109.1761539925
20
-14.2293148755
11
109.1761539925
21
-14.7437459993
0
LINE
5
34E
100
AcDbEntity
8
0
100
AcDbLine
62
7
6
CONTINUOUS
10
109.8083013689
20
-14.0829362532
11
109.8083013689
21
-14.5953621721
0
LINE
5
34F
100
AcDbEntity
8
0
100
AcDbLine
62
7
6
CONTINUOUS
10
110.1243759613
20
-14.0138867197
11
110.1243759613
21
-14.5253721989
0
LINE
5
350
100
AcDbEntity
8
0
100
AcDbLine
62
7
6
CONTINUOUS
10
110.2824123533
20
-13.9803904898
11
110.2824123533
21
-14.4914210085
0
LINE
5
351
100
AcDbEntity
8
0
100
AcDbLine
62
7
6
CONTINUOUS
10
111.2876880638
20
-13.7832416172
11
111.2876880638
21
-14.2916107975
0
LINE
5
352
100
AcDbEntity
8
0
100
AcDbLine
62
7
6
CONTINUOUS
10
111.5467089145
20
-13.7368702827
11
111.5467089145
21
-14.2446175391
0
LINE
5
353
100
AcDbEntity
8
0
100
AcDbLine
62
7
6
CONTINUOUS
10
111.7047453064
20
-13.7094625195
11
111.7047453064
21
-14.2168429076
0
LINE
5
354
100
AcDbEntity
8
0
100
AcDbLine
62
7
6
CONTINUOUS
10
112.1788562908
20
-13.6312461888
11
112.1788562908
21
-14.1375825364
0
LINE
5
355
100
AcDbEntity
8
0
100
AcDbLine
62
7
6
CONTINUOUS
10
112.8110054758
20
-13.5362583519
11
112.8110054758
21
-14.0413325920
0
LINE
5
356
100
AcDbEntity
8
0
100
AcDbLine
62
7
6
CONTINUOUS
10
118.1866893386
20
-33.6330284857
11
118.0451397312
21
-34.2204420565
0
LINE
5
357
100
AcDbEntity
8
0
100
AcDbLine
62
7
6
CONTINUOUS
10
121.3053804216
20
-35.3405002249
11
121.4469300290
21
-34.7530866541
0
LINE
5
358
100
AcDbEntity
8
0
100
AcDbLine
62
7
6
CONTINUOUS
10
121.1811137355
20
-38.6162926954
11
121.3124373435
21
-38.1774636978
0
LINE
5
359
100
AcDbEntity
8
0
100
AcDbLine
62
7
6
CONTINUOUS
10
123.3743797012
20
-36.1996212259
11
123.0206616649
21
-37.1803354803
0
LINE
5
35A
100
AcDbEntity
8
0
100
AcDbLine
62
7
6
CONTINUOUS
10
123.7478548218
20
-36.6509785601
11
123.8489171179
21
-36.3707744874
0
LINE
5
35B
100
AcDbEntity
8
0
100
AcDbLine
62
7
6
CONTINUOUS
10
123.2869204747
20
-38.2263321217
11
123.4385139188
21
-37.8060260127
0
LINE
5
35C
100
AcDbEntity
8
0
100
AcDbLine
62
7
6
CONTINUOUS
10
120.8091679696
20
-38.1428351540
11
120.6880657678
21
-38.4330790533
0
LINE
5
35D
100
AcDbEntity
8
0
100
AcDbLine
62
7
6
CONTINUOUS
10
123.8230039175
20
-35.2531371538
11
123.3743797012
21
-36.1996212259
0
LINE
5
35E
100
AcDbEntity
8
0
100
AcDbLine
62
7
6
CONTINUOUS
10
123.8489171179
20
-36.3707744874
11
124.2470123584
21
-35.5643932351
0
LINE
5
35F
100
AcDbEntity
8
0
100
AcDbLine
62
7
6
CONTINUOUS
10
132.8108822004
20
-45.5076924782
11
132.3933935441
21
-45.9781522572
0
LINE
5
360
100
AcDbEntity
8
0
100
AcDbLine
62
7
6
CONTINUOUS
10
133.1489955078
20
-45.1986680822
11
132.8108822004
21
-45.5076924782
0
LINE
5
361
100
AcDbEntity
8
0
100
AcDbLine
62
7
6
CONTINUOUS
10
137.3066819301
20
-46.7761604504
11
137.6447955999
21
-46.4671358477
0
LINE
5
362
100
AcDbEntity
8
0
100
AcDbLine
62
7
6
CONTINUOUS
10
136.7098351504
20
-47.2327819344
11
137.3066819301
21
-46.7761604504
0
LINE
5
363
100
AcDbEntity
8
0
100
AcDbLine
62
7
6
CONTINUOUS
10
137.0567279737
20
-46.3379825315
11
136.3305110253
21
-46.8683965421
0
LINE
5
364
100
AcDbEntity
8
0
100
AcDbLine
62
7
6
CONTINUOUS
10
135.0250257632
20
-51.4337213647
11
134.4847078470
21
-51.8268893223
0
LINE
5
365
100
AcDbEntity
8
0
100
AcDbLine
62
7
6
CONTINUOUS
10
135.1208551591
20
-52.0314402713
11
135.5300863084
21
-51.7614677272
0
LINE
5
366
100
AcDbEntity
8
0
100
AcDbLine
62
7
6
CONTINUOUS
10
137.6048718058
20
-51.5310062556
11
138.0141035832
21
-51.2610382882
0
LINE
5
367
100
AcDbEntity
8
0
100
AcDbLine
62
7
6
CONTINUOUS
10
138.2123904686
20
-50.6161651336
11
137.5090424099
21
-50.9332873490
0
LINE
5
368
100
AcDbEntity
8
0
100
AcDbLine
62
7
6
CONTINUOUS
10
139.3596273534
20
-54.0085472192
11
140.0629758241
21
-53.6914249377
0
LINE
5
369
100
AcDbEntity
8
0
100
AcDbLine
62
7
6
CONTINUOUS
10
139.5579146507
20
-53.3636739985
11
139.1327118702
21
-53.5340282945
0
LINE
5
36A
100
AcDbEntity
8
0
100
AcDbLine
62
7
6
CONTINUOUS
10
79.7898861743
20
-86.2911393154
11
79.3695583702
21
-86.3652544480
0
LINE
5
36B
100
AcDbEntity
8
0
100
AcDbLine
62
7
6
CONTINUOUS
10
157.2102139784
20
-86.3652544480
11
156.7898861743
21
-86.2911393154
0
LINE
5
36C
100
AcDbEntity
8
0
100
AcDbLine
62
7
6
CONTINUOUS
10
99.1241961627
20
-52.3260100470
11
98.8766947639
21
-51.8897325273
0
LINE
5
36D
100
AcDbEntity
8
0
100
AcDbLine
62
7
6
CONTINUOUS
10
102.6990769678
20
-48.0047858322
11
102.8541584236
21
-48.4001217720
0
LINE
5
36E
100
AcDbEntity
8
0
100
AcDbLine
62
7
6
CONTINUOUS
10
103.7156076717
20
-48.6582606259
11
103.6001468748
21
-48.1701376114
0
LINE
5
36F
100
AcDbEntity
8
0
100
AcDbLine
62
7
6
CONTINUOUS
10
114.1432525412
20
-32.9758130338
11
114.2025566779
21
-39.4113254655
0
LINE
5
370
100
AcDbEntity
8
0
100
AcDbLine
62
7
6
CONTINUOUS
10
113.6011892440
20
-13.4323631366
11
113.6011892440
21
-13.9360641490
0
LINE
5
371
100
AcDbEntity
8
0
100
AcDbLine
62
7
6
CONTINUOUS
10
117.3940780235
20
-13.1597821561
11
117.3940780235
21
-13.6599158215
0
LINE
5
372
100
AcDbEntity
8
0
100
AcDbLine
62
7
6
CONTINUOUS
10
117.9543543332
20
-13.1509360739
11
117.9543543332
21
-13.6509548198
0
LINE
5
373
100
AcDbEntity
8
0
100
AcDbLine
62
7
6
CONTINUOUS
10
118.1626874678
20
-13.1497001233
11
118.1626874678
21
-13.6497028172
0
LINE
5
374
100
AcDbEntity
8
DEFAULT_1
100
AcDbLine
62
2
6
CENTER
10
118.2898861743
20
-55.6494926931
11
118.2898861743
21
-27.1494926931
0
LINE
5
375
100
AcDbEntity
8
DEFAULT_1
100
AcDbLine
62
2
6
CENTER
10
118.2898861743
20
-55.6494926931
11
118.2898861743
21
-84.1494926931
0
LINE
5
376
100
AcDbEntity
8
0
100
AcDbLine
62
7
6
CONTINUOUS
10
118.5793543332
20
-13.1505669619
11
118.5793543332
21
-13.6505809139
0
LINE
5
377
100
AcDbEntity
8
0
100
AcDbLine
62
7
6
CONTINUOUS
10
118.6583736804
20
-13.1512335402
11
118.6583736804
21
-13.6512561496
0
LINE
5
378
100
AcDbEntity
8
0
100
AcDbLine
62
7
6
CONTINUOUS
10
114.7756923737
20
-40.0349702945
11
114.8003218332
21
-34.3462401525
0
LINE
5
379
100
AcDbEntity
8
0
100
AcDbLine
62
7
6
CONTINUOUS
10
119.4527131002
20
-35.8101766200
11
119.4118182891
21
-36.4045159629
0
LINE
5
37A
100
AcDbEntity
8
0
100
AcDbLine
62
7
6
CONTINUOUS
10
120.9641057855
20
-34.4212878641
11
120.9436583514
21
-34.7184579518
0
LINE
5
37B
100
AcDbEntity
8
0
100
AcDbLine
62
7
6
CONTINUOUS
10
120.8500627807
20
-37.5484958111
11
120.8091679696
21
-38.1428351540
0
LINE
5
37C
100
AcDbEntity
8
0
100
AcDbLine
62
7
6
CONTINUOUS
10
121.4469300290
20
-34.7530866541
11
121.4673774632
21
-34.4559165664
0
LINE
5
37D
100
AcDbEntity
8
0
100
AcDbLine
62
7
6
CONTINUOUS
10
123.0206616649
20
-37.1803354803
11
122.7618497377
21
-38.1952801131
0
LINE
5
37E
100
AcDbEntity
8
0
100
AcDbLine
62
7
6
CONTINUOUS
10
125.8112031743
20
-38.6617931034
11
125.6596097301
21
-39.0820992124
0
LINE
5
37F
100
AcDbEntity
8
0
100
AcDbLine
62
7
6
CONTINUOUS
10
126.0836181710
20
-39.3933552937
11
126.3362739820
21
-38.6928449158
0
LINE
5
380
100
AcDbEntity
8
0
100
AcDbLine
62
7
6
CONTINUOUS
10
132.8227080028
20
-46.4301724309
11
133.3989517526
21
-45.6368500127
0
LINE
5
381
100
AcDbEntity
8
0
100
AcDbLine
62
7
6
CONTINUOUS
10
137.6447955999
20
-46.4671358477
11
138.0622841656
21
-45.9966761204
0
LINE
5
382
100
AcDbEntity
8
0
100
AcDbLine
62
7
6
CONTINUOUS
10
137.5090424099
20
-50.9332873490
11
136.9687245452
21
-51.3264552984
0
LINE
5
383
100
AcDbEntity
8
0
100
AcDbLine
62
7
6
CONTINUOUS
10
140.0629758241
20
-53.6914249377
11
140.6032936887
21
-53.2982569883
0
LINE
5
384
100
AcDbEntity
8
0
100
AcDbLine
62
7
6
CONTINUOUS
10
139.9671464281
20
-53.0937060311
11
139.5579146507
21
-53.3636739985
0
LINE
5
385
100
AcDbEntity
8
0
100
AcDbLine
62
7
6
CONTINUOUS
10
103.6001468748
20
-48.1701376114
11
103.2107431355
21
-47.5650394627
0
LINE
5
386
100
AcDbEntity
8
0
100
AcDbLine
62
7
6
CONTINUOUS
10
105.5881802521
20
-55.6494926931
11
111.9390332132
21
-66.6494926931
0
LINE
5
387
100
AcDbEntity
8
0
100
AcDbLine
62
7
6
CONTINUOUS
10
105.4513213762
20
-43.2689743764
11
105.6658774365
21
-43.7097923047
0
LINE
5
388
100
AcDbEntity
8
0
100
AcDbLine
62
7
6
CONTINUOUS
10
106.4820129619
20
-44.1259548037
11
106.2819426107
21
-43.4347598744
0
LINE
5
389
100
AcDbEntity
8
0
100
AcDbLine
62
7
6
CONTINUOUS
10
121.3533321546
20
-37.5831243549
11
121.2935744875
21
-36.9818591901
0
LINE
5
38A
100
AcDbEntity
8
0
100
AcDbLine
62
7
6
CONTINUOUS
10
123.3994835243
20
-13.4856592706
11
123.3994835243
21
-13.9900637807
0
LINE
5
38B
100
AcDbEntity
8
0
100
AcDbLine
62
7
6
CONTINUOUS
10
124.3477054931
20
-13.6228418511
11
124.3477054931
21
-14.1290662739
0
LINE
5
38C
100
AcDbEntity
8
0
100
AcDbLine
62
7
6
CONTINUOUS
10
121.3124373435
20
-38.1774636978
11
121.3533321546
21
-37.5831243549
0
LINE
5
38D
100
AcDbEntity
8
0
100
AcDbLine
62
7
6
CONTINUOUS
10
122.7618497377
20
-38.1952801131
11
122.6990106666
21
-38.9642523243
0
LINE
5
38E
100
AcDbEntity
8
0
100
AcDbLine
62
7
6
CONTINUOUS
10
126.3362739820
20
-38.6928449158
11
126.3991130178
21
-37.9238728027
0
LINE
5
38F
100
AcDbEntity
8
0
100
AcDbLine
62
7
6
CONTINUOUS
10
123.2302332105
20
-38.6808684129
11
123.2869204747
21
-38.2263321217
0
LINE
5
390
100
AcDbEntity
8
0
100
AcDbLine
62
7
6
CONTINUOUS
10
125.8678905092
20
-38.2072566160
11
125.8112031743
21
-38.6617931034
0
LINE
5
391
100
AcDbEntity
8
0
100
AcDbLine
62
7
6
CONTINUOUS
10
127.0560180840
20
-36.1025459378
11
127.1127053481
21
-35.6480096466
0
LINE
5
392
100
AcDbEntity
8
0
100
AcDbLine
62
7
6
CONTINUOUS
10
132.3933935441
20
-45.9781522572
11
132.1552631470
21
-46.4624502535
0
LINE
5
393
100
AcDbEntity
8
0
100
AcDbLine
62
7
6
CONTINUOUS
10
124.6407391353
20
-66.6494926931
11
130.9915920964
21
-55.6494926931
0
LINE
5
394
100
AcDbEntity
8
0
100
AcDbLine
62
7
6
CONTINUOUS
10
134.4847078470
20
-51.8268893223
11
134.1233907290
21
-52.3957167493
0
LINE
5
395
100
AcDbEntity
8
0
100
AcDbLine
62
7
6
CONTINUOUS
10
136.9687245452
20
-51.3264552984
11
136.6074081969
21
-51.8952872793
0
LINE
5
396
100
AcDbEntity
8
0
100
AcDbLine
62
7
6
CONTINUOUS
10
134.8746535758
20
-52.3774539727
11
135.1208551591
21
-52.0314402713
0
LINE
5
397
100
AcDbEntity
8
0
100
AcDbLine
62
7
6
CONTINUOUS
10
137.3586702225
20
-51.8770199569
11
137.6048718058
21
-51.5310062556
0
LINE
5
398
100
AcDbEntity
8
0
100
AcDbLine
62
7
6
CONTINUOUS
10
137.6329697069
20
-45.5446559466
11
137.0567279737
21
-46.3379825315
0
LINE
5
399
100
AcDbEntity
8
0
100
AcDbLine
62
7
6
CONTINUOUS
10
111.9390332132
20
-66.6494926931
11
124.6407391353
21
-66.6494926931
0
LINE
5
39A
100
AcDbEntity
8
0
100
AcDbLine
62
7
6
CONTINUOUS
10
98.8766947639
20
-51.8897325273
11
98.3213974829
21
-51.5180211326
0
LINE
5
39B
100
AcDbEntity
8
0
100
AcDbLine
62
7
6
CONTINUOUS
10
98.1011755789
20
-52.1012324621
11
98.3727947572
21
-52.3371726386
0
LINE
5
39C
100
AcDbEntity
8
0
100
AcDbLine
62
7
6
CONTINUOUS
10
102.3674035434
20
-47.6437494690
11
102.6990769678
21
-48.0047858322
0
LINE
5
39D
100
AcDbEntity
8
0
100
AcDbLine
62
7
6
CONTINUOUS
10
106.2819426107
20
-43.4347598744
11
105.9528651962
21
-42.8987218430
0
LINE
5
39E
100
AcDbEntity
8
0
100
AcDbLine
62
7
6
CONTINUOUS
10
110.3274882059
20
-33.9362838740
11
112.0361685147
21
-40.7245392906
0
LINE
5
39F
100
AcDbEntity
8
0
100
AcDbLine
62
7
6
CONTINUOUS
10
112.6232091817
20
-40.5767745460
11
111.2780778314
21
-35.2328286203
0
LINE
5
3A0
100
AcDbEntity
8
0
100
AcDbLine
62
7
6
CONTINUOUS
10
114.8003218332
20
-34.3462401525
11
116.1454531835
21
-39.6901860782
0
LINE
5
3A1
100
AcDbEntity
8
0
100
AcDbLine
62
7
6
CONTINUOUS
10
116.7324938505
20
-39.5424213336
11
115.0238135416
21
-32.7541659169
0
LINE
5
3A2
100
AcDbEntity
8
0
100
AcDbLine
62
7
6
CONTINUOUS
10
117.6888923227
20
-37.9281378021
11
117.7588760036
21
-38.3808181855
0
LINE
5
3A3
100
AcDbEntity
8
0
100
AcDbLine
62
7
6
CONTINUOUS
10
121.4673774632
20
-34.4559165664
11
121.4076174780
21
-33.8546514513
0
LINE
5
3A4
100
AcDbEntity
8
0
100
AcDbLine
62
7
6
CONTINUOUS
10
123.2684564354
20
-39.1696365514
11
123.2302332105
21
-38.6808684129
0
LINE
5
3A5
100
AcDbEntity
8
0
100
AcDbLine
62
7
6
CONTINUOUS
10
126.5432595793
20
-35.4426254195
11
126.5814806673
21
-35.9313926764
0
LINE
5
3A6
100
AcDbEntity
8
0
100
AcDbLine
62
7
6
CONTINUOUS
10
124.8293543332
20
-13.7016662760
11
124.8293543332
21
-14.2089424045
0
LINE
5
3A7
100
AcDbEntity
8
0
100
AcDbLine
62
7
6
CONTINUOUS
10
125.2460209936
20
-13.7748632047
11
125.2460209936
21
-14.2831199017
0
LINE
5
3A8
100
AcDbEntity
8
0
100
AcDbLine
62
7
6
CONTINUOUS
10
125.4543543332
20
-13.8132122789
11
125.4543543332
21
-14.3219842370
0
LINE
5
3A9
100
AcDbEntity
8
0
100
AcDbLine
62
7
6
CONTINUOUS
10
125.6120016022
20
-13.8430098781
11
125.6120016022
21
-14.3521829256
0
LINE
5
3AA
100
AcDbEntity
8
0
100
AcDbLine
62
7
6
CONTINUOUS
10
126.5602235710
20
-14.0364828494
11
126.5602235710
21
-14.5482757002
0
LINE
5
3AB
100
AcDbEntity
8
0
100
AcDbLine
62
7
6
CONTINUOUS
10
128.7727414228
20
-14.5847519668
11
128.7727414228
21
-15.1041185441
0
LINE
5
3AC
100
AcDbEntity
8
0
100
AcDbLine
62
7
6
CONTINUOUS
10
132.1552631470
20
-46.4624502535
11
132.0171157169
21
-47.1220218179
0
LINE
5
3AD
100
AcDbEntity
8
0
100
AcDbLine
62
7
6
CONTINUOUS
10
132.7139455314
20
-46.8406738632
11
132.8227080028
21
-46.4301724309
0
LINE
5
3AE
100
AcDbEntity
8
0
100
AcDbLine
62
7
6
CONTINUOUS
10
134.7755101331
20
-52.6998905500
11
134.8746535758
21
-52.3774539727
0
LINE
5
3AF
100
AcDbEntity
8
0
100
AcDbLine
62
7
6
CONTINUOUS
10
138.0622841656
20
-45.9966761204
11
138.3004145174
21
-45.5123781499
0
LINE
5
3B0
100
AcDbEntity
8
0
100
AcDbLine
62
7
6
CONTINUOUS
10
140.6032936887
20
-53.2982569883
11
140.9646100370
21
-52.7294250074
0
LINE
5
3B1
100
AcDbEntity
8
0
100
AcDbLine
62
7
6
CONTINUOUS
10
140.2133480115
20
-52.7476923297
11
139.9671464281
21
-53.0937060311
0
LINE
5
3B2
100
AcDbEntity
8
0
100
AcDbLine
62
7
6
CONTINUOUS
10
138.3461924222
20
-54.2732099452
11
139.3596273534
21
-54.0085472192
0
LINE
5
3B3
100
AcDbEntity
8
0
100
AcDbLine
62
7
6
CONTINUOUS
10
97.6696289800
20
-51.9476599706
11
98.1011755789
21
-52.1012324621
0
LINE
5
3B4
100
AcDbEntity
8
0
100
AcDbLine
62
7
6
CONTINUOUS
10
98.3213974829
20
-51.5180211326
11
97.8898508840
21
-51.3644486410
0
LINE
5
3B5
100
AcDbEntity
8
0
100
AcDbLine
62
7
6
CONTINUOUS
10
101.8591382814
20
-47.3170121105
11
102.3674035434
21
-47.6437494690
0
LINE
5
3B6
100
AcDbEntity
8
0
100
AcDbLine
62
7
6
CONTINUOUS
10
99.3144523036
20
-42.4963718373
11
104.6969528201
21
-46.9717140800
0
LINE
5
3B7
100
AcDbEntity
8
0
100
AcDbLine
62
7
6
CONTINUOUS
10
104.3968476424
20
-45.9349212254
11
100.3886024933
21
-42.6022194857
0
LINE
5
3B8
100
AcDbEntity
8
0
100
AcDbLine
62
7
6
CONTINUOUS
10
103.2107431355
20
-47.5650394627
11
102.7420981499
21
-47.1455154940
0
LINE
5
3B9
100
AcDbEntity
8
0
100
AcDbLine
62
7
6
CONTINUOUS
10
105.9528651962
20
-42.8987218430
11
105.4447623382
21
-42.3450431955
0
LINE
5
3BA
100
AcDbEntity
8
0
100
AcDbLine
62
7
6
CONTINUOUS
10
105.0577397921
20
-42.8105157653
11
105.4513213762
21
-43.2689743764
0
LINE
5
3BB
100
AcDbEntity
8
0
100
AcDbLine
62
7
6
CONTINUOUS
10
111.2780778314
20
-35.2328286203
11
113.9929699915
21
-40.2319903298
0
LINE
5
3BC
100
AcDbEntity
8
0
100
AcDbLine
62
7
6
CONTINUOUS
10
114.2025566779
20
-39.4113254655
11
111.2080492063
21
-33.7146367570
0
LINE
5
3BD
100
AcDbEntity
8
0
100
AcDbLine
62
7
6
CONTINUOUS
10
117.7588760036
20
-38.3808181855
11
117.9295121840
21
-38.8404240785
0
LINE
5
3BE
100
AcDbEntity
8
0
100
AcDbLine
62
7
6
CONTINUOUS
10
118.2723690873
20
-38.2668617895
11
118.1921640004
21
-37.9627665044
0
LINE
5
3BF
100
AcDbEntity
8
0
100
AcDbLine
62
7
6
CONTINUOUS
10
120.6896503173
20
-36.9403048742
11
120.8500627807
21
-37.5484958111
0
LINE
5
3C0
100
AcDbEntity
8
0
100
AcDbLine
62
7
6
CONTINUOUS
10
122.6990106666
20
-38.9642523243
11
122.7816089411
21
-39.6273526323
0
LINE
5
3C1
100
AcDbEntity
8
0
100
AcDbLine
62
7
6
CONTINUOUS
10
130.9852592746
20
-15.2736536946
11
130.9852592746
21
-15.8028628377
0
LINE
5
3C2
100
AcDbEntity
8
0
100
AcDbLine
62
7
6
CONTINUOUS
10
131.9334812434
20
-15.6138619528
11
131.9334812434
21
-16.1480716991
0
LINE
5
3C3
100
AcDbEntity
8
0
100
AcDbLine
62
7
6
CONTINUOUS
10
134.1233907290
20
-52.3957167493
11
134.0561906491
21
-52.9173944842
0
LINE
5
3C4
100
AcDbEntity
8
0
100
AcDbLine
62
7
6
CONTINUOUS
10
136.6074081969
20
-51.8952872793
11
136.5402079239
21
-52.4169650453
0
LINE
5
3C5
100
AcDbEntity
8
0
100
AcDbLine
62
7
6
CONTINUOUS
10
138.3004145174
20
-45.5123781499
11
138.4385642020
21
-44.8528106165
0
LINE
5
3C6
100
AcDbEntity
8
0
100
AcDbLine
62
7
6
CONTINUOUS
10
137.7417321783
20
-45.1341545143
11
137.6329697069
21
-45.5446559466
0
LINE
5
3C7
100
AcDbEntity
8
0
100
AcDbLine
62
7
6
CONTINUOUS
10
137.2595267798
20
-52.1994565343
11
137.3586702225
21
-51.8770199569
0
LINE
5
3C8
100
AcDbEntity
8
0
100
AcDbLine
62
7
6
CONTINUOUS
10
140.3124914542
20
-52.4252557524
11
140.2133480115
21
-52.7476923297
0
LINE
5
3C9
100
AcDbEntity
8
0
100
AcDbLine
62
7
6
CONTINUOUS
10
137.3167854377
20
-54.4382498133
11
138.3461924222
21
-54.2732099452
0
LINE
5
3CA
100
AcDbEntity
8
0
100
AcDbLine
62
7
6
CONTINUOUS
10
137.5310436453
20
-53.8929949564
11
137.2369273640
21
-53.9401492044
0
LINE
5
3CB
100
AcDbEntity
8
0
100
AcDbLine
62
7
6
CONTINUOUS
10
139.1327118702
20
-53.5340282945
11
138.8385955889
21
-53.5811825425
0
LINE
5
3CC
100
AcDbEntity
8
0
100
AcDbLine
62
7
6
CONTINUOUS
10
138.4393059517
20
-51.0906840582
11
138.7334222330
21
-51.0435298102
0
LINE
5
3CD
100
AcDbEntity
8
0
100
AcDbLine
62
7
6
CONTINUOUS
10
138.8006230312
20
-50.5218566375
11
138.2123904686
21
-50.6161651336
0
LINE
5
3CE
100
AcDbEntity
8
0
100
AcDbLine
62
7
6
CONTINUOUS
10
136.2714061937
20
-54.5036668565
11
137.3167854377
21
-54.4382498133
0
LINE
5
3CF
100
AcDbEntity
8
0
100
AcDbLine
62
7
6
CONTINUOUS
10
137.2369273640
20
-53.9401492044
11
136.3386069918
21
-53.9819936838
0
LINE
5
3D0
100
AcDbEntity
8
DEFAULT_1
100
AcDbLine
62
2
6
CENTER
10
118.2898861743
20
-55.6494926931
11
89.7898861743
21
-55.6494926931
0
LINE
5
3D1
100
AcDbEntity
8
DEFAULT_1
100
AcDbLine
62
2
6
CENTER
10
118.2898861743
20
-55.6494926931
11
146.7898861743
21
-55.6494926931
0
LINE
5
3D2
100
AcDbEntity
8
0
100
AcDbLine
62
7
6
CONTINUOUS
10
95.2256436895
20
-54.8036737801
11
102.1754638408
21
-55.6403337260
0
LINE
5
3D3
100
AcDbEntity
8
0
100
AcDbLine
62
7
6
CONTINUOUS
10
102.2478172486
20
-55.0393211232
11
99.1425784136
21
-54.6654943335
0
LINE
5
3D4
100
AcDbEntity
8
0
100
AcDbLine
62
7
6
CONTINUOUS
10
98.2553674362
20
-54.5586866936
11
96.0373395785
21
-54.2916675439
0
LINE
5
3D5
100
AcDbEntity
8
0
100
AcDbLine
62
7
6
CONTINUOUS
10
97.2260230770
20
-51.8942561007
11
97.6696289800
21
-51.9476599706
0
LINE
5
3D6
100
AcDbEntity
8
0
100
AcDbLine
62
7
6
CONTINUOUS
10
97.8898508840
20
-51.3644486410
11
97.2983764849
21
-51.2932434979
0
LINE
5
3D7
100
AcDbEntity
8
0
100
AcDbLine
62
7
6
CONTINUOUS
10
101.4957519500
20
-49.6850619575
11
100.9082457165
21
-49.5438982686
0
LINE
5
3D8
100
AcDbEntity
8
0
100
AcDbLine
62
7
6
CONTINUOUS
10
100.6705224619
20
-50.1006200735
11
101.3950003875
21
-50.3002707961
0
LINE
5
3D9
100
AcDbEntity
8
0
100
AcDbLine
62
7
6
CONTINUOUS
10
96.4244064627
20
-48.2875053264
11
100.6705224619
21
-50.1006200735
0
LINE
5
3DA
100
AcDbEntity
8
0
100
AcDbLine
62
7
6
CONTINUOUS
10
100.9082457165
20
-49.5438982686
11
96.6621297173
21
-47.7307835214
0
LINE
5
3DB
100
AcDbEntity
8
0
100
AcDbLine
62
7
6
CONTINUOUS
10
97.6130222822
20
-45.5038973634
11
101.8591382814
21
-47.3170121105
0
LINE
5
3DC
100
AcDbEntity
8
0
100
AcDbLine
62
7
6
CONTINUOUS
10
102.0968614226
20
-46.7602905710
11
97.8507454234
21
-44.9471758239
0
LINE
5
3DD
100
AcDbEntity
8
0
100
AcDbLine
62
7
6
CONTINUOUS
10
102.7420981499
20
-47.1455154940
11
102.0968614226
21
-46.7602905710
0
LINE
5
3DE
100
AcDbEntity
8
0
100
AcDbLine
62
7
6
CONTINUOUS
10
103.3399205227
20
-41.3822150864
11
105.0577397921
21
-42.8105157653
0
LINE
5
3DF
100
AcDbEntity
8
0
100
AcDbLine
62
7
6
CONTINUOUS
10
105.4447623382
20
-42.3450431955
11
103.7269430688
21
-40.9167425166
0
LINE
5
3E0
100
AcDbEntity
8
0
100
AcDbLine
62
7
6
CONTINUOUS
10
118.4532312672
20
-38.5778831094
11
118.2723690873
21
-38.2668617895
0
LINE
5
3E1
100
AcDbEntity
8
0
100
AcDbLine
62
7
6
CONTINUOUS
10
121.2935744875
20
-36.9818591901
11
121.1229360032
21
-36.5222531386
0
LINE
5
3E2
100
AcDbEntity
8
0
100
AcDbLine
62
7
6
CONTINUOUS
10
120.7934696051
20
-33.9616819711
11
120.9641057855
21
-34.4212878641
0
LINE
5
3E3
100
AcDbEntity
8
0
100
AcDbLine
62
7
6
CONTINUOUS
10
125.7791361009
20
-37.8585906119
11
125.8678905092
21
-38.2072566160
0
LINE
5
3E4
100
AcDbEntity
8
0
100
AcDbLine
62
7
6
CONTINUOUS
10
126.3991130178
20
-37.9238728027
11
126.2659835775
21
-37.4008745801
0
LINE
5
3E5
100
AcDbEntity
8
0
100
AcDbLine
62
7
6
CONTINUOUS
10
127.1127053481
20
-35.6480096466
11
127.0301070559
21
-34.9849093877
0
LINE
5
3E6
100
AcDbEntity
8
0
100
AcDbLine
62
7
6
CONTINUOUS
10
140.9646100370
20
-52.7294250074
11
141.0318101040
21
-52.2077472744
0
LINE
5
3E7
100
AcDbEntity
8
0
100
AcDbLine
62
7
6
CONTINUOUS
10
134.1670185770
20
-83.1494926931
11
150.0441509797
21
-55.6494926931
0
LINE
5
3E8
100
AcDbEntity
8
0
100
AcDbLine
62
7
6
CONTINUOUS
10
133.7931434805
20
-48.4319622423
11
134.4105980480
21
-48.3120496124
0
LINE
5
3E9
100
AcDbEntity
8
0
100
AcDbLine
62
7
6
CONTINUOUS
10
102.6337021019
20
-51.8339204790
11
99.1241961627
21
-52.3260100470
0
LINE
5
3EA
100
AcDbEntity
8
0
100
AcDbLine
62
7
6
CONTINUOUS
10
99.3475797300
20
-52.9626253398
11
102.5492897698
21
-52.5351020401
0
LINE
5
3EB
100
AcDbEntity
8
0
100
AcDbLine
62
7
6
CONTINUOUS
10
96.7703586986
20
-51.9410209524
11
97.2260230770
21
-51.8942561007
0
LINE
5
3EC
100
AcDbEntity
8
0
100
AcDbLine
62
7
6
CONTINUOUS
10
97.2983764849
20
-51.2932434979
11
96.8427121064
21
-51.3400083495
0
LINE
5
3ED
100
AcDbEntity
8
0
100
AcDbLine
62
7
6
CONTINUOUS
10
134.5987380662
20
-47.7401168604
11
133.6225647824
21
-47.8323489921
0
LINE
5
3EE
100
AcDbEntity
8
0
100
AcDbLine
62
7
6
CONTINUOUS
10
101.9859075441
20
-49.6749504507
11
101.4957519500
21
-49.6850619575
0
LINE
5
3EF
100
AcDbEntity
8
0
100
AcDbLine
62
7
6
CONTINUOUS
10
136.3386069918
20
-53.9819936838
11
135.8814605165
21
-53.9531021979
0
LINE
5
3F0
100
AcDbEntity
8
0
100
AcDbLine
62
7
6
CONTINUOUS
10
138.8385955889
20
-53.5811825425
11
138.3814491135
21
-53.5522910567
0
LINE
5
3F1
100
AcDbEntity
8
0
100
AcDbLine
62
7
6
CONTINUOUS
10
138.7334222330
20
-51.0435298102
11
139.1905691204
21
-51.0724212300
0
LINE
5
3F2
100
AcDbEntity
8
0
100
AcDbLine
62
7
6
CONTINUOUS
10
101.3950003875
20
-50.3002707961
11
102.0221274294
21
-50.3486471603
0
LINE
5
3F3
100
AcDbEntity
8
0
100
AcDbLine
62
7
6
CONTINUOUS
10
135.5041727429
20
-54.4223158977
11
136.2714061937
21
-54.5036668565
0
LINE
5
3F4
100
AcDbEntity
8
0
100
AcDbLine
62
7
6
CONTINUOUS
10
139.5678567910
20
-50.6032075468
11
138.8006230312
21
-50.5218566375
0
LINE
5
3F5
100
AcDbEntity
8
0
100
AcDbLine
62
7
6
CONTINUOUS
10
135.8814605165
20
-53.9531021979
11
135.4083433469
21
-53.8245969911
0
LINE
5
3F6
100
AcDbEntity
8
0
100
AcDbLine
62
7
6
CONTINUOUS
10
138.3814491135
20
-53.5522910567
11
137.9083320470
21
-53.4237858333
0
LINE
5
3F7
100
AcDbEntity
8
0
100
AcDbLine
62
7
6
CONTINUOUS
10
134.8680254308
20
-54.2177649487
11
135.5041727429
21
-54.4223158977
0
LINE
5
3F8
100
AcDbEntity
8
0
100
AcDbLine
62
7
6
CONTINUOUS
10
103.0898328667
20
-40.5182205337
11
102.5027400095
21
-40.2924982074
0
LINE
5
3F9
100
AcDbEntity
8
0
100
AcDbLine
62
7
6
CONTINUOUS
10
102.8173319153
20
-41.0789134066
11
103.3399205227
21
-41.3822150864
0
LINE
5
3FA
100
AcDbEntity
8
0
100
AcDbLine
62
7
6
CONTINUOUS
10
103.7269430688
20
-40.9167425166
11
103.0898328667
21
-40.5182205337
0
LINE
5
3FB
100
AcDbEntity
8
0
100
AcDbLine
62
7
6
CONTINUOUS
10
117.9295121840
20
-38.8404240785
11
118.2110268600
21
-39.1583709600
0
LINE
5
3FC
100
AcDbEntity
8
0
100
AcDbLine
62
7
6
CONTINUOUS
10
121.4076174780
20
-33.8546514513
11
121.0458954077
21
-33.2326091782
0
LINE
5
3FD
100
AcDbEntity
8
0
100
AcDbLine
62
7
6
CONTINUOUS
10
130.9915920964
20
-55.6494926931
11
124.6407391353
21
-44.6494926931
0
LINE
5
3FE
100
AcDbEntity
8
0
100
AcDbLine
62
7
6
CONTINUOUS
10
122.7816089411
20
-39.6273526323
11
123.1045529003
21
-40.2188120395
0
LINE
5
3FF
100
AcDbEntity
8
0
100
AcDbLine
62
7
6
CONTINUOUS
10
126.2659835775
20
-37.4008745801
11
125.9430396050
21
-36.8094152097
0
LINE
5
400
100
AcDbEntity
8
0
100
AcDbLine
62
7
6
CONTINUOUS
10
123.4521170238
20
-39.5525327377
11
123.2684564354
21
-39.1696365514
0
LINE
5
401
100
AcDbEntity
8
0
100
AcDbLine
62
7
6
CONTINUOUS
10
125.5954755125
20
-37.4756944257
11
125.7791361009
21
-37.8585906119
0
LINE
5
402
100
AcDbEntity
8
0
100
AcDbLine
62
7
6
CONTINUOUS
10
126.3595989909
20
-35.0597292333
11
126.5432595793
21
-35.4426254195
0
LINE
5
403
100
AcDbEntity
8
0
100
AcDbLine
62
7
6
CONTINUOUS
10
134.1200766694
20
-53.3158722352
11
134.3469928966
21
-53.7903957181
0
LINE
5
404
100
AcDbEntity
8
0
100
AcDbLine
62
7
6
CONTINUOUS
10
133.2971538111
20
-50.0956167080
11
133.4647603629
21
-50.5714208403
0
LINE
5
405
100
AcDbEntity
8
0
100
AcDbLine
62
7
6
CONTINUOUS
10
134.1671373482
20
-50.3240018363
11
133.9995307964
21
-49.8481977040
0
LINE
5
406
100
AcDbEntity
8
0
100
AcDbLine
62
7
6
CONTINUOUS
10
132.0171157169
20
-47.1220218179
11
132.1876944036
21
-47.7216350745
0
LINE
5
407
100
AcDbEntity
8
0
100
AcDbLine
62
7
6
CONTINUOUS
10
132.8345338958
20
-47.3526523319
11
132.7139455314
21
-46.8406738632
0
LINE
5
408
100
AcDbEntity
8
0
100
AcDbLine
62
7
6
CONTINUOUS
10
134.0561906491
20
-52.9173944842
11
134.1200766694
21
-53.3158722352
0
LINE
5
409
100
AcDbEntity
8
0
100
AcDbLine
62
7
6
CONTINUOUS
10
134.8713395291
20
-53.2976094566
11
134.7755101331
21
-52.6998905500
0
LINE
5
40A
100
AcDbEntity
8
0
100
AcDbLine
62
7
6
CONTINUOUS
10
135.5300863084
20
-51.7614677272
11
135.4502282347
21
-51.2633671182
0
LINE
5
40B
100
AcDbEntity
8
0
100
AcDbLine
62
7
6
CONTINUOUS
10
136.5402079239
20
-52.4169650453
11
136.6200652665
21
-52.9150610940
0
LINE
5
40C
100
AcDbEntity
8
0
100
AcDbLine
62
7
6
CONTINUOUS
10
137.3713282291
20
-52.8967982988
11
137.2595267798
21
-52.1994565343
0
LINE
5
40D
100
AcDbEntity
8
0
100
AcDbLine
62
7
6
CONTINUOUS
10
133.5000848672
20
-41.4988287758
11
134.6829996159
21
-41.2662742027
0
LINE
5
40E
100
AcDbEntity
8
0
100
AcDbLine
62
7
6
CONTINUOUS
10
135.5786232621
20
-40.4804594376
11
134.3957088270
21
-40.7130137355
0
LINE
5
40F
100
AcDbEntity
8
0
100
AcDbLine
62
7
6
CONTINUOUS
10
102.0221274294
20
-50.3486471603
11
102.7284952815
21
-50.2114501000
0
LINE
5
410
100
AcDbEntity
8
0
100
AcDbLine
62
7
6
CONTINUOUS
10
136.6625342292
20
-43.5428661353
11
136.0450797523
21
-43.6627787135
0
LINE
5
411
100
AcDbEntity
8
0
100
AcDbLine
62
7
6
CONTINUOUS
10
135.8569416601
20
-44.2347156838
11
136.8331129273
21
-44.1424793854
0
LINE
5
412
100
AcDbEntity
8
0
100
AcDbLine
62
7
6
CONTINUOUS
10
124.6407391353
20
-44.6494926931
11
111.9390332132
21
-44.6494926931
0
LINE
5
413
100
AcDbEntity
8
0
100
AcDbLine
62
7
6
CONTINUOUS
10
133.2550665050
20
-48.3904435267
11
133.7931434805
21
-48.4319622423
0
LINE
5
414
100
AcDbEntity
8
0
100
AcDbLine
62
7
6
CONTINUOUS
10
137.2006111594
20
-43.5843848767
11
136.6625342292
21
-43.5428661353
0
LINE
5
415
100
AcDbEntity
8
0
100
AcDbLine
62
7
6
CONTINUOUS
10
139.1905691204
20
-51.0724212300
11
139.6636861869
21
-51.2009264534
0
LINE
5
416
100
AcDbEntity
8
0
100
AcDbLine
62
7
6
CONTINUOUS
10
102.3447600112
20
-40.9484108499
11
102.8173319153
21
-41.0789134066
0
LINE
5
417
100
AcDbEntity
8
0
100
AcDbLine
62
7
6
CONTINUOUS
10
133.6225647824
20
-47.8323489921
11
133.2138557326
21
-47.7170337126
0
LINE
5
418
100
AcDbEntity
8
0
100
AcDbLine
62
7
6
CONTINUOUS
10
140.2040040515
20
-50.8077585040
11
139.5678567910
21
-50.6032075468
0
LINE
5
419
100
AcDbEntity
8
0
100
AcDbLine
62
7
6
CONTINUOUS
10
132.6170088736
20
-48.1736552418
11
133.2550665050
21
-48.3904435267
0
LINE
5
41A
100
AcDbEntity
8
0
100
AcDbLine
62
7
6
CONTINUOUS
10
118.5931963331
20
-39.4832436007
11
118.9855895108
21
-39.6595313795
0
LINE
5
41B
100
AcDbEntity
8
0
100
AcDbLine
62
7
6
CONTINUOUS
10
123.1045529003
20
-40.2188120395
11
123.5285591645
21
-40.5300673496
0
LINE
5
41C
100
AcDbEntity
8
0
100
AcDbLine
62
7
6
CONTINUOUS
10
135.4083433469
20
-53.8245969911
11
135.0663123677
21
-53.5728917859
0
LINE
5
41D
100
AcDbEntity
8
0
100
AcDbLine
62
7
6
CONTINUOUS
10
136.8469816868
20
-53.3895845458
11
137.5310436453
21
-53.8929949564
0
LINE
5
41E
100
AcDbEntity
8
0
100
AcDbLine
62
7
6
CONTINUOUS
10
137.9083320470
20
-53.4237858333
11
137.5663010677
21
-53.1720806281
0
LINE
5
41F
100
AcDbEntity
8
0
100
AcDbLine
62
7
6
CONTINUOUS
10
139.6636861869
20
-51.2009264534
11
140.0057171662
21
-51.4526316586
0
LINE
5
420
100
AcDbEntity
8
0
100
AcDbLine
62
7
6
CONTINUOUS
10
134.3469928966
20
-53.7903957181
11
134.8680254308
21
-54.2177649487
0
LINE
5
421
100
AcDbEntity
8
0
100
AcDbLine
62
7
6
CONTINUOUS
10
118.2110268600
20
-39.1583709600
11
118.5931963331
21
-39.4832436007
0
LINE
5
422
100
AcDbEntity
8
0
100
AcDbLine
62
7
6
CONTINUOUS
10
118.6443148532
20
-38.7403193309
11
118.4532312672
21
-38.5778831094
0
LINE
5
423
100
AcDbEntity
8
0
100
AcDbLine
62
7
6
CONTINUOUS
10
133.2138557326
20
-47.7170337126
11
132.8345338958
21
-47.3526523319
0
LINE
5
424
100
AcDbEntity
8
0
100
AcDbLine
62
7
6
CONTINUOUS
10
123.6863087602
20
-39.7953268876
11
123.4521170238
21
-39.5525327377
0
LINE
5
425
100
AcDbEntity
8
0
100
AcDbLine
62
7
6
CONTINUOUS
10
125.3612837761
20
-37.2329002758
11
125.5954755125
21
-37.4756944257
0
LINE
5
426
100
AcDbEntity
8
0
100
AcDbLine
62
7
6
CONTINUOUS
10
132.1876944036
20
-47.7216350745
11
132.6170088736
21
-48.1736552418
0
LINE
5
427
100
AcDbEntity
8
0
100
AcDbLine
62
7
6
CONTINUOUS
10
120.4081356378
20
-36.6223580447
11
120.6896503173
21
-36.9403048742
0
LINE
5
428
100
AcDbEntity
8
0
100
AcDbLine
62
7
6
CONTINUOUS
10
120.5119549255
20
-33.6437351416
11
120.7934696051
21
-33.9616819711
0
LINE
5
429
100
AcDbEntity
8
0
100
AcDbLine
62
7
6
CONTINUOUS
10
130.3168337136
20
-45.0971217327
11
130.7160774584
21
-45.5521553542
0
LINE
5
42A
100
AcDbEntity
8
0
100
AcDbLine
62
7
6
CONTINUOUS
10
135.0663123677
20
-53.5728917859
11
134.8713395291
21
-53.2976094566
0
LINE
5
42B
100
AcDbEntity
8
0
100
AcDbLine
62
7
6
CONTINUOUS
10
137.5663010677
20
-53.1720806281
11
137.3713282291
21
-52.8967982988
0
LINE
5
42C
100
AcDbEntity
8
0
100
AcDbLine
62
7
6
CONTINUOUS
10
127.0301070559
20
-34.9849093877
11
126.7071609112
21
-34.3934492338
0
LINE
5
42D
100
AcDbEntity
8
0
100
AcDbLine
62
7
6
CONTINUOUS
10
136.6200652665
20
-52.9150610940
11
136.8469816868
21
-53.3895845458
0
LINE
5
42E
100
AcDbEntity
8
0
100
AcDbLine
62
7
6
CONTINUOUS
10
140.9519527615
20
-51.7096512258
11
140.7250365472
21
-51.2351277409
0
LINE
5
42F
100
AcDbEntity
8
0
100
AcDbLine
62
7
6
CONTINUOUS
10
138.4385642020
20
-44.8528106165
11
138.2679855039
21
-44.2531973664
0
LINE
5
430
100
AcDbEntity
8
0
100
AcDbLine
62
7
6
CONTINUOUS
10
137.6211461023
20
-44.6221800573
11
137.7417321783
21
-45.1341545143
0
LINE
5
431
100
AcDbEntity
8
0
100
AcDbLine
62
7
6
CONTINUOUS
10
140.2006900048
20
-51.7279139879
11
140.3124914542
21
-52.4252557524
0
LINE
5
432
100
AcDbEntity
8
0
100
AcDbLine
62
7
6
CONTINUOUS
10
141.0318101040
20
-52.2077472744
11
140.9519527615
21
-51.7096512258
0
LINE
5
433
100
AcDbEntity
8
0
100
AcDbLine
62
7
6
CONTINUOUS
10
112.0361685147
20
-40.7245392906
11
112.6232091817
21
-40.5767745460
0
LINE
5
434
100
AcDbEntity
8
0
100
AcDbLine
62
7
6
CONTINUOUS
10
113.9929699915
20
-40.2319903298
11
114.7756923737
21
-40.0349702945
0
LINE
5
435
100
AcDbEntity
8
0
100
AcDbLine
62
7
6
CONTINUOUS
10
116.1454531835
20
-39.6901860782
11
116.7324938505
21
-39.5424213336
0
LINE
5
436
100
AcDbEntity
8
0
100
AcDbLine
62
7
6
CONTINUOUS
10
101.7866401291
20
-40.2219328125
11
101.2995827965
21
-40.3418074904
0
LINE
5
437
100
AcDbEntity
8
0
100
AcDbLine
62
7
6
CONTINUOUS
10
120.2547800748
20
-38.8511308930
11
119.7412846944
21
-38.9650870264
0
LINE
5
438
100
AcDbEntity
8
0
100
AcDbLine
62
7
6
CONTINUOUS
10
124.6859147415
20
-39.9975313741
11
124.3506607090
21
-40.0349412969
0
LINE
5
439
100
AcDbEntity
8
0
100
AcDbLine
62
7
6
CONTINUOUS
10
124.3616777948
20
-37.0306957892
11
124.6969318273
21
-36.9932858664
0
LINE
5
43A
100
AcDbEntity
8
0
100
AcDbLine
62
7
6
CONTINUOUS
10
101.9222061903
20
-40.9907070621
11
102.3447600112
21
-40.9484108499
0
LINE
5
43B
100
AcDbEntity
8
0
100
AcDbLine
62
7
6
CONTINUOUS
10
124.0030987534
20
-40.7012213945
11
124.5281673225
21
-40.7322726073
0
LINE
5
43C
100
AcDbEntity
8
0
100
AcDbLine
62
7
6
CONTINUOUS
10
118.9855895108
20
-39.6595313795
11
119.7908209697
21
-39.7149370813
0
LINE
5
43D
100
AcDbEntity
8
0
100
AcDbLine
62
7
6
CONTINUOUS
10
119.7412846944
20
-38.9650870264
11
119.1373605243
21
-38.9235327105
0
LINE
5
43E
100
AcDbEntity
8
0
100
AcDbLine
62
7
6
CONTINUOUS
10
118.1921640004
20
-37.9627665044
11
117.6888923227
21
-37.9281378021
0
LINE
5
43F
100
AcDbEntity
8
0
100
AcDbLine
62
7
6
CONTINUOUS
10
102.5027400095
20
-40.2924982074
11
101.7866401291
21
-40.2219328125
0
LINE
5
440
100
AcDbEntity
8
0
100
AcDbLine
62
7
6
CONTINUOUS
10
136.8331129273
20
-44.1424793854
11
137.2418219771
21
-44.2577946650
0
LINE
5
441
100
AcDbEntity
8
0
100
AcDbLine
62
7
6
CONTINUOUS
10
119.8144351705
20
-36.4322188931
11
120.4081356378
21
-36.6223580447
0
LINE
5
442
100
AcDbEntity
8
0
100
AcDbLine
62
7
6
CONTINUOUS
10
137.8386710452
20
-43.8011771926
11
137.2006111594
21
-43.5843848767
0
LINE
5
443
100
AcDbEntity
8
0
100
AcDbLine
62
7
6
CONTINUOUS
10
123.5285591645
20
-40.5300673496
11
124.0030987534
21
-40.7012213945
0
LINE
5
444
100
AcDbEntity
8
0
100
AcDbLine
62
7
6
CONTINUOUS
10
124.3506607090
20
-40.0349412969
11
123.6863087602
21
-39.7953268876
0
LINE
5
445
100
AcDbEntity
8
0
100
AcDbLine
62
7
6
CONTINUOUS
10
124.6969318273
20
-36.9932858664
11
125.3612837761
21
-37.2329002758
0
LINE
5
446
100
AcDbEntity
8
0
100
AcDbLine
62
7
6
CONTINUOUS
10
119.1373605243
20
-38.9235327105
11
118.6443148532
21
-38.7403193309
0
LINE
5
447
100
AcDbEntity
8
0
100
AcDbLine
62
7
6
CONTINUOUS
10
121.1229360032
20
-36.5222531386
11
120.6401140349
21
-36.1904549233
0
LINE
5
448
100
AcDbEntity
8
0
100
AcDbLine
62
7
6
CONTINUOUS
10
125.9430396050
20
-36.8094152097
11
125.5190333364
21
-36.4981599119
0
LINE
5
449
100
AcDbEntity
8
0
100
AcDbLine
62
7
6
CONTINUOUS
10
140.7250365472
20
-51.2351277409
11
140.2040040515
21
-50.8077585040
0
LINE
5
44A
100
AcDbEntity
8
0
100
AcDbLine
62
7
6
CONTINUOUS
10
121.0458954077
20
-33.2326091782
11
120.6637282357
21
-32.9077367351
0
LINE
5
44B
100
AcDbEntity
8
0
100
AcDbLine
62
7
6
CONTINUOUS
10
137.2418219771
20
-44.2577946650
11
137.6211461023
21
-44.6221800573
0
LINE
5
44C
100
AcDbEntity
8
0
100
AcDbLine
62
7
6
CONTINUOUS
10
126.1254072546
20
-34.8169350834
11
126.3595989909
21
-35.0597292333
0
LINE
5
44D
100
AcDbEntity
8
0
100
AcDbLine
62
7
6
CONTINUOUS
10
138.2679855039
20
-44.2531973664
11
137.8386710452
21
-43.8011771926
0
LINE
5
44E
100
AcDbEntity
8
0
100
AcDbLine
62
7
6
CONTINUOUS
10
135.9778670069
20
-40.9354930591
11
135.5786232621
21
-40.4804594376
0
LINE
5
44F
100
AcDbEntity
8
0
100
AcDbLine
62
7
6
CONTINUOUS
10
140.0057171662
20
-51.4526316586
11
140.2006900048
21
-51.7279139879
0
LINE
5
450
100
AcDbEntity
8
0
100
AcDbLine
62
7
6
CONTINUOUS
10
156.7898861743
20
-52.1494926931
11
156.7898861743
21
-86.3411620615
0
LINE
5
451
100
AcDbEntity
8
0
100
AcDbLine
62
7
6
CONTINUOUS
10
156.7898861743
20
-110.9578233248
11
156.7898861743
21
-126.6491523088
0
LINE
5
452
100
AcDbEntity
8
0
100
AcDbLine
62
7
6
CONTINUOUS
10
115.0238135416
20
-32.7541659169
11
114.1432525412
21
-32.9758130338
0
LINE
5
453
100
AcDbEntity
8
0
100
AcDbLine
62
7
6
CONTINUOUS
10
111.2080492063
20
-33.7146367570
11
110.3274882059
21
-33.9362838740
0
LINE
5
454
100
AcDbEntity
8
0
100
AcDbLine
62
7
6
CONTINUOUS
10
119.1027992965
20
-33.5467751239
11
119.6162923731
21
-33.4328188319
0
LINE
5
455
100
AcDbEntity
8
0
100
AcDbLine
62
7
6
CONTINUOUS
10
119.7680656832
20
-32.6968204254
11
119.0532630141
21
-32.7969251730
0
LINE
5
456
100
AcDbEntity
8
0
100
AcDbLine
62
7
6
CONTINUOUS
10
125.2207074532
20
-34.6489607790
11
125.5559614857
21
-34.6115508562
0
LINE
5
457
100
AcDbEntity
8
0
100
AcDbLine
62
7
6
CONTINUOUS
10
125.0444937475
20
-36.3270058670
11
124.5194251828
21
-36.2959546418
0
LINE
5
458
100
AcDbEntity
8
0
100
AcDbLine
62
7
6
CONTINUOUS
10
125.9035234059
20
-33.9452708567
11
125.3784548412
21
-33.9142196316
0
LINE
5
459
100
AcDbEntity
8
0
100
AcDbLine
62
7
6
CONTINUOUS
10
119.4118182891
20
-36.4045159629
11
119.8144351705
21
-36.4322188931
0
LINE
5
45A
100
AcDbEntity
8
0
100
AcDbLine
62
7
6
CONTINUOUS
10
119.8553299815
20
-35.8378795501
11
119.4527131002
21
-35.8101766200
0
LINE
5
45B
100
AcDbEntity
8
0
100
AcDbLine
62
7
6
CONTINUOUS
10
118.0451397312
20
-34.2204420565
11
118.5484091050
21
-34.2550706003
0
LINE
5
45C
100
AcDbEntity
8
0
100
AcDbLine
62
7
6
CONTINUOUS
10
119.6162923731
20
-33.4328188319
11
120.0189092545
21
-33.4605217621
0
LINE
5
45D
100
AcDbEntity
8
0
100
AcDbLine
62
7
6
CONTINUOUS
10
119.9693729720
20
-32.7106718112
11
119.7680656832
21
-32.6968204254
0
LINE
5
45E
100
AcDbEntity
8
0
100
AcDbLine
62
7
6
CONTINUOUS
10
120.6637282357
20
-32.9077367351
11
119.9693729720
21
-32.7106718112
0
LINE
5
45F
100
AcDbEntity
8
0
100
AcDbLine
62
7
6
CONTINUOUS
10
125.5190333364
20
-36.4981599119
11
125.0444937475
21
-36.3270058670
0
LINE
5
460
100
AcDbEntity
8
0
100
AcDbLine
62
7
6
CONTINUOUS
10
126.5814806673
20
-35.9313926764
11
127.0560180840
21
-36.1025459378
0
LINE
5
461
100
AcDbEntity
8
0
100
AcDbLine
62
7
6
CONTINUOUS
10
125.5559614857
20
-34.6115508562
11
126.1254072546
21
-34.8169350834
0
LINE
5
462
100
AcDbEntity
8
0
100
AcDbLine
62
7
6
CONTINUOUS
10
126.2831546426
20
-34.0821939360
11
125.9035234059
21
-33.9452708567
0
LINE
5
463
100
AcDbEntity
8
0
100
AcDbLine
62
7
6
CONTINUOUS
10
120.0189092545
20
-33.4605217621
11
120.5119549255
21
-33.6437351416
0
LINE
5
464
100
AcDbEntity
8
0
100
AcDbLine
62
7
6
CONTINUOUS
10
126.7071609112
20
-34.3934492338
11
126.2831546426
21
-34.0821939360
0
LINE
5
465
100
AcDbEntity
8
0
100
AcDbLine
62
7
6
CONTINUOUS
10
150.0441509797
20
-55.6494926931
11
134.1670185770
21
-28.1494926931
0
LINE
5
466
100
AcDbEntity
8
0
100
AcDbLine
62
7
6
CONTINUOUS
10
134.1670185770
20
-28.1494926931
11
102.4127537715
21
-28.1494926931
0
LINE
5
467
100
AcDbEntity
8
0
100
AcDbLine
62
7
6
CONTINUOUS
10
176.7518626173
20
-91.5740150173
11
176.2180894045
21
-90.6494926931
0
LINE
5
468
100
AcDbEntity
8
0
100
AcDbLine
62
7
6
CONTINUOUS
10
179.2898810713
20
-98.9875448804
11
179.2898811042
21
-98.3114732852
0
LINE
5
469
100
AcDbEntity
8
0
100
AcDbLine
62
7
6
CONTINUOUS
10
176.2180894045
20
-106.6494926931
11
176.7518279897
21
-105.7250303457
0
ARC
5
46A
100
AcDbEntity
8
0
100
AcDbCircle
62
7
6
CONTINUOUS
10
154.7898861743
20
77.8354568922
40
2.0000000000
100
AcDbArc
50
270.0000000000
51
360.0000000000
0
ARC
5
46B
100
AcDbEntity
8
0
100
AcDbCircle
62
7
6
CONTINUOUS
10
154.7898861743
20
133.8354568922
40
2.0000000000
100
AcDbArc
50
0.0000000000
51
90.0000000000
0
ARC
5
46C
100
AcDbEntity
8
0
100
AcDbCircle
62
7
6
CONTINUOUS
10
81.7898861743
20
77.8354568922
40
2.0000000000
100
AcDbArc
50
180.0000000000
51
270.0000000000
0
ARC
5
46D
100
AcDbEntity
8
0
100
AcDbCircle
62
7
6
CONTINUOUS
10
81.7898861743
20
133.8354568922
40
2.0000000000
100
AcDbArc
50
90.0000000000
51
180.0000000000
0
ARC
5
46E
100
AcDbEntity
8
0
100
AcDbCircle
62
7
6
CONTINUOUS
10
149.2898861743
20
129.0854568922
40
10.0000000000
100
AcDbArc
50
318.5947209013
51
360.0000000000
0
ARC
5
46F
100
AcDbEntity
8
0
100
AcDbCircle
62
7
6
CONTINUOUS
10
149.2898861743
20
242.4125003575
40
10.0000000000
100
AcDbArc
50
5.5872194749
51
48.7325726190
0
ARC
5
470
100
AcDbEntity
8
0
100
AcDbCircle
62
7
6
CONTINUOUS
10
87.2898861743
20
250.6887824535
40
30.0000000000
100
AcDbArc
50
125.4111122953
51
180.0000000000
0
ARC
5
471
100
AcDbEntity
8
0
100
AcDbCircle
62
7
6
CONTINUOUS
10
82.2898861743
20
117.5854568922
40
25.0000000000
100
AcDbArc
50
180.0000000000
51
264.2604696174
0
ARC
5
472
100
AcDbEntity
8
0
100
AcDbCircle
62
7
6
CONTINUOUS
10
118.2898861743
20
207.0854568922
40
57.0000000000
100
AcDbArc
50
48.7325726190
51
131.2674273810
0
ARC
5
473
100
AcDbEntity
8
0
100
AcDbCircle
62
7
6
CONTINUOUS
10
87.2898861743
20
242.4125003575
40
10.0000000000
100
AcDbArc
50
131.2674273810
51
174.4127805251
0
ARC
5
474
100
AcDbEntity
8
0
100
AcDbCircle
62
7
6
CONTINUOUS
10
87.2898861743
20
129.0854568922
40
10.0000000000
100
AcDbArc
50
180.0000000000
51
221.4052790987
0
ARC
5
475
100
AcDbEntity
8
0
100
AcDbCircle
62
7
6
CONTINUOUS
10
118.2898861743
20
207.0854568922
40
83.5000000000
100
AcDbArc
50
54.5888877047
51
125.4111122953
0
ARC
5
476
100
AcDbEntity
8
0
100
AcDbCircle
62
7
6
CONTINUOUS
10
149.2898861743
20
250.6887824535
40
30.0000000000
100
AcDbArc
50
0.0000000000
51
54.5888877047
0
ARC
5
477
100
AcDbEntity
8
0
100
AcDbCircle
62
7
6
CONTINUOUS
10
154.2898861743
20
117.5854568922
40
25.0000000000
100
AcDbArc
50
275.7395303826
51
360.0000000000
0
ARC
5
478
100
AcDbEntity
8
0
100
AcDbCircle
62
7
6
CONTINUOUS
10
323.8847028495
20
105.1219847844
40
12.5365278922
100
AcDbArc
50
270.0000000000
51
285.1307576866
0
ARC
5
479
100
AcDbEntity
8
0
100
AcDbCircle
62
7
6
CONTINUOUS
10
323.8847028495
20
105.1219847844
40
12.5365278922
100
AcDbArc
50
355.4509383458
51
359.8958897350
0
ARC
5
47A
100
AcDbEntity
8
0
100
AcDbCircle
62
7
6
CONTINUOUS
10
323.1712307417
20
277.3354568922
40
13.2500000000
100
AcDbArc
50
179.9826568223
51
186.0000000000
0
ARC
5
47B
100
AcDbEntity
8
0
100
AcDbCircle
62
7
6
CONTINUOUS
10
322.4577586339
20
105.1219847844
40
12.5365278922
100
AcDbArc
50
269.7446685910
51
270.0000000000
0
ARC
5
47C
100
AcDbEntity
8
0
100
AcDbCircle
62
7
6
CONTINUOUS
10
322.4577586339
20
105.1219847844
40
12.5365278922
100
AcDbArc
50
244.8380019675
51
269.4257397462
0
ARC
5
47D
100
AcDbEntity
8
0
100
AcDbCircle
62
7
6
CONTINUOUS
10
322.4577586339
20
105.1219847844
40
12.5365278922
100
AcDbArc
50
180.1041102650
51
184.5490616542
0
ARC
5
47E
100
AcDbEntity
8
0
100
AcDbCircle
62
7
6
CONTINUOUS
10
333.1712307417
20
156.1628071614
40
1.0000000000
100
AcDbArc
50
180.0000000000
51
221.3795991726
0
ARC
5
47F
100
AcDbEntity
8
0
100
AcDbCircle
62
7
6
CONTINUOUS
10
313.1712307417
20
209.5081066230
40
1.0000000000
100
AcDbArc
50
0.0000000000
51
41.4077424830
0
ARC
5
480
100
AcDbEntity
8
0
100
AcDbCircle
62
7
6
CONTINUOUS
10
313.1712307417
20
156.1628071614
40
1.0000000000
100
AcDbArc
50
318.6204007644
51
360.0000000000
0
ARC
5
481
100
AcDbEntity
8
0
100
AcDbCircle
62
7
6
CONTINUOUS
10
333.1712307417
20
209.5081066230
40
1.0000000000
100
AcDbArc
50
138.6293325929
51
180.0000000000
0
ARC
5
482
100
AcDbEntity
8
0
100
AcDbCircle
62
7
6
CONTINUOUS
10
323.1712307417
20
277.3354568922
40
13.2500000000
100
AcDbArc
50
354.0000000000
51
0.0173431777
0
ARC
5
483
100
AcDbEntity
8
0
100
AcDbCircle
62
7
6
CONTINUOUS
10
240.1712307417
20
133.8354568922
40
2.0000000000
100
AcDbArc
50
90.0000000000
51
180.0000000000
0
ARC
5
484
100
AcDbEntity
8
0
100
AcDbCircle
62
7
6
CONTINUOUS
10
240.1712307417
20
77.8354568922
40
2.0000000000
100
AcDbArc
50
180.0000000000
51
270.0000000000
0
ARC
5
485
100
AcDbEntity
8
0
100
AcDbCircle
62
7
6
CONTINUOUS
10
323.1712307417
20
105.8354568922
40
14.5000000000
100
AcDbArc
50
146.4635834345
51
33.5265098898
0
ARC
5
486
100
AcDbEntity
8
0
100
AcDbCircle
62
7
6
CONTINUOUS
10
323.1712307417
20
105.8354568922
40
30.0000000000
100
AcDbArc
50
269.9999999997
51
70.5266873208
0
CIRCLE
5
487
100
AcDbEntity
8
0
100
AcDbCircle
62
7
6
CONTINUOUS
10
118.2898861743
20
-55.6494926931
40
27.5000000000
0
ARC
5
488
100
AcDbEntity
8
0
100
AcDbCircle
62
7
6
CONTINUOUS
10
118.2898861743
20
-55.6494926931
40
35.0000000000
100
AcDbArc
50
301.3099740871
51
238.6900259129
0
ARC
5
489
100
AcDbEntity
8
0
100
AcDbCircle
62
7
6
CONTINUOUS
10
62.0937337516
20
-91.6494926931
40
2.0000000000
100
AcDbArc
50
92.4984661222
51
150.0000000000
0
ARC
5
48A
100
AcDbEntity
8
0
100
AcDbCircle
62
7
6
CONTINUOUS
10
62.0937337516
20
-105.6494926931
40
2.0000000000
100
AcDbArc
50
210.0000000000
51
267.4947567891
0
ARC
5
48B
100
AcDbEntity
8
0
100
AcDbCircle
62
7
6
CONTINUOUS
10
174.4860385970
20
-105.6494926931
40
2.0000000000
100
AcDbArc
50
272.4984661222
51
330.0000000000
0
ARC
5
48C
100
AcDbEntity
8
0
100
AcDbCircle
62
7
6
CONTINUOUS
10
174.4860385970
20
-91.6494926931
40
2.0000000000
100
AcDbArc
50
30.0000000000
51
87.4947567891
0
ARC
5
48D
100
AcDbEntity
8
0
100
AcDbCircle
62
7
6
CONTINUOUS
10
81.7898861743
20
-126.6494926931
40
2.0000000000
100
AcDbArc
50
180.0000000000
51
270.0000000000
0
ARC
5
48E
100
AcDbEntity
8
0
100
AcDbCircle
62
7
6
CONTINUOUS
10
154.7898861743
20
-126.6494926931
40
2.0000000000
100
AcDbArc
50
270.0000000000
51
360.0000000000
0
ARC
5
48F
100
AcDbEntity
8
0
100
AcDbCircle
62
7
6
CONTINUOUS
10
118.2898861743
20
-52.1494926931
40
38.5000000000
100
AcDbArc
50
0.0000000000
51
180.0000000000
0
ARC
5
490
100
AcDbEntity
8
0
100
AcDbCircle
62
7
6
CONTINUOUS
10
118.2898861743
20
-52.1494926931
40
39.0000000000
100
AcDbArc
50
69.5227295325
51
79.1786954803
0
ARC
5
491
100
AcDbEntity
8
0
100
AcDbCircle
62
7
6
CONTINUOUS
10
118.2898861743
20
-52.1494926931
40
39.0000000000
100
AcDbArc
50
91.3161677075
51
100.3431735131
0
ARC
5
492
100
AcDbEntity
8
0
100
AcDbCircle
62
7
6
CONTINUOUS
10
118.2898861743
20
-52.1494926931
40
39.0000000000
100
AcDbArc
50
79.4143996760
51
90.4929434758
0
ARC
5
493
100
AcDbEntity
8
0
100
AcDbCircle
62
7
6
CONTINUOUS
10
118.2898861743
20
-52.1494926931
40
39.0000000000
100
AcDbArc
50
101.8482229057
51
111.3064945395
0
SPLINE
5
494
100
AcDbEntity
8
0
100
AcDbSpline
62
7
6
CONTINUOUS
70
0
71
3
72
12
73
8
74
6
42
0.0000001000
43
0.0000001000
44
0.0000000001
40
0.0000000000
40
0.0000000000
40
0.0000000000
40
0.0000000000
40
0.1857044955
40
0.3746252092
40
0.5701494325
40
0.7763968869
40
1.0000000000
40
1.0000000000
40
1.0000000000
40
1.0000000000
10
94.4741875701
20
166.8354568922
30
0.0000000000
10
94.9944251665
20
166.8354568922
30
0.0000000000
10
96.0451355871
20
166.7659560475
30
0.0000000000
10
97.6162370611
20
166.4581682294
30
0.0000000000
10
99.1960732206
20
165.9551091779
30
0.0000000000
10
100.8068838235
20
165.2603907998
30
0.0000000000
10
101.8702686962
20
164.6924598659
30
0.0000000000
10
102.4127537715
20
164.3792559616
30
0.0000000000
11
94.4741875701
21
166.8354568922
31
0.0000000000
11
96.0315950130
21
166.7339361209
31
0.0000000000
11
97.5905162969
21
166.4327856625
31
0.0000000000
11
99.1579925586
21
165.9395740951
31
0.0000000000
11
100.7520954658
21
165.2588551178
31
0.0000000000
11
102.4127537715
21
164.3792559616
31
0.0000000000
0
SPLINE
5
495
100
AcDbEntity
8
0
100
AcDbSpline
62
7
6
CONTINUOUS
70
0
71
3
72
12
73
8
74
6
42
0.0000001000
43
0.0000001000
44
0.0000000001
40
0.0000000000
40
0.0000000000
40
0.0000000000
40
0.0000000000
40
0.2119371335
40
0.4139957156
40
0.6110342067
40
0.8058633471
40
1.0000000000
40
1.0000000000
40
1.0000000000
40
1.0000000000
10
102.4127537715
20
164.3792559616
30
0.0000000000
10
103.5067647977
20
164.6950697418
30
0.0000000000
10
105.6569185094
20
165.2680147930
30
0.0000000000
10
108.8676927636
20
165.9590859617
30
0.0000000000
10
112.0209393194
20
166.4600802446
30
0.0000000000
10
115.1563967694
20
166.7664629257
30
0.0000000000
10
117.2468407250
20
166.8354568921
30
0.0000000000
10
118.2898861772
20
166.8354568922
30
0.0000000000
11
102.4127537715
21
164.3792559616
31
0.0000000000
11
105.7148420106
21
165.2542413804
31
0.0000000000
11
108.8996469563
21
165.9353567801
31
0.0000000000
11
112.0367723317
21
166.4301710396
31
0.0000000000
11
115.1624239475
21
166.7331126662
31
0.0000000000
11
118.2898861772
21
166.8354568922
31
0.0000000000
0
SPLINE
5
496
100
AcDbEntity
8
0
100
AcDbSpline
62
7
6
CONTINUOUS
70
0
71
3
72
12
73
8
74
6
42
0.0000001000
43
0.0000001000
44
0.0000000001
40
0.0000000000
40
0.0000000000
40
0.0000000000
40
0.0000000000
40
0.1951574725
40
0.3907424451
40
0.5880349315
40
0.7896011209
40
1.0000000000
40
1.0000000000
40
1.0000000000
40
1.0000000000
10
118.2898861772
20
166.8354568922
30
0.0000000000
10
119.3384159339
20
166.8354568921
30
0.0000000000
10
121.4384144785
20
166.7657794686
30
0.0000000000
10
124.5846088852
20
166.4569046554
30
0.0000000000
10
127.7403224766
20
165.9537187150
30
0.0000000000
10
130.9414411497
20
165.2632273282
30
0.0000000000
10
133.0809482611
20
164.6927774562
30
0.0000000000
10
134.1670185770
20
164.3792559616
30
0.0000000000
11
118.2898861772
21
166.8354568922
31
0.0000000000
11
121.4337749217
21
166.7320382358
31
0.0000000000
11
124.5714159047
21
166.4265255618
31
0.0000000000
11
127.7123108797
21
165.9293428139
31
0.0000000000
11
130.8890455199
21
165.2484468289
31
0.0000000000
11
134.1670185770
21
164.3792559616
31
0.0000000000
0
SPLINE
5
497
100
AcDbEntity
8
0
100
AcDbSpline
62
7
6
CONTINUOUS
70
0
71
3
72
12
73
8
74
6
42
0.0000001000
43
0.0000001000
44
0.0000000001
40
0.0000000000
40
0.0000000000
40
0.0000000000
40
0.0000000000
40
0.2236046392
40
0.4299198571
40
0.6254433414
40
0.8143387008
40
1.0000000000
40
1.0000000000
40
1.0000000000
40
1.0000000000
10
134.1670185770
20
164.3792559616
30
0.0000000000
10
134.7095073756
20
164.6924620155
30
0.0000000000
10
135.7730636286
20
165.2604841751
30
0.0000000000
10
137.3840622977
20
165.9552573970
30
0.0000000000
10
138.9640292771
20
166.4582925698
30
0.0000000000
10
140.5349505554
20
166.7659852906
30
0.0000000000
10
141.5854681730
20
166.8354568922
30
0.0000000000
10
142.1055847780
20
166.8354568922
30
0.0000000000
11
134.1670185770
21
164.3792559616
31
0.0000000000
11
135.8276885216
21
165.2588606996
31
0.0000000000
11
137.4223262589
21
165.9397775505
31
0.0000000000
11
138.9898151916
21
166.4329283600
31
0.0000000000
11
140.5485380246
21
166.7339829897
31
0.0000000000
11
142.1055847780
21
166.8354568922
31
0.0000000000
0
SPLINE
5
498
100
AcDbEntity
8
0
100
AcDbSpline
62
7
6
CONTINUOUS
70
0
71
3
72
12
73
8
74
6
42
0.0000001000
43
0.0000001000
44
0.0000000001
40
0.0000000000
40
0.0000000000
40
0.0000000000
40
0.0000000000
40
0.1857044955
40
0.3746252091
40
0.5701494325
40
0.7763968869
40
1.0000000000
40
1.0000000000
40
1.0000000000
40
1.0000000000
10
142.1055847780
20
166.8354568922
30
0.0000000000
10
142.6258223744
20
166.8354568922
30
0.0000000000
10
143.6765327949
20
166.7659560475
30
0.0000000000
10
145.2476342690
20
166.4581682295
30
0.0000000000
10
146.8274704285
20
165.9551091780
30
0.0000000000
10
148.4382810316
20
165.2603907999
30
0.0000000000
10
149.5016659043
20
164.6924598659
30
0.0000000000
10
150.0441509797
20
164.3792559616
30
0.0000000000
11
142.1055847780
21
166.8354568922
31
0.0000000000
11
143.6629922207
21
166.7339361209
31
0.0000000000
11
145.2219135048
21
166.4327856626
31
0.0000000000
11
146.7893897666
21
165.9395740952
31
0.0000000000
11
148.3834926738
21
165.2588551178
31
0.0000000000
11
150.0441509797
21
164.3792559616
31
0.0000000000
0
SPLINE
5
499
100
AcDbEntity
8
0
100
AcDbSpline
62
7
6
CONTINUOUS
70
0
71
3
72
12
73
8
74
6
42
0.0000001000
43
0.0000001000
44
0.0000000001
40
0.0000000000
40
0.0000000000
40
0.0000000000
40
0.0000000000
40
0.2236046391
40
0.4299198570
40
0.6254433413
40
0.8143387007
40
1.0000000000
40
1.0000000000
40
1.0000000000
40
1.0000000000
10
86.5356213688
20
164.3792559616
30
0.0000000000
10
87.0781101674
20
164.6924620155
30
0.0000000000
10
88.1416664203
20
165.2604841750
30
0.0000000000
10
89.7526650892
20
165.9552573969
30
0.0000000000
10
91.3326320684
20
166.4582925696
30
0.0000000000
10
92.9035533470
20
166.7659852906
30
0.0000000000
10
93.9540709648
20
166.8354568922
30
0.0000000000
10
94.4741875701
20
166.8354568922
30
0.0000000000
11
86.5356213688
21
164.3792559616
31
0.0000000000
11
88.1962913133
21
165.2588606995
31
0.0000000000
11
89.7909290504
21
165.9397775504
31
0.0000000000
11
91.3584179830
21
166.4329283599
31
0.0000000000
11
92.9171408158
21
166.7339829896
31
0.0000000000
11
94.4741875701
21
166.8354568922
31
0.0000000000
0
SPLINE
5
49A
100
AcDbEntity
8
DEFAULT_2
100
AcDbSpline
62
8
6
HIDDEN
70
0
71
3
72
18
73
14
74
12
42
0.0000001000
43
0.0000001000
44
0.0000000001
40
0.0000000000
40
0.0000000000
40
0.0000000000
40
0.0000000000
40
0.0908506619
40
0.1817758394
40
0.2727825257
40
0.3636428420
40
0.4546570269
40
0.5454920369
40
0.6364940576
40
0.7273444981
40
0.8183044119
40
0.9092045469
40
1.0000000000
40
1.0000000000
40
1.0000000000
40
1.0000000000
10
322.0463732265
20
264.0854568075
30
0.0000000000
10
321.5139343009
20
264.0854567976
30
0.0000000000
10
320.4472602788
20
264.1564711558
30
0.0000000000
10
318.8759426764
20
264.4745026328
30
0.0000000000
10
317.3604969594
20
264.9986727593
30
0.0000000000
10
315.9278254881
20
265.7198993441
30
0.0000000000
10
314.6045973256
20
266.6247133952
30
0.0000000000
10
313.4128697309
20
267.6980139775
30
0.0000000000
10
312.3750637061
20
268.9195528633
30
0.0000000000
10
311.5085212732
20
270.2688179918
30
0.0000000000
10
310.8292253871
20
271.7208255632
30
0.0000000000
10
310.3490317956
20
273.2496150587
30
0.0000000000
10
310.1670165741
20
274.3025585743
30
0.0000000000
10
310.1113953650
20
274.8317589591
30
0.0000000000
11
322.0463732265
21
264.0854568075
31
0.0000000000
11
320.4525897896
21
264.1916417468
31
0.0000000000
11
318.8857286994
21
264.5087446818
31
0.0000000000
11
317.3735801838
21
265.0318113703
31
0.0000000000
11
315.9466998284
21
265.7501258045
31
0.0000000000
11
314.6257964704
21
266.6533578503
31
0.0000000000
11
313.4390930577
21
267.7221313756
31
0.0000000000
11
312.4031541718
21
268.9414590657
31
0.0000000000
11
311.5399858867
21
270.2854638886
31
0.0000000000
11
310.8622755532
21
271.7340044200
31
0.0000000000
11
310.3833827420
21
273.2587542666
31
0.0000000000
11
310.1113953650
21
274.8317589591
31
0.0000000000
0
SPLINE
5
49B
100
AcDbEntity
8
DEFAULT_2
100
AcDbSpline
62
8
6
HIDDEN
70
0
71
3
72
18
73
14
74
12
42
0.0000001000
43
0.0000001000
44
0.0000000001
40
0.0000000000
40
0.0000000000
40
0.0000000000
40
0.0000000000
40
0.0908105372
40
0.1817430008
40
0.2727101195
40
0.3635752815
40
0.4545609819
40
0.5453959355
40
0.6364027139
40
0.7272499467
40
0.8182399608
40
0.9091364588
40
1.0000000000
40
1.0000000000
40
1.0000000000
40
1.0000000000
10
336.2310661201
20
274.8317589747
30
0.0000000000
10
336.1754356703
20
274.3024706718
30
0.0000000000
10
335.9933612012
20
273.2492533850
30
0.0000000000
10
335.5130001169
20
271.7201761302
30
0.0000000000
10
334.8334601631
20
270.2679302806
30
0.0000000000
10
333.9667759807
20
268.9187146374
30
0.0000000000
10
332.9288678648
20
267.6972781517
30
0.0000000000
10
331.7371604215
20
266.6241636670
30
0.0000000000
10
330.4139671433
20
265.7195140706
30
0.0000000000
10
328.9814507291
20
264.9984684143
30
0.0000000000
10
327.4663125026
20
264.4744648367
30
0.0000000000
10
325.8951847469
20
264.1564752145
30
0.0000000000
10
324.8286026644
20
264.0854567976
30
0.0000000000
10
324.2960882579
20
264.0854568075
30
0.0000000000
11
336.2310661201
21
274.8317589747
31
0.0000000000
11
335.9590161504
21
273.2584959629
31
0.0000000000
11
335.4798830684
21
271.7332258094
31
0.0000000000
11
334.8020105507
21
270.2846213076
31
0.0000000000
11
333.9385800387
21
268.9404772892
31
0.0000000000
11
332.9027173744
21
267.7214613635
31
0.0000000000
11
331.7159314923
21
266.6527808936
31
0.0000000000
11
330.3950702666
21
265.7497179369
31
0.0000000000
11
328.9683542175
21
265.0315886953
31
0.0000000000
11
327.4564641897
21
264.5086714142
31
0.0000000000
11
325.8900966334
21
264.1916718585
31
0.0000000000
11
324.2960882579
21
264.0854568075
31
0.0000000000
0
SPLINE
5
49C
100
AcDbEntity
8
0
100
AcDbSpline
62
7
6
CONTINUOUS
70
0
71
3
72
8
73
4
74
2
42
0.0000001000
43
0.0000001000
44
0.0000000001
40
0.0000000000
40
0.0000000000
40
0.0000000000
40
0.0000000000
40
1.0000000000
40
1.0000000000
40
1.0000000000
40
1.0000000000
10
333.1712265449
20
153.5170147344
30
0.0000000000
10
333.1712246605
20
153.5377326065
30
0.0000000000
10
333.1710086699
20
153.5584537189
30
0.0000000000
10
333.1705786144
20
153.5791728268
30
0.0000000000
11
333.1712265449
21
153.5170147344
31
0.0000000000
11
333.1705786144
21
153.5791728268
31
0.0000000000
0
SPLINE
5
49D
100
AcDbEntity
8
0
100
AcDbSpline
62
7
6
CONTINUOUS
70
0
71
3
72
11
73
7
74
5
42
0.0000001000
43
0.0000001000
44
0.0000000001
40
0.0000000000
40
0.0000000000
40
0.0000000000
40
0.0000000000
40
0.1487016047
40
0.4324818218
40
0.7162544136
40
1.0000000000
40
1.0000000000
40
1.0000000000
40
1.0000000000
10
333.1705786144
20
153.5791728268
30
0.0000000000
10
333.1684142883
20
153.6834451725
30
0.0000000000
10
333.1463509534
20
153.9865618566
30
0.0000000000
10
333.0339309562
20
154.4784917412
30
0.0000000000
10
332.7875268306
20
155.0252895552
30
0.0000000000
10
332.5540375088
20
155.3505419645
30
0.0000000000
10
332.4227687358
20
155.4996188921
30
0.0000000000
11
333.1705786144
21
153.5791728268
31
0.0000000000
11
333.1478255284
21
153.8911690283
31
0.0000000000
11
333.0151305327
21
154.4721830010
31
0.0000000000
11
332.7702113716
21
155.0154883617
31
0.0000000000
11
332.4227687358
21
155.4996188921
31
0.0000000000
0
SPLINE
5
49E
100
AcDbEntity
8
0
100
AcDbSpline
62
7
6
CONTINUOUS
70
0
71
3
72
11
73
7
74
5
42
0.0000001000
43
0.0000001000
44
0.0000000001
40
0.0000000000
40
0.0000000000
40
0.0000000000
40
0.0000000000
40
0.2837452133
40
0.5675169783
40
0.8512968519
40
1.0000000000
40
1.0000000000
40
1.0000000000
40
1.0000000000
10
332.4227137063
20
210.1712321180
30
0.0000000000
10
332.5539985655
20
210.3203190125
30
0.0000000000
10
332.7875153238
20
210.6455969775
30
0.0000000000
10
333.0339421534
20
211.1924449880
30
0.0000000000
10
333.1463638724
20
211.6844232434
30
0.0000000000
10
333.1684194050
20
211.9875697589
30
0.0000000000
10
333.1705799849
20
212.0918529516
30
0.0000000000
11
332.4227137063
21
210.1712321180
31
0.0000000000
11
332.7701969352
21
210.6554003947
31
0.0000000000
11
333.0151381315
21
211.1987543933
31
0.0000000000
11
333.1478347494
21
211.7798238094
31
0.0000000000
11
333.1705799849
21
212.0918529516
31
0.0000000000
0
SPLINE
5
49F
100
AcDbEntity
8
0
100
AcDbSpline
62
7
6
CONTINUOUS
70
0
71
3
72
8
73
4
74
2
42
0.0000001000
43
0.0000001000
44
0.0000000001
40
0.0000000000
40
0.0000000000
40
0.0000000000
40
0.0000000000
40
1.0000000000
40
1.0000000000
40
1.0000000000
40
1.0000000000
10
333.1705799849
20
212.0918529516
30
0.0000000000
10
333.1710084626
20
212.1125339852
30
0.0000000000
10
333.1712236616
20
212.1332170076
30
0.0000000000
10
333.1712255412
20
212.1538968028
30
0.0000000000
11
333.1705799849
21
212.0918529516
31
0.0000000000
11
333.1712255412
21
212.1538968028
31
0.0000000000
0
SPLINE
5
4A0
100
AcDbEntity
8
0
100
AcDbSpline
62
7
6
CONTINUOUS
70
0
71
3
72
8
73
4
74
2
42
0.0000001000
43
0.0000001000
44
0.0000000001
40
0.0000000000
40
0.0000000000
40
0.0000000000
40
0.0000000000
40
1.0000000000
40
1.0000000000
40
1.0000000000
40
1.0000000000
10
336.4212207143
20
109.1436493019
30
0.0000000000
10
336.4212006034
20
109.4104033640
30
0.0000000000
10
336.4104897440
20
109.6773823590
30
0.0000000000
10
336.3891404765
20
109.9435754933
30
0.0000000000
11
336.4212207143
21
109.1436493019
31
0.0000000000
11
336.3891404765
21
109.9435754933
31
0.0000000000
0
SPLINE
5
4A1
100
AcDbEntity
8
0
100
AcDbSpline
62
7
6
CONTINUOUS
70
0
71
3
72
8
73
4
74
2
42
0.0000001000
43
0.0000001000
44
0.0000000001
40
0.0000000000
40
0.0000000000
40
0.0000000000
40
0.0000000000
40
1.0000000000
40
1.0000000000
40
1.0000000000
40
1.0000000000
10
336.3891404765
20
109.9435754933
30
0.0000000000
10
336.3876980331
20
109.9615605838
30
0.0000000000
10
336.3862070265
20
109.9795420869
30
0.0000000000
10
336.3846674727
20
109.9975196909
30
0.0000000000
11
336.3891404765
21
109.9435754933
31
0.0000000000
11
336.3846674727
21
109.9975196909
31
0.0000000000
0
SPLINE
5
4A2
100
AcDbEntity
8
0
100
AcDbSpline
62
7
6
CONTINUOUS
70
0
71
3
72
9
73
5
74
3
42
0.0000001000
43
0.0000001000
44
0.0000000001
40
0.0000000000
40
0.0000000000
40
0.0000000000
40
0.0000000000
40
0.1234522355
40
1.0000000000
40
1.0000000000
40
1.0000000000
40
1.0000000000
10
327.6580944793
20
93.1548282587
30
0.0000000000
10
327.6906292146
20
93.1650243744
30
0.0000000000
10
327.9538323101
20
93.2486989737
30
0.0000000000
10
328.2142276336
20
93.3411273131
30
0.0000000000
10
328.4399364823
20
93.4287107081
30
0.0000000000
11
327.6580944793
21
93.1548282587
31
0.0000000000
11
327.7555724440
21
93.1858174180
31
0.0000000000
11
328.4399364823
21
93.4287107081
31
0.0000000000
0
SPLINE
5
4A3
100
AcDbEntity
8
0
100
AcDbSpline
62
7
6
CONTINUOUS
70
0
71
3
72
8
73
4
74
2
42
0.0000001000
43
0.0000001000
44
0.0000000001
40
0.0000000000
40
0.0000000000
40
0.0000000000
40
0.0000000000
40
1.0000000000
40
1.0000000000
40
1.0000000000
40
1.0000000000
10
328.4399364823
20
93.4287107081
30
0.0000000000
10
328.4842956831
20
93.4459237214
30
0.0000000000
10
328.5285567726
20
93.4633903297
30
0.0000000000
10
328.5727168449
20
93.4811093164
30
0.0000000000
11
328.4399364823
21
93.4287107081
31
0.0000000000
11
328.5727168449
21
93.4811093164
31
0.0000000000
0
SPLINE
5
4A4
100
AcDbEntity
8
0
100
AcDbSpline
62
7
6
CONTINUOUS
70
0
71
3
72
8
73
4
74
2
42
0.0000001000
43
0.0000001000
44
0.0000000001
40
0.0000000000
40
0.0000000000
40
0.0000000000
40
0.0000000000
40
1.0000000000
40
1.0000000000
40
1.0000000000
40
1.0000000000
10
328.5727168449
20
93.4811093164
30
0.0000000000
10
328.8667428248
20
93.5990856272
30
0.0000000000
10
329.1562905718
20
93.7282502360
30
0.0000000000
10
329.4405024165
20
93.8682440279
30
0.0000000000
11
328.5727168449
21
93.4811093164
31
0.0000000000
11
329.4405024165
21
93.8682440279
31
0.0000000000
0
SPLINE
5
4A5
100
AcDbEntity
8
0
100
AcDbSpline
62
7
6
CONTINUOUS
70
0
71
3
72
14
73
10
74
8
42
0.0000001000
43
0.0000001000
44
0.0000000001
40
0.0000000000
40
0.0000000000
40
0.0000000000
40
0.0000000000
40
0.0226011671
40
0.1882543091
40
0.3551681048
40
0.5226479439
40
0.6902047850
40
0.8574932865
40
1.0000000000
40
1.0000000000
40
1.0000000000
40
1.0000000000
10
329.4405024165
20
93.8682440279
30
0.0000000000
10
329.5274676182
20
93.9110803438
30
0.0000000000
10
330.2476748426
20
94.2763267599
30
0.0000000000
10
331.5378372882
20
95.0967834326
30
0.0000000000
10
333.1310923941
20
96.5445699116
30
0.0000000000
10
334.4581286015
20
98.2501309949
30
0.0000000000
10
335.4740410977
20
100.1594454076
30
0.0000000000
10
336.1147180952
20
102.1116311415
30
0.0000000000
10
336.3242615301
20
103.4284737419
30
0.0000000000
10
336.3760911379
20
104.0371145273
30
0.0000000000
11
329.4405024165
21
93.8682440279
31
0.0000000000
11
329.6998746774
21
93.9997844380
31
0.0000000000
11
331.4964302160
21
95.1421617930
31
0.0000000000
11
333.0840940574
21
96.5848025763
31
0.0000000000
11
334.4059060875
21
98.2836159635
31
0.0000000000
11
335.4175459871
21
100.1846683100
31
0.0000000000
11
336.0878377970
21
102.2275296864
31
0.0000000000
11
336.3760911379
21
104.0371145273
31
0.0000000000
0
SPLINE
5
4A6
100
AcDbEntity
8
0
100
AcDbSpline
62
7
6
CONTINUOUS
70
0
71
3
72
8
73
4
74
2
42
0.0000001000
43
0.0000001000
44
0.0000000001
40
0.0000000000
40
0.0000000000
40
0.0000000000
40
0.0000000000
40
1.0000000000
40
1.0000000000
40
1.0000000000
40
1.0000000000
10
309.9603702554
20
104.1098001626
30
0.0000000000
10
309.9599061767
20
104.1157340858
30
0.0000000000
10
309.9594458816
20
104.1216683339
30
0.0000000000
10
309.9589893950
20
104.1276029015
30
0.0000000000
11
309.9603702554
21
104.1098001626
31
0.0000000000
11
309.9589893950
21
104.1276029015
31
0.0000000000
0
SPLINE
5
4A7
100
AcDbEntity
8
0
100
AcDbSpline
62
7
6
CONTINUOUS
70
0
71
3
72
8
73
4
74
2
42
0.0000001000
43
0.0000001000
44
0.0000000001
40
0.0000000000
40
0.0000000000
40
0.0000000000
40
0.0000000000
40
1.0000000000
40
1.0000000000
40
1.0000000000
40
1.0000000000
10
309.9589893950
20
104.1276029015
30
0.0000000000
10
309.9545709676
20
104.1850447886
30
0.0000000000
10
309.9505093354
20
104.2425166097
30
0.0000000000
10
309.9468268702
20
104.3000135498
30
0.0000000000
11
309.9589893950
21
104.1276029015
31
0.0000000000
11
309.9468268702
21
104.3000135498
31
0.0000000000
0
SPLINE
5
4A8
100
AcDbEntity
8
0
100
AcDbSpline
62
7
6
CONTINUOUS
70
0
71
3
72
8
73
4
74
2
42
0.0000001000
43
0.0000001000
44
0.0000000001
40
0.0000000000
40
0.0000000000
40
0.0000000000
40
0.0000000000
40
1.0000000000
40
1.0000000000
40
1.0000000000
40
1.0000000000
10
336.4213446395
20
277.5986308856
30
0.0000000000
10
336.4213446306
20
277.6007533206
30
0.0000000000
10
336.4213442605
20
277.6028770522
30
0.0000000000
10
336.4213435153
20
277.6050026580
30
0.0000000000
11
336.4213446395
21
277.5986308856
31
0.0000000000
11
336.4213435153
21
277.6050026580
31
0.0000000000
0
SPLINE
5
4A9
100
AcDbEntity
8
0
100
AcDbSpline
62
7
6
CONTINUOUS
70
0
71
3
72
10
73
6
74
4
42
0.0000001000
43
0.0000001000
44
0.0000000001
40
0.0000000000
40
0.0000000000
40
0.0000000000
40
0.0000000000
40
0.4079607959
40
0.8751549354
40
1.0000000000
40
1.0000000000
40
1.0000000000
40
1.0000000000
10
336.4211860803
20
277.6738157109
30
0.0000000000
10
336.4211523742
20
277.6814519329
30
0.0000000000
10
336.4210707641
20
277.6976962161
30
0.0000000000
10
336.4209983069
20
277.7101968867
30
0.0000000000
10
336.4208703075
20
277.7273750980
30
0.0000000000
10
336.4208473367
20
277.7304181124
30
0.0000000000
11
336.4211860803
21
277.6738157109
31
0.0000000000
11
336.4210802424
21
277.6954441151
31
0.0000000000
11
336.4209205065
21
277.7205650294
31
0.0000000000
11
336.4208473367
21
277.7304181124
31
0.0000000000
0
SPLINE
5
4AA
100
AcDbEntity
8
0
100
AcDbSpline
62
7
6
CONTINUOUS
70
0
71
3
72
16
73
12
74
10
42
0.0000001000
43
0.0000001000
44
0.0000000001
40
0.0000000000
40
0.0000000000
40
0.0000000000
40
0.0000000000
40
0.1117454062
40
0.2237797213
40
0.3358064766
40
0.4479380759
40
0.5602062384
40
0.6727034081
40
0.7855067372
40
0.8986654809
40
1.0000000000
40
1.0000000000
40
1.0000000000
40
1.0000000000
10
336.4207845279
20
277.7455920905
30
0.0000000000
10
336.4150209855
20
278.4997993872
30
0.0000000000
10
336.2700789205
20
280.0124929713
30
0.0000000000
10
335.6589813270
20
282.2067168491
30
0.0000000000
10
334.6720164018
20
284.2631383903
30
0.0000000000
10
333.3397374882
20
286.1163538194
30
0.0000000000
10
331.7017433173
20
287.7104347842
30
0.0000000000
10
329.8066743085
20
288.9963032312
30
0.0000000000
10
327.7103101259
20
289.9336169940
30
0.0000000000
10
325.5565231761
20
290.4716315450
30
0.0000000000
10
324.1056476493
20
290.5853987828
30
0.0000000000
10
323.4213791453
20
290.5854470195
30
0.0000000000
11
336.4207845279
21
277.7455920905
31
0.0000000000
11
336.2048626886
21
279.9979540825
31
0.0000000000
11
335.5964547246
21
282.1833840667
31
0.0000000000
11
334.6149722332
21
284.2284420339
31
0.0000000000
11
333.2897424814
21
286.0720721207
31
0.0000000000
11
331.6606940333
21
287.6576229585
31
0.0000000000
11
329.7758149953
21
288.9367263571
31
0.0000000000
11
327.6907358237
21
289.8692501663
31
0.0000000000
11
325.4677489331
21
290.4245993816
31
0.0000000000
11
323.4213791453
21
290.5854470195
31
0.0000000000
0
SPLINE
5
4AB
100
AcDbEntity
8
0
100
AcDbSpline
62
7
6
CONTINUOUS
70
0
71
3
72
8
73
4
74
2
42
0.0000001000
43
0.0000001000
44
0.0000000001
40
0.0000000000
40
0.0000000000
40
0.0000000000
40
0.0000000000
40
1.0000000000
40
1.0000000000
40
1.0000000000
40
1.0000000000
10
336.4212018691
20
277.6695129800
30
0.0000000000
10
336.4211993797
20
277.6715917851
30
0.0000000000
10
336.4211964717
20
277.6736031022
30
0.0000000000
10
336.4211931579
20
277.6755529670
30
0.0000000000
11
336.4212018691
21
277.6695129800
31
0.0000000000
11
336.4211931579
21
277.6755529670
31
0.0000000000
0
SPLINE
5
4AC
100
AcDbEntity
8
0
100
AcDbSpline
62
7
6
CONTINUOUS
70
0
71
3
72
8
73
4
74
2
42
0.0000001000
43
0.0000001000
44
0.0000000001
40
0.0000000000
40
0.0000000000
40
0.0000000000
40
0.0000000000
40
1.0000000000
40
1.0000000000
40
1.0000000000
40
1.0000000000
10
336.4211408053
20
277.6948647544
30
0.0000000000
10
336.4211254508
20
277.6988262013
30
0.0000000000
10
336.4211078420
20
277.7025408027
30
0.0000000000
10
336.4210881821
20
277.7061037991
30
0.0000000000
11
336.4211408053
21
277.6948647544
31
0.0000000000
11
336.4210881821
21
277.7061037991
31
0.0000000000
0
SPLINE
5
4AD
100
AcDbEntity
8
0
100
AcDbSpline
62
7
6
CONTINUOUS
70
0
71
3
72
8
73
4
74
2
42
0.0000001000
43
0.0000001000
44
0.0000000001
40
0.0000000000
40
0.0000000000
40
0.0000000000
40
0.0000000000
40
1.0000000000
40
1.0000000000
40
1.0000000000
40
1.0000000000
10
336.4212176706
20
277.5883046522
30
0.0000000000
10
336.4212196099
20
277.5977963049
30
0.0000000000
10
336.4212184753
20
277.6070786911
30
0.0000000000
10
336.4212154115
20
277.6154682618
30
0.0000000000
11
336.4212176706
21
277.5883046522
31
0.0000000000
11
336.4212154115
21
277.6154682618
31
0.0000000000
0
SPLINE
5
4AE
100
AcDbEntity
8
0
100
AcDbSpline
62
7
6
CONTINUOUS
70
0
71
3
72
8
73
4
74
2
42
0.0000001000
43
0.0000001000
44
0.0000000001
40
0.0000000000
40
0.0000000000
40
0.0000000000
40
0.0000000000
40
1.0000000000
40
1.0000000000
40
1.0000000000
40
1.0000000000
10
309.9593141015
20
110.0150935724
30
0.0000000000
10
309.9569907266
20
109.9885119222
30
0.0000000000
10
309.9547735085
20
109.9619214879
30
0.0000000000
10
309.9526624976
20
109.9353232778
30
0.0000000000
11
309.9593141015
21
110.0150935724
31
0.0000000000
11
309.9526624976
21
109.9353232778
31
0.0000000000
0
SPLINE
5
4AF
100
AcDbEntity
8
0
100
AcDbSpline
62
7
6
CONTINUOUS
70
0
71
3
72
8
73
4
74
2
42
0.0000001000
43
0.0000001000
44
0.0000000001
40
0.0000000000
40
0.0000000000
40
0.0000000000
40
0.0000000000
40
1.0000000000
40
1.0000000000
40
1.0000000000
40
1.0000000000
10
309.9526624976
20
109.9353232778
30
0.0000000000
10
309.9317529498
20
109.6718681988
30
0.0000000000
10
309.9212632705
20
109.4076502464
30
0.0000000000
10
309.9212423531
20
109.1436492182
30
0.0000000000
11
309.9526624976
21
109.9353232778
31
0.0000000000
11
309.9212423531
21
109.1436492182
31
0.0000000000
0
SPLINE
5
4B0
100
AcDbEntity
8
0
100
AcDbSpline
62
7
6
CONTINUOUS
70
0
71
3
72
14
73
10
74
8
42
0.0000001000
43
0.0000001000
44
0.0000000001
40
0.0000000000
40
0.0000000000
40
0.0000000000
40
0.0000000000
40
0.1425067134
40
0.3097952150
40
0.4773520561
40
0.6448318952
40
0.8117456909
40
0.9773988329
40
1.0000000000
40
1.0000000000
40
1.0000000000
40
1.0000000000
10
309.9663703455
20
104.0371145273
30
0.0000000000
10
310.0181999533
20
103.4284737419
30
0.0000000000
10
310.2277433883
20
102.1116311415
30
0.0000000000
10
310.8684203857
20
100.1594454076
30
0.0000000000
10
311.8843328819
20
98.2501309949
30
0.0000000000
10
313.2113690893
20
96.5445699116
30
0.0000000000
10
314.8046241953
20
95.0967834326
30
0.0000000000
10
316.0947866409
20
94.2763267599
30
0.0000000000
10
316.8149938652
20
93.9110803438
30
0.0000000000
10
316.9019590669
20
93.8682440279
30
0.0000000000
11
309.9663703455
21
104.0371145273
31
0.0000000000
11
310.2546236864
21
102.2275296864
31
0.0000000000
11
310.9249154963
21
100.1846683100
31
0.0000000000
11
311.9365553959
21
98.2836159635
31
0.0000000000
11
313.2583674260
21
96.5848025763
31
0.0000000000
11
314.8460312674
21
95.1421617930
31
0.0000000000
11
316.6425868060
21
93.9997844380
31
0.0000000000
11
316.9019590669
21
93.8682440279
31
0.0000000000
0
SPLINE
5
4B1
100
AcDbEntity
8
0
100
AcDbSpline
62
7
6
CONTINUOUS
70
0
71
3
72
8
73
4
74
2
42
0.0000001000
43
0.0000001000
44
0.0000000001
40
0.0000000000
40
0.0000000000
40
0.0000000000
40
0.0000000000
40
1.0000000000
40
1.0000000000
40
1.0000000000
40
1.0000000000
10
316.9019590669
20
93.8682440279
30
0.0000000000
10
317.1861709116
20
93.7282502360
30
0.0000000000
10
317.4757186586
20
93.5990856272
30
0.0000000000
10
317.7697446385
20
93.4811093164
30
0.0000000000
11
316.9019590669
21
93.8682440279
31
0.0000000000
11
317.7697446385
21
93.4811093164
31
0.0000000000
0
SPLINE
5
4B2
100
AcDbEntity
8
0
100
AcDbSpline
62
7
6
CONTINUOUS
70
0
71
3
72
8
73
4
74
2
42
0.0000001000
43
0.0000001000
44
0.0000000001
40
0.0000000000
40
0.0000000000
40
0.0000000000
40
0.0000000000
40
1.0000000000
40
1.0000000000
40
1.0000000000
40
1.0000000000
10
317.7697446385
20
93.4811093164
30
0.0000000000
10
317.8139047108
20
93.4633903297
30
0.0000000000
10
317.8581658003
20
93.4459237214
30
0.0000000000
10
317.9025250011
20
93.4287107081
30
0.0000000000
11
317.7697446385
21
93.4811093164
31
0.0000000000
11
317.9025250011
21
93.4287107081
31
0.0000000000
0
SPLINE
5
4B3
100
AcDbEntity
8
0
100
AcDbSpline
62
7
6
CONTINUOUS
70
0
71
3
72
9
73
5
74
3
42
0.0000001000
43
0.0000001000
44
0.0000000001
40
0.0000000000
40
0.0000000000
40
0.0000000000
40
0.0000000000
40
0.8765477645
40
1.0000000000
40
1.0000000000
40
1.0000000000
40
1.0000000000
10
317.9025250011
20
93.4287107081
30
0.0000000000
10
318.1282338498
20
93.3411273131
30
0.0000000000
10
318.3886291733
20
93.2486989737
30
0.0000000000
10
318.6518322688
20
93.1650243744
30
0.0000000000
10
318.6843670041
20
93.1548282587
30
0.0000000000
11
317.9025250011
21
93.4287107081
31
0.0000000000
11
318.5868890394
21
93.1858174180
31
0.0000000000
11
318.6843670041
21
93.1548282587
31
0.0000000000
0
SPLINE
5
4B4
100
AcDbEntity
8
0
100
AcDbSpline
62
7
6
CONTINUOUS
70
0
71
3
72
9
73
5
74
3
42
0.0000001000
43
0.0000001000
44
0.0000000001
40
0.0000000000
40
0.0000000000
40
0.0000000000
40
0.0000000000
40
0.1113696619
40
1.0000000000
40
1.0000000000
40
1.0000000000
40
1.0000000000
10
309.9216794001
20
277.7386399005
30
0.0000000000
10
309.9216793422
20
277.7386399010
30
0.0000000000
10
309.9216780878
20
277.7385436523
30
0.0000000000
10
309.9216699426
20
277.7375459557
30
0.0000000000
10
309.9216596590
20
277.7362516270
30
0.0000000000
11
309.9216794001
21
277.7386399005
31
0.0000000000
11
309.9216789773
21
277.7386072818
31
0.0000000000
11
309.9216596590
21
277.7362516270
31
0.0000000000
0
SPLINE
5
4B5
100
AcDbEntity
8
0
100
AcDbSpline
62
7
6
CONTINUOUS
70
0
71
3
72
11
73
7
74
5
42
0.0000001000
43
0.0000001000
44
0.0000000001
40
0.0000000000
40
0.0000000000
40
0.0000000000
40
0.0000000000
40
0.1240260803
40
0.5006850700
40
0.9657372454
40
1.0000000000
40
1.0000000000
40
1.0000000000
40
1.0000000000
10
309.9216596590
20
277.7362516270
30
0.0000000000
10
309.9216414254
20
277.7339566844
30
0.0000000000
10
309.9215291655
20
277.7195173355
30
0.0000000000
10
309.9214314552
20
277.7046552853
30
0.0000000000
10
309.9213309233
20
277.6864019613
30
0.0000000000
10
309.9212855828
20
277.6764145284
30
0.0000000000
10
309.9212825264
20
277.6757309896
30
0.0000000000
11
309.9216596590
21
277.7362516270
31
0.0000000000
11
309.9215895890
21
277.7272162802
31
0.0000000000
11
309.9214381081
21
277.7050972564
31
0.0000000000
11
309.9212918616
21
277.6777871585
31
0.0000000000
11
309.9212825264
21
277.6757309896
31
0.0000000000
0
SPLINE
5
4B6
100
AcDbEntity
8
0
100
AcDbSpline
62
7
6
CONTINUOUS
70
0
71
3
72
10
73
6
74
4
42
0.0000001000
43
0.0000001000
44
0.0000000001
40
0.0000000000
40
0.0000000000
40
0.0000000000
40
0.0000000000
40
0.3862233796
40
0.8003901972
40
1.0000000000
40
1.0000000000
40
1.0000000000
40
1.0000000000
10
309.9212825264
20
277.6757309896
30
0.0000000000
10
309.9212408237
20
277.6664043581
30
0.0000000000
10
309.9211755848
20
277.6477685160
30
0.0000000000
10
309.9211294629
20
277.6239577928
30
0.0000000000
10
309.9211193213
20
277.6094117702
30
0.0000000000
10
309.9211178245
20
277.6046836828
30
0.0000000000
11
309.9212825264
21
277.6757309896
31
0.0000000000
11
309.9211844575
21
277.6483208670
31
0.0000000000
11
309.9211278391
21
277.6188801994
31
0.0000000000
11
309.9211178245
21
277.6046836828
31
0.0000000000
0
SPLINE
5
4B7
100
AcDbEntity
8
0
100
AcDbSpline
62
7
6
CONTINUOUS
70
0
71
3
72
8
73
4
74
2
42
0.0000001000
43
0.0000001000
44
0.0000000001
40
0.0000000000
40
0.0000000000
40
0.0000000000
40
0.0000000000
40
1.0000000000
40
1.0000000000
40
1.0000000000
40
1.0000000000
10
309.9211178245
20
277.6046836828
30
0.0000000000
10
309.9211171857
20
277.6026657559
30
0.0000000000
10
309.9211168750
20
277.6006482858
30
0.0000000000
10
309.9211168831
20
277.5986309046
30
0.0000000000
11
309.9211178245
21
277.6046836828
31
0.0000000000
11
309.9211168831
21
277.5986309046
31
0.0000000000
0
SPLINE
5
4B8
100
AcDbEntity
8
0
100
AcDbSpline
62
7
6
CONTINUOUS
70
0
71
3
72
16
73
12
74
10
42
0.0000001000
43
0.0000001000
44
0.0000000001
40
0.0000000000
40
0.0000000000
40
0.0000000000
40
0.0000000000
40
0.1022306122
40
0.2152751348
40
0.3279655011
40
0.4403506485
40
0.5525075440
40
0.6645282737
40
0.7764439074
40
0.8883668986
40
1.0000000000
40
1.0000000000
40
1.0000000000
40
1.0000000000
10
322.9210823166
20
290.5854484445
30
0.0000000000
10
322.2307846586
20
290.5854025590
30
0.0000000000
10
320.7746135207
20
290.4702017028
30
0.0000000000
10
318.6171417362
20
289.9282810800
30
0.0000000000
10
316.5239510699
20
288.9895486628
30
0.0000000000
10
314.6320112481
20
287.7031595678
30
0.0000000000
10
312.9969009583
20
286.1093880550
30
0.0000000000
10
311.6670822951
20
284.2572071348
30
0.0000000000
10
310.6820023667
20
282.2024064428
30
0.0000000000
10
310.0720969232
20
280.0102221247
30
0.0000000000
10
309.9274344740
20
278.4990403763
30
0.0000000000
10
309.9216769268
20
277.7455883343
30
0.0000000000
11
322.9210823166
21
290.5854484445
31
0.0000000000
11
320.8567855106
21
290.4217493400
31
0.0000000000
11
318.6367587054
21
289.8640675618
31
0.0000000000
11
316.5548130251
21
288.9301233186
31
0.0000000000
11
314.6730267259
21
287.6504891944
31
0.0000000000
11
313.0468286187
21
286.0652292617
31
0.0000000000
11
311.7240301852
21
284.2226066767
31
0.0000000000
11
310.7444126248
21
282.1791405914
31
0.0000000000
11
310.1371833270
21
279.9957139202
31
0.0000000000
11
309.9216769268
21
277.7455883343
31
0.0000000000
0
SPLINE
5
4B9
100
AcDbEntity
8
0
100
AcDbSpline
62
7
6
CONTINUOUS
70
0
71
3
72
11
73
7
74
5
42
0.0000001000
43
0.0000001000
44
0.0000000001
40
0.0000000000
40
0.0000000000
40
0.0000000000
40
0.0000000000
40
0.1662028863
40
0.4441433729
40
0.7220757229
40
1.0000000000
40
1.0000000000
40
1.0000000000
40
1.0000000000
10
333.1712242402
20
153.5170147344
30
0.0000000000
10
333.1712149127
20
153.6370061764
30
0.0000000000
10
333.1520043885
20
153.9579304905
30
0.0000000000
10
333.0374417094
20
154.4690332656
30
0.0000000000
10
332.7903382808
20
155.0210789609
30
0.0000000000
10
332.5551395317
20
155.3492904643
30
0.0000000000
10
332.4227687353
20
155.4996188917
30
0.0000000000
11
333.1712242402
21
153.5170147344
31
0.0000000000
11
333.1496598182
21
153.8762752920
31
0.0000000000
11
333.0183036929
21
154.4626827129
31
0.0000000000
11
332.7727189928
21
155.0111306200
31
0.0000000000
11
332.4227687353
21
155.4996188917
31
0.0000000000
0
SPLINE
5
4BA
100
AcDbEntity
8
0
100
AcDbSpline
62
7
6
CONTINUOUS
70
0
71
3
72
11
73
7
74
5
42
0.0000001000
43
0.0000001000
44
0.0000000001
40
0.0000000000
40
0.0000000000
40
0.0000000000
40
0.0000000000
40
0.2779383603
40
0.5558853022
40
0.8338408924
40
1.0000000000
40
1.0000000000
40
1.0000000000
40
1.0000000000
10
332.4227137058
20
210.1712321185
30
0.0000000000
10
332.5551002700
20
210.3215700827
30
0.0000000000
10
332.7903263464
20
210.6498067478
30
0.0000000000
10
333.0374525273
20
211.2019024075
30
0.0000000000
10
333.1520082941
20
211.7130168104
30
0.0000000000
10
333.1712139218
20
212.0339324140
30
0.0000000000
10
333.1712232372
20
212.1538968028
30
0.0000000000
11
332.4227137058
21
210.1712321185
31
0.0000000000
11
332.7727037976
21
210.6597567224
31
0.0000000000
11
333.0183108420
21
211.2082536092
31
0.0000000000
11
333.1496685587
21
211.7947169764
31
0.0000000000
11
333.1712232372
21
212.1538968028
31
0.0000000000
0
SPLINE
5
4BB
100
AcDbEntity
8
0
100
AcDbSpline
62
7
6
CONTINUOUS
70
0
71
3
72
19
73
15
74
13
42
0.0000001000
43
0.0000001000
44
0.0000000001
40
0.0000000000
40
0.0000000000
40
0.0000000000
40
0.0000000000
40
0.0006877424
40
0.0224861611
40
0.0603701302
40
0.1135695030
40
0.1817797708
40
0.2648956258
40
0.3623781638
40
0.4733692135
40
0.5966637146
40
0.7306563083
40
0.8733553276
40
1.0000000000
40
1.0000000000
40
1.0000000000
40
1.0000000000
10
334.5424555836
20
114.5488706865
30
0.0000000000
10
334.5411489029
20
114.5526191621
30
0.0000000000
10
334.4980396091
20
114.6764566838
30
0.0000000000
10
334.4283654616
20
114.9254849194
30
0.0000000000
10
334.2858381195
20
115.4818544665
30
0.0000000000
10
334.1300961639
20
116.2328143656
30
0.0000000000
10
333.9557527258
20
117.2195720420
30
0.0000000000
10
333.7813651646
20
118.4196012211
30
0.0000000000
10
333.6135709064
20
119.8329500065
30
0.0000000000
10
333.4621508183
20
121.4445079090
30
0.0000000000
10
333.3347296764
20
123.2369728778
30
0.0000000000
10
333.2385671442
20
125.1862299354
30
0.0000000000
10
333.1829815197
20
127.1534230780
30
0.0000000000
10
333.1712249539
20
128.4675647082
30
0.0000000000
10
333.1712293334
20
129.0854568922
30
0.0000000000
11
334.5424555836
21
114.5488706865
31
0.0000000000
11
334.5385279452
21
114.5601652634
31
0.0000000000
11
334.4460661458
21
114.8655308849
31
0.0000000000
11
334.3096652222
21
115.4029888127
31
0.0000000000
11
334.1476926468
21
116.1646196636
31
0.0000000000
11
333.9731178533
21
117.1476115569
31
0.0000000000
11
333.7962330857
21
118.3512254033
31
0.0000000000
11
333.6267706968
21
119.7679491131
31
0.0000000000
11
333.4735717404
21
121.3852523951
31
0.0000000000
11
333.3446690262
21
123.1852677211
31
0.0000000000
11
333.2473178296
21
125.1440597678
31
0.0000000000
11
333.1878881390
21
127.2318571712
31
0.0000000000
11
333.1712293334
21
129.0854568922
31
0.0000000000
0
SPLINE
5
4BC
100
AcDbEntity
8
0
100
AcDbSpline
62
7
6
CONTINUOUS
70
0
71
3
72
11
73
7
74
5
42
0.0000001000
43
0.0000001000
44
0.0000000001
40
0.0000000000
40
0.0000000000
40
0.0000000000
40
0.0000000000
40
0.2556211301
40
0.5522087658
40
0.8488035834
40
1.0000000000
40
1.0000000000
40
1.0000000000
40
1.0000000000
10
336.4212191303
20
109.1436492182
30
0.0000000000
10
336.4211794366
20
109.6446275631
30
0.0000000000
10
336.3396554186
20
110.7285598327
30
0.0000000000
10
335.9463208788
20
112.3522544970
30
0.0000000000
10
335.3594092741
20
113.6951692730
30
0.0000000000
10
334.9045739318
20
114.4474479466
30
0.0000000000
10
334.7400433839
20
114.6941478344
30
0.0000000000
11
336.4212191303
21
109.1436492182
31
0.0000000000
11
336.3083392005
21
110.6422323066
31
0.0000000000
11
335.8981204910
21
112.3360995775
31
0.0000000000
11
335.2001210635
21
113.9330997743
31
0.0000000000
11
334.7400433839
21
114.6941478344
31
0.0000000000
0
SPLINE
5
4BD
100
AcDbEntity
8
0
100
AcDbSpline
62
7
6
CONTINUOUS
70
0
71
3
72
8
73
4
74
2
42
0.0000001000
43
0.0000001000
44
0.0000000001
40
0.0000000000
40
0.0000000000
40
0.0000000000
40
0.0000000000
40
1.0000000000
40
1.0000000000
40
1.0000000000
40
1.0000000000
10
334.7400433839
20
114.6941478344
30
0.0000000000
10
334.6188424668
20
114.8758785404
30
0.0000000000
10
334.4916964578
20
115.0536443771
30
0.0000000000
10
334.3588639432
20
115.2270571394
30
0.0000000000
11
334.7400433839
21
114.6941478344
31
0.0000000000
11
334.3588639432
21
115.2270571394
31
0.0000000000
0
SPLINE
5
4BE
100
AcDbEntity
8
0
100
AcDbSpline
62
7
6
CONTINUOUS
70
0
71
3
72
17
73
13
74
11
42
0.0000001000
43
0.0000001000
44
0.0000000001
40
0.0000000000
40
0.0000000000
40
0.0000000000
40
0.0000000000
40
0.0924310312
40
0.1910447619
40
0.2913604214
40
0.3921600098
40
0.4932967533
40
0.5945680530
40
0.6958705172
40
0.7973882521
40
0.8987352684
40
1.0000000000
40
1.0000000000
40
1.0000000000
40
1.0000000000
10
324.0104212574
20
92.5856630017
30
0.0000000000
10
324.6051075689
20
92.5891003298
30
0.0000000000
10
325.8355644320
20
92.6850225090
30
0.0000000000
10
327.6686162355
20
93.1092832709
30
0.0000000000
10
329.4645758052
20
93.8329067796
30
0.0000000000
10
331.1385035270
20
94.8380995490
30
0.0000000000
10
332.6375795162
20
96.0989529687
30
0.0000000000
10
333.9200420982
20
97.5839460492
30
0.0000000000
10
334.9518004149
20
99.2557506897
30
0.0000000000
10
335.7051378407
20
101.0708234944
30
0.0000000000
10
336.1605242283
20
102.9817394507
30
0.0000000000
10
336.2583026590
20
104.2880054173
30
0.0000000000
10
336.2554004663
20
104.9394534883
30
0.0000000000
11
324.0104212574
21
92.5856630017
31
0.0000000000
11
325.7890661937
21
92.7245829622
31
0.0000000000
11
327.6432721423
21
93.1536428536
31
0.0000000000
11
329.4389713206
21
93.8773432227
31
0.0000000000
11
331.1067423486
21
94.8788763682
31
0.0000000000
11
332.6004580081
21
96.1353403496
31
0.0000000000
11
333.8779031778
21
97.6145855773
31
0.0000000000
11
334.9047126501
21
99.2783302584
31
0.0000000000
11
335.6558067337
21
101.0878894191
31
0.0000000000
11
336.1092054268
21
102.9905655701
31
0.0000000000
11
336.2554004663
21
104.9394534883
31
0.0000000000
0
SPLINE
5
4BF
100
AcDbEntity
8
0
100
AcDbSpline
62
7
6
CONTINUOUS
70
0
71
3
72
16
73
12
74
10
42
0.0000001000
43
0.0000001000
44
0.0000000001
40
0.0000000000
40
0.0000000000
40
0.0000000000
40
0.0000000000
40
0.0930843858
40
0.2050641951
40
0.3187145383
40
0.4335075012
40
0.5491740615
40
0.6652328739
40
0.7813450467
40
0.8972712676
40
1.0000000000
40
1.0000000000
40
1.0000000000
40
1.0000000000
10
324.0104211836
20
92.5856756637
30
0.0000000000
10
324.5861666938
20
92.5890766994
30
0.0000000000
10
325.8556904470
20
92.6846019908
30
0.0000000000
10
327.7833565025
20
93.1330465402
30
0.0000000000
10
329.7340223641
20
93.9496782787
30
0.0000000000
10
331.5378372882
20
95.0967834326
30
0.0000000000
10
333.1310923941
20
96.5445699116
30
0.0000000000
10
334.4581286015
20
98.2501309949
30
0.0000000000
10
335.4740410977
20
100.1594454076
30
0.0000000000
10
336.1224180227
20
102.1350933367
30
0.0000000000
10
336.3319517625
20
103.4772634048
30
0.0000000000
10
336.3821340698
20
104.1106358517
30
0.0000000000
11
324.0104211836
21
92.5856756637
31
0.0000000000
11
325.7326858420
21
92.7155694459
31
0.0000000000
11
327.7555724440
21
93.1858174180
31
0.0000000000
11
329.6998746774
21
93.9997844380
31
0.0000000000
11
331.4964302160
21
95.1421617930
31
0.0000000000
11
333.0840940574
21
96.5848025763
31
0.0000000000
11
334.4059060875
21
98.2836159635
31
0.0000000000
11
335.4175459871
21
100.1846683100
31
0.0000000000
11
336.0878377970
21
102.2275296864
31
0.0000000000
11
336.3821340698
21
104.1106358517
31
0.0000000000
0
SPLINE
5
4C0
100
AcDbEntity
8
0
100
AcDbSpline
62
7
6
CONTINUOUS
70
0
71
3
72
8
73
4
74
2
42
0.0000001000
43
0.0000001000
44
0.0000000001
40
0.0000000000
40
0.0000000000
40
0.0000000000
40
0.0000000000
40
1.0000000000
40
1.0000000000
40
1.0000000000
40
1.0000000000
10
336.3820912280
20
104.1098001626
30
0.0000000000
10
336.3825553067
20
104.1157340858
30
0.0000000000
10
336.3830156018
20
104.1216683339
30
0.0000000000
10
336.3834720884
20
104.1276029015
30
0.0000000000
11
336.3820912280
21
104.1098001626
31
0.0000000000
11
336.3834720884
21
104.1276029015
31
0.0000000000
0
SPLINE
5
4C1
100
AcDbEntity
8
0
100
AcDbSpline
62
7
6
CONTINUOUS
70
0
71
3
72
8
73
4
74
2
42
0.0000001000
43
0.0000001000
44
0.0000000001
40
0.0000000000
40
0.0000000000
40
0.0000000000
40
0.0000000000
40
1.0000000000
40
1.0000000000
40
1.0000000000
40
1.0000000000
10
336.3834720884
20
104.1276029015
30
0.0000000000
10
336.3878905158
20
104.1850447886
30
0.0000000000
10
336.3919521481
20
104.2425166097
30
0.0000000000
10
336.3956346132
20
104.3000135498
30
0.0000000000
11
336.3834720884
21
104.1276029015
31
0.0000000000
11
336.3956346132
21
104.3000135498
31
0.0000000000
0
SPLINE
5
4C2
100
AcDbEntity
8
0
100
AcDbSpline
62
7
6
CONTINUOUS
70
0
71
3
72
9
73
5
74
3
42
0.0000001000
43
0.0000001000
44
0.0000000001
40
0.0000000000
40
0.0000000000
40
0.0000000000
40
0.0000000000
40
0.5467046976
40
1.0000000000
40
1.0000000000
40
1.0000000000
40
1.0000000000
10
336.3956346132
20
104.3000135498
30
0.0000000000
10
336.4020258676
20
104.3998047371
30
0.0000000000
10
336.4116272082
20
104.5824752962
30
0.0000000000
10
336.4170158407
20
104.7653147916
30
0.0000000000
10
336.4186555157
20
104.8482099843
30
0.0000000000
11
336.3956346132
21
104.3000135498
31
0.0000000000
11
336.4112649440
21
104.5995889354
31
0.0000000000
11
336.4186555157
21
104.8482099843
31
0.0000000000
0
SPLINE
5
4C3
100
AcDbEntity
8
0
100
AcDbSpline
62
7
6
CONTINUOUS
70
0
71
3
72
8
73
4
74
2
42
0.0000001000
43
0.0000001000
44
0.0000000001
40
0.0000000000
40
0.0000000000
40
0.0000000000
40
0.0000000000
40
1.0000000000
40
1.0000000000
40
1.0000000000
40
1.0000000000
10
336.4186555157
20
104.8482099843
30
0.0000000000
10
336.4203101598
20
104.9318619516
30
0.0000000000
10
336.4211471092
20
105.0155291008
30
0.0000000000
10
336.4212307417
20
105.0991910803
30
0.0000000000
11
336.4186555157
21
104.8482099843
31
0.0000000000
11
336.4212307417
21
105.0991910803
31
0.0000000000
0
SPLINE
5
4C4
100
AcDbEntity
8
0
100
AcDbSpline
62
7
6
CONTINUOUS
70
0
71
3
72
13
73
9
74
7
42
0.0000001000
43
0.0000001000
44
0.0000000001
40
0.0000000000
40
0.0000000000
40
0.0000000000
40
0.0000000000
40
0.1540539936
40
0.3780826227
40
0.6023073109
40
0.8101259738
40
0.9784442222
40
1.0000000000
40
1.0000000000
40
1.0000000000
40
1.0000000000
10
336.4213445996
20
277.5986309046
30
0.0000000000
10
336.4213446261
20
277.6053751608
30
0.0000000000
10
336.4213359472
20
277.6219294710
30
0.0000000000
10
336.4212846114
20
277.6484411528
30
0.0000000000
10
336.4211841470
20
277.6766651282
30
0.0000000000
10
336.4210302377
20
277.7046399316
30
0.0000000000
10
336.4209395899
20
277.7183800321
30
0.0000000000
10
336.4208527354
20
277.7297320308
30
0.0000000000
10
336.4208430221
20
277.7309926413
30
0.0000000000
11
336.4213445996
21
277.5986309046
31
0.0000000000
11
336.4213336443
21
277.6188801994
31
0.0000000000
11
336.4212770259
21
277.6483208670
31
0.0000000000
11
336.4211696218
21
277.6777871585
31
0.0000000000
11
336.4210233753
21
277.7050972564
31
0.0000000000
11
336.4208718944
21
277.7272162802
31
0.0000000000
11
336.4208430221
21
277.7309926413
31
0.0000000000
0
SPLINE
5
4C5
100
AcDbEntity
8
0
100
AcDbSpline
62
7
6
CONTINUOUS
70
0
71
3
72
16
73
12
74
10
42
0.0000001000
43
0.0000001000
44
0.0000000001
40
0.0000000000
40
0.0000000000
40
0.0000000000
40
0.0000000000
40
0.1116331120
40
0.2235561079
40
0.3354717426
40
0.4474924710
40
0.5596493634
40
0.6720345068
40
0.7847248692
40
0.8977693888
40
1.0000000000
40
1.0000000000
40
1.0000000000
40
1.0000000000
10
336.4207845591
20
277.7455880099
30
0.0000000000
10
336.4150270303
20
278.4990401360
30
0.0000000000
10
336.2703645919
20
280.0102220160
30
0.0000000000
10
335.6604591096
20
282.2024064773
30
0.0000000000
10
334.6753791385
20
284.2572072226
30
0.0000000000
10
333.3455604500
20
286.1093881415
30
0.0000000000
10
331.7104501616
20
287.7031596253
30
0.0000000000
10
329.8185103643
20
288.9895486874
30
0.0000000000
10
327.7253197302
20
289.9282810838
30
0.0000000000
10
325.5678479636
20
290.4702017024
30
0.0000000000
10
324.1116768292
20
290.5854025590
30
0.0000000000
10
323.4213791668
20
290.5854484445
30
0.0000000000
11
336.4207845591
21
277.7455880099
31
0.0000000000
11
336.2052781695
21
279.9957138497
31
0.0000000000
11
335.5980488381
21
282.1791406462
31
0.0000000000
11
334.6184312387
21
284.2226067770
31
0.0000000000
11
333.2956327827
21
286.0652293571
31
0.0000000000
11
331.6694346810
21
287.6504892569
31
0.0000000000
11
329.7876484109
21
288.9301233451
31
0.0000000000
11
327.7057027677
21
289.8640675654
31
0.0000000000
11
325.4856759859
21
290.4217493380
31
0.0000000000
11
323.4213791668
21
290.5854484445
31
0.0000000000
0
SPLINE
5
4C6
100
AcDbEntity
8
0
100
AcDbSpline
62
7
6
CONTINUOUS
70
0
71
3
72
8
73
4
74
2
42
0.0000001000
43
0.0000001000
44
0.0000000001
40
0.0000000000
40
0.0000000000
40
0.0000000000
40
0.0000000000
40
1.0000000000
40
1.0000000000
40
1.0000000000
40
1.0000000000
10
336.4211926371
20
277.6758862115
30
0.0000000000
10
336.4211720806
20
277.6877657320
30
0.0000000000
10
336.4211363736
20
277.6973610358
30
0.0000000000
10
336.4210884609
20
277.7060533361
30
0.0000000000
11
336.4211926371
21
277.6758862115
31
0.0000000000
11
336.4210884609
21
277.7060533361
31
0.0000000000
0
SPLINE
5
4C7
100
AcDbEntity
8
0
100
AcDbSpline
62
7
6
CONTINUOUS
70
0
71
3
72
8
73
4
74
2
42
0.0000001000
43
0.0000001000
44
0.0000000001
40
0.0000000000
40
0.0000000000
40
0.0000000000
40
0.0000000000
40
1.0000000000
40
1.0000000000
40
1.0000000000
40
1.0000000000
10
336.4210884609
20
277.7060533361
30
0.0000000000
10
336.4210133652
20
277.7196771614
30
0.0000000000
10
336.4209082853
20
277.7310826974
30
0.0000000000
10
336.4207845591
20
277.7455880099
30
0.0000000000
11
336.4210884609
21
277.7060533361
31
0.0000000000
11
336.4207845591
21
277.7455880099
31
0.0000000000
0
SPLINE
5
4C8
100
AcDbEntity
8
0
100
AcDbSpline
62
7
6
CONTINUOUS
70
0
71
3
72
8
73
4
74
2
42
0.0000001000
43
0.0000001000
44
0.0000000001
40
0.0000000000
40
0.0000000000
40
0.0000000000
40
0.0000000000
40
1.0000000000
40
1.0000000000
40
1.0000000000
40
1.0000000000
10
336.4212176656
20
277.5883047946
30
0.0000000000
10
336.4212196051
20
277.5977961709
30
0.0000000000
10
336.4212184712
20
277.6070783047
30
0.0000000000
10
336.4212154087
20
277.6154676681
30
0.0000000000
11
336.4212176656
21
277.5883047946
31
0.0000000000
11
336.4212154087
21
277.6154676681
31
0.0000000000
0
SPLINE
5
4C9
100
AcDbEntity
8
0
100
AcDbSpline
62
7
6
CONTINUOUS
70
0
71
3
72
11
73
7
74
5
42
0.0000001000
43
0.0000001000
44
0.0000000001
40
0.0000000000
40
0.0000000000
40
0.0000000000
40
0.0000000000
40
0.2756159840
40
0.5512392903
40
0.8268700029
40
1.0000000000
40
1.0000000000
40
1.0000000000
40
1.0000000000
10
313.9197197652
20
155.4996495746
30
0.0000000000
10
313.7884399927
20
155.3505642776
30
0.0000000000
10
313.5549402873
20
155.0253020588
30
0.0000000000
10
313.3085305272
20
154.4784917412
30
0.0000000000
10
313.1914729243
20
153.9662685200
30
0.0000000000
10
313.1712463066
20
153.6419987328
30
0.0000000000
10
313.1712349385
20
153.5170147344
30
0.0000000000
11
313.9197197652
21
155.4996495746
31
0.0000000000
11
313.5722501118
21
155.0154883617
31
0.0000000000
11
313.3273309507
21
154.4721830010
31
0.0000000000
11
313.1946359550
21
153.8911690283
31
0.0000000000
11
313.1712349385
21
153.5170147344
31
0.0000000000
0
SPLINE
5
4CA
100
AcDbEntity
8
0
100
AcDbSpline
62
7
6
CONTINUOUS
70
0
71
3
72
11
73
7
74
5
42
0.0000001000
43
0.0000001000
44
0.0000000001
40
0.0000000000
40
0.0000000000
40
0.0000000000
40
0.0000000000
40
0.1730858252
40
0.4487317302
40
0.7243697590
40
1.0000000000
40
1.0000000000
40
1.0000000000
40
1.0000000000
10
313.1712359422
20
212.1538968028
30
0.0000000000
10
313.1712472995
20
212.0289400596
30
0.0000000000
10
313.1914688925
20
211.7046793725
30
0.0000000000
10
313.3085193300
20
211.1924449880
30
0.0000000000
10
313.5549515247
20
210.6455850718
30
0.0000000000
10
313.7884781704
20
210.3202977667
30
0.0000000000
10
313.9197735035
20
210.1712029035
30
0.0000000000
11
313.1712359422
21
212.1538968028
31
0.0000000000
11
313.1946267340
21
211.7798238094
31
0.0000000000
11
313.3273233519
21
211.1987543933
31
0.0000000000
11
313.5722645483
21
210.6554003947
31
0.0000000000
11
313.9197735035
21
210.1712029035
31
0.0000000000
0
SPLINE
5
4CB
100
AcDbEntity
8
0
100
AcDbSpline
62
7
6
CONTINUOUS
70
0
71
3
72
19
73
15
74
13
42
0.0000001000
43
0.0000001000
44
0.0000000001
40
0.0000000000
40
0.0000000000
40
0.0000000000
40
0.0000000000
40
0.1261990798
40
0.2684077231
40
0.4019436241
40
0.5248265061
40
0.6354601427
40
0.7326458683
40
0.8155296534
40
0.8835719802
40
0.9366611592
40
0.9744937111
40
0.9963160502
40
1.0000000000
40
1.0000000000
40
1.0000000000
40
1.0000000000
10
313.1712321488
20
129.0854568922
30
0.0000000000
10
313.1712365212
20
128.4679417757
30
0.0000000000
10
313.1594937656
20
127.1545448802
30
0.0000000000
10
313.1039711498
20
125.1884219090
30
0.0000000000
10
313.0079127974
20
123.2401143697
30
0.0000000000
10
312.8806228103
20
121.4483947584
30
0.0000000000
10
312.7293485170
20
119.8373209211
30
0.0000000000
10
312.5616837525
20
118.4241305567
30
0.0000000000
10
312.3874216055
20
117.2239870746
30
0.0000000000
10
312.2130837041
20
116.2366968992
30
0.0000000000
10
312.0574748264
20
115.4853326110
30
0.0000000000
10
311.9145129647
20
114.9274112136
30
0.0000000000
10
311.8417911679
20
114.6663251502
30
0.0000000000
10
311.7898020458
20
114.5199786318
30
0.0000000000
10
311.7860174593
20
114.5082456440
30
0.0000000000
11
313.1712321488
21
129.0854568922
31
0.0000000000
11
313.1545937244
21
127.2329882249
31
0.0000000000
11
313.0952309683
21
125.1462921420
31
0.0000000000
11
312.9979870065
21
123.1884762146
31
0.0000000000
11
312.8692201814
21
121.3892287190
31
0.0000000000
11
312.7161693376
21
119.7724190981
31
0.0000000000
11
312.5468471533
21
118.3558728814
31
0.0000000000
11
312.3700708513
21
117.1520977590
31
0.0000000000
11
312.1955525855
21
116.1686403653
31
0.0000000000
11
312.0335776151
21
115.4063404594
31
0.0000000000
11
311.8970880115
21
114.8680141684
31
0.0000000000
11
311.8043463023
21
114.5613935242
31
0.0000000000
11
311.7860174593
21
114.5082456440
31
0.0000000000
0
SPLINE
5
4CC
100
AcDbEntity
8
0
100
AcDbSpline
62
7
6
CONTINUOUS
70
0
71
3
72
8
73
4
74
2
42
0.0000001000
43
0.0000001000
44
0.0000000001
40
0.0000000000
40
0.0000000000
40
0.0000000000
40
0.0000000000
40
1.0000000000
40
1.0000000000
40
1.0000000000
40
1.0000000000
10
311.9833426201
20
115.2267240171
30
0.0000000000
10
311.8491613143
20
115.0515348542
30
0.0000000000
10
311.7207830121
20
114.8719037576
30
0.0000000000
10
311.5984746996
20
114.6882306749
30
0.0000000000
11
311.9833426201
21
115.2267240171
31
0.0000000000
11
311.5984746996
21
114.6882306749
31
0.0000000000
0
SPLINE
5
4CD
100
AcDbEntity
8
0
100
AcDbSpline
62
7
6
CONTINUOUS
70
0
71
3
72
11
73
7
74
5
42
0.0000001000
43
0.0000001000
44
0.0000000001
40
0.0000000000
40
0.0000000000
40
0.0000000000
40
0.0000000000
40
0.1482308559
40
0.4446969186
40
0.7411569438
40
1.0000000000
40
1.0000000000
40
1.0000000000
40
1.0000000000
10
311.5984746996
20
114.6882306749
30
0.0000000000
10
311.4375370571
20
114.4465470777
30
0.0000000000
10
310.9862488830
20
113.7004938161
30
0.0000000000
10
310.4008786412
20
112.3657701491
30
0.0000000000
10
310.0041008819
20
110.7390063117
30
0.0000000000
10
309.9212789670
20
109.6503107714
30
0.0000000000
10
309.9212407691
20
109.1436493019
30
0.0000000000
11
311.5984746996
21
114.6882306749
31
0.0000000000
11
311.1477992066
21
113.9430959004
31
0.0000000000
11
310.4488986383
21
112.3496017664
31
0.0000000000
11
310.0366993032
21
110.6591420802
31
0.0000000000
11
309.9212407691
21
109.1436493019
31
0.0000000000
0
SPLINE
5
4CE
100
AcDbEntity
8
0
100
AcDbSpline
62
7
6
CONTINUOUS
70
0
71
3
72
17
73
13
74
11
42
0.0000001000
43
0.0000001000
44
0.0000000001
40
0.0000000000
40
0.0000000000
40
0.0000000000
40
0.0000000000
40
0.0924310312
40
0.1910447619
40
0.2913604214
40
0.3921600098
40
0.4932967533
40
0.5945680530
40
0.6958705172
40
0.7973882521
40
0.8987352684
40
1.0000000000
40
1.0000000000
40
1.0000000000
40
1.0000000000
10
322.3320402260
20
92.5856630017
30
0.0000000000
10
321.7373539145
20
92.5891003298
30
0.0000000000
10
320.5068970514
20
92.6850225090
30
0.0000000000
10
318.6738452479
20
93.1092832709
30
0.0000000000
10
316.8778856782
20
93.8329067796
30
0.0000000000
10
315.2039579564
20
94.8380995490
30
0.0000000000
10
313.7048819672
20
96.0989529687
30
0.0000000000
10
312.4224193852
20
97.5839460492
30
0.0000000000
10
311.3906610685
20
99.2557506897
30
0.0000000000
10
310.6373236427
20
101.0708234944
30
0.0000000000
10
310.1819372551
20
102.9817394507
30
0.0000000000
10
310.0841588244
20
104.2880054173
30
0.0000000000
10
310.0870610171
20
104.9394534883
30
0.0000000000
11
322.3320402260
21
92.5856630017
31
0.0000000000
11
320.5533952897
21
92.7245829622
31
0.0000000000
11
318.6991893411
21
93.1536428536
31
0.0000000000
11
316.9034901628
21
93.8773432227
31
0.0000000000
11
315.2357191348
21
94.8788763682
31
0.0000000000
11
313.7420034753
21
96.1353403496
31
0.0000000000
11
312.4645583056
21
97.6145855773
31
0.0000000000
11
311.4377488333
21
99.2783302584
31
0.0000000000
11
310.6866547497
21
101.0878894191
31
0.0000000000
11
310.2332560566
21
102.9905655701
31
0.0000000000
11
310.0870610171
21
104.9394534883
31
0.0000000000
0
SPLINE
5
4CF
100
AcDbEntity
8
0
100
AcDbSpline
62
7
6
CONTINUOUS
70
0
71
3
72
16
73
12
74
10
42
0.0000001000
43
0.0000001000
44
0.0000000001
40
0.0000000000
40
0.0000000000
40
0.0000000000
40
0.0000000000
40
0.1027287324
40
0.2186549533
40
0.3347671261
40
0.4508259385
40
0.5664924988
40
0.6812854617
40
0.7949358049
40
0.9069156142
40
1.0000000000
40
1.0000000000
40
1.0000000000
40
1.0000000000
10
309.9603274136
20
104.1106358517
30
0.0000000000
10
310.0105097209
20
103.4772634048
30
0.0000000000
10
310.2200434607
20
102.1350933367
30
0.0000000000
10
310.8684203857
20
100.1594454076
30
0.0000000000
10
311.8843328819
20
98.2501309949
30
0.0000000000
10
313.2113690893
20
96.5445699116
30
0.0000000000
10
314.8046241953
20
95.0967834326
30
0.0000000000
10
316.6084391193
20
93.9496782787
30
0.0000000000
10
318.5591049809
20
93.1330465402
30
0.0000000000
10
320.4867710364
20
92.6846019908
30
0.0000000000
10
321.7562947896
20
92.5890766994
30
0.0000000000
10
322.3320402998
20
92.5856756637
30
0.0000000000
11
309.9603274136
21
104.1106358517
31
0.0000000000
11
310.2546236864
21
102.2275296864
31
0.0000000000
11
310.9249154963
21
100.1846683100
31
0.0000000000
11
311.9365553959
21
98.2836159635
31
0.0000000000
11
313.2583674260
21
96.5848025763
31
0.0000000000
11
314.8460312674
21
95.1421617930
31
0.0000000000
11
316.6425868060
21
93.9997844380
31
0.0000000000
11
318.5868890394
21
93.1858174180
31
0.0000000000
11
320.6097756414
21
92.7155694459
31
0.0000000000
11
322.3320402998
21
92.5856756637
31
0.0000000000
0
SPLINE
5
4D0
100
AcDbEntity
8
0
100
AcDbSpline
62
7
6
CONTINUOUS
70
0
71
3
72
9
73
5
74
3
42
0.0000001000
43
0.0000001000
44
0.0000000001
40
0.0000000000
40
0.0000000000
40
0.0000000000
40
0.0000000000
40
0.5467046976
40
1.0000000000
40
1.0000000000
40
1.0000000000
40
1.0000000000
10
309.9468268702
20
104.3000135498
30
0.0000000000
10
309.9404356158
20
104.3998047371
30
0.0000000000
10
309.9308342752
20
104.5824752962
30
0.0000000000
10
309.9254456428
20
104.7653147916
30
0.0000000000
10
309.9238059677
20
104.8482099843
30
0.0000000000
11
309.9468268702
21
104.3000135498
31
0.0000000000
11
309.9311965394
21
104.5995889354
31
0.0000000000
11
309.9238059677
21
104.8482099843
31
0.0000000000
0
SPLINE
5
4D1
100
AcDbEntity
8
0
100
AcDbSpline
62
7
6
CONTINUOUS
70
0
71
3
72
8
73
4
74
2
42
0.0000001000
43
0.0000001000
44
0.0000000001
40
0.0000000000
40
0.0000000000
40
0.0000000000
40
0.0000000000
40
1.0000000000
40
1.0000000000
40
1.0000000000
40
1.0000000000
10
309.9238059677
20
104.8482099843
30
0.0000000000
10
309.9221513236
20
104.9318619516
30
0.0000000000
10
309.9213143742
20
105.0155291008
30
0.0000000000
10
309.9212307417
20
105.0991910803
30
0.0000000000
11
309.9238059677
21
104.8482099843
31
0.0000000000
11
309.9212307417
21
105.0991910803
31
0.0000000000
0
SPLINE
5
4D2
100
AcDbEntity
8
0
100
AcDbSpline
62
7
6
CONTINUOUS
70
0
71
3
72
14
73
10
74
8
42
0.0000001000
43
0.0000001000
44
0.0000000001
40
0.0000000000
40
0.0000000000
40
0.0000000000
40
0.0000000000
40
0.0135325195
40
0.1499454141
40
0.3250882149
40
0.5295530101
40
0.7429470496
40
0.9506942711
40
1.0000000000
40
1.0000000000
40
1.0000000000
40
1.0000000000
10
309.9216845396
20
277.7392578539
30
0.0000000000
10
309.9216875807
20
277.7396671894
30
0.0000000000
10
309.9217120500
20
277.7429922902
30
0.0000000000
10
309.9214840009
20
277.7138212546
30
0.0000000000
10
309.9213795331
20
277.6957552205
30
0.0000000000
10
309.9212284515
20
277.6651775329
30
0.0000000000
10
309.9211466145
20
277.6359156343
30
0.0000000000
10
309.9211192258
20
277.6132929268
30
0.0000000000
10
309.9211168589
20
277.6009894230
30
0.0000000000
10
309.9211168500
20
277.5986308856
30
0.0000000000
11
309.9216845396
21
277.7392578539
31
0.0000000000
11
309.9216909414
21
277.7401306937
31
0.0000000000
11
309.9215409769
21
277.7205650294
31
0.0000000000
11
309.9213812410
21
277.6954441151
31
0.0000000000
11
309.9212431286
21
277.6661172490
31
0.0000000000
11
309.9211537252
21
277.6355094316
31
0.0000000000
11
309.9211182304
21
277.6057114500
31
0.0000000000
11
309.9211168500
21
277.5986308856
31
0.0000000000
0
SPLINE
5
4D3
100
AcDbEntity
8
0
100
AcDbSpline
62
7
6
CONTINUOUS
70
0
71
3
72
8
73
4
74
2
42
0.0000001000
43
0.0000001000
44
0.0000000001
40
0.0000000000
40
0.0000000000
40
0.0000000000
40
0.0000000000
40
1.0000000000
40
1.0000000000
40
1.0000000000
40
1.0000000000
10
309.9216769555
20
277.7455920905
30
0.0000000000
10
309.9214701568
20
277.7213485341
30
0.0000000000
10
309.9213154474
20
277.7057638415
30
0.0000000000
10
309.9212657583
20
277.6740093331
30
0.0000000000
11
309.9216769555
21
277.7455920905
31
0.0000000000
11
309.9212657583
21
277.6740093331
31
0.0000000000
0
SPLINE
5
4D4
100
AcDbEntity
8
0
100
AcDbSpline
62
7
6
CONTINUOUS
70
0
71
3
72
16
73
12
74
10
42
0.0000001000
43
0.0000001000
44
0.0000000001
40
0.0000000000
40
0.0000000000
40
0.0000000000
40
0.0000000000
40
0.1013345219
40
0.2144932728
40
0.3272966114
40
0.4397937908
40
0.5520619608
40
0.6641935633
40
0.7762203158
40
0.8882546195
40
1.0000000000
40
1.0000000000
40
1.0000000000
40
1.0000000000
10
322.9210823381
20
290.5854470195
30
0.0000000000
10
322.2368138155
20
290.5853987828
30
0.0000000000
10
320.7859382209
20
290.4716315366
30
0.0000000000
10
318.6321511463
20
289.9336169316
30
0.0000000000
10
316.5357868196
20
288.9963030464
30
0.0000000000
10
314.6407177082
20
287.7104344241
30
0.0000000000
10
313.0027235197
20
286.1163532774
30
0.0000000000
10
311.6704446860
20
284.2631377239
30
0.0000000000
10
310.6834799183
20
282.2067161913
30
0.0000000000
10
310.0723825066
20
280.0124925459
30
0.0000000000
10
309.9274404966
20
278.4997992142
30
0.0000000000
10
309.9216769555
20
277.7455920905
30
0.0000000000
11
322.9210823381
21
290.5854470195
31
0.0000000000
11
320.8747124948
21
290.4245993729
31
0.0000000000
11
318.6517254675
21
289.8692500998
31
0.0000000000
11
316.5666461408
21
288.9367261635
31
0.0000000000
11
314.6817669900
21
287.6576225833
31
0.0000000000
11
313.0527185147
21
286.0720715550
31
0.0000000000
11
311.7274888367
21
284.2284413366
31
0.0000000000
11
310.7460064934
21
282.1833833605
31
0.0000000000
11
310.1375986997
21
279.9979535700
31
0.0000000000
11
309.9216769555
21
277.7455920905
31
0.0000000000
0
SPLINE
5
4D5
100
AcDbEntity
8
0
100
AcDbSpline
62
7
6
CONTINUOUS
70
0
71
3
72
9
73
5
74
3
42
0.0000001000
43
0.0000001000
44
0.0000000001
40
0.0000000000
40
0.0000000000
40
0.0000000000
40
0.0000000000
40
0.4885154772
40
1.0000000000
40
1.0000000000
40
1.0000000000
40
1.0000000000
10
238.0379277510
20
90.9177212488
30
0.0000000000
10
238.0674344114
20
90.8813551849
30
0.0000000000
10
238.1300708339
20
90.8087080939
30
0.0000000000
10
238.1964839065
20
90.7395141468
30
0.0000000000
10
238.2312675475
20
90.7049552981
30
0.0000000000
11
238.0379277510
21
90.9177212488
31
0.0000000000
11
238.1295334227
21
90.8112008120
31
0.0000000000
11
238.2312675475
21
90.7049552981
31
0.0000000000
0
SPLINE
5
4D6
100
AcDbEntity
8
0
100
AcDbSpline
62
7
6
CONTINUOUS
70
0
71
3
72
9
73
5
74
3
42
0.0000001000
43
0.0000001000
44
0.0000000001
40
0.0000000000
40
0.0000000000
40
0.0000000000
40
0.0000000000
40
0.4982854435
40
1.0000000000
40
1.0000000000
40
1.0000000000
40
1.0000000000
10
237.9567516703
20
91.1304871995
30
0.0000000000
10
237.9694826374
20
91.0948677680
30
0.0000000000
10
237.9957989789
20
91.0236556363
30
0.0000000000
10
238.0236098426
20
90.9530140245
30
0.0000000000
10
238.0379277510
20
90.9177212488
30
0.0000000000
11
237.9567516703
21
91.1304871995
31
0.0000000000
11
237.9960798097
21
91.0240414842
31
0.0000000000
11
238.0379277510
21
90.9177212488
31
0.0000000000
0
SPLINE
5
4D7
100
AcDbEntity
8
0
100
AcDbSpline
62
7
6
CONTINUOUS
70
0
71
3
72
9
73
5
74
3
42
0.0000001000
43
0.0000001000
44
0.0000000001
40
0.0000000000
40
0.0000000000
40
0.0000000000
40
0.0000000000
40
0.4998309377
40
1.0000000000
40
1.0000000000
40
1.0000000000
40
1.0000000000
10
237.8858155760
20
91.5560191010
30
0.0000000000
10
237.8968052532
20
91.4849866356
30
0.0000000000
10
237.9196238842
20
91.3430011125
30
0.0000000000
10
237.9440983370
20
91.2012916454
30
0.0000000000
10
237.9567516703
20
91.1304871995
30
0.0000000000
11
237.8858155760
21
91.5560191010
31
0.0000000000
11
237.9200298443
21
91.3431180886
31
0.0000000000
11
237.9567516703
21
91.1304871995
31
0.0000000000
0
SPLINE
5
4D8
100
AcDbEntity
8
0
100
AcDbSpline
62
7
6
CONTINUOUS
70
0
71
3
72
9
73
5
74
3
42
0.0000001000
43
0.0000001000
44
0.0000000001
40
0.0000000000
40
0.0000000000
40
0.0000000000
40
0.0000000000
40
0.5001554854
40
1.0000000000
40
1.0000000000
40
1.0000000000
40
1.0000000000
10
237.8441857162
20
92.4070829038
30
0.0000000000
10
237.8507505642
20
92.2651768275
30
0.0000000000
10
237.8642515342
20
91.9814701447
30
0.0000000000
10
237.8785037686
20
91.6978002093
30
0.0000000000
10
237.8858155760
20
91.5560191010
30
0.0000000000
11
237.8441857162
21
92.4070829038
31
0.0000000000
11
237.8644436655
21
91.9813911128
31
0.0000000000
11
237.8858155760
21
91.5560191010
31
0.0000000000
0
SPLINE
5
4D9
100
AcDbEntity
8
0
100
AcDbSpline
62
7
6
CONTINUOUS
70
0
71
3
72
9
73
5
74
3
42
0.0000001000
43
0.0000001000
44
0.0000000001
40
0.0000000000
40
0.0000000000
40
0.0000000000
40
0.0000000000
40
0.4993048879
40
1.0000000000
40
1.0000000000
40
1.0000000000
40
1.0000000000
10
237.9735670383
20
121.7917977507
30
0.0000000000
10
237.9834865962
20
121.7562550839
30
0.0000000000
10
238.0038124146
20
121.6851981316
30
0.0000000000
10
238.0250460191
20
121.6144071859
30
0.0000000000
10
238.0359021438
20
121.5790318186
30
0.0000000000
11
237.9735670383
21
121.7917977507
31
0.0000000000
11
238.0040104731
21
121.6853632335
31
0.0000000000
11
238.0359021438
21
121.5790318186
31
0.0000000000
0
SPLINE
5
4DA
100
AcDbEntity
8
0
100
AcDbSpline
62
7
6
CONTINUOUS
70
0
71
3
72
9
73
5
74
3
42
0.0000001000
43
0.0000001000
44
0.0000000001
40
0.0000000000
40
0.0000000000
40
0.0000000000
40
0.0000000000
40
0.5001105034
40
1.0000000000
40
1.0000000000
40
1.0000000000
40
1.0000000000
10
238.0359021438
20
121.5790318186
30
0.0000000000
10
238.0431610144
20
121.5080714913
30
0.0000000000
10
238.0578930394
20
121.3662043591
30
0.0000000000
10
238.0730601278
20
121.2243830798
30
0.0000000000
10
238.0807507586
20
121.1534999545
30
0.0000000000
11
238.0359021438
21
121.5790318186
31
0.0000000000
11
238.0580051092
21
121.3661844738
31
0.0000000000
11
238.0807507586
21
121.1534999545
31
0.0000000000
0
SPLINE
5
4DB
100
AcDbEntity
8
0
100
AcDbSpline
62
7
6
CONTINUOUS
70
0
71
3
72
9
73
5
74
3
42
0.0000001000
43
0.0000001000
44
0.0000000001
40
0.0000000000
40
0.0000000000
40
0.0000000000
40
0.0000000000
40
0.5001067780
40
1.0000000000
40
1.0000000000
40
1.0000000000
40
1.0000000000
10
238.0807507586
20
121.1534999545
30
0.0000000000
10
238.0845990540
20
121.0470921614
30
0.0000000000
10
238.0923490269
20
120.8343240001
30
0.0000000000
10
238.1002091181
20
120.6215598782
30
0.0000000000
10
238.1041658654
20
120.5152015622
30
0.0000000000
11
238.0807507586
21
121.1534999545
31
0.0000000000
11
238.0923782233
21
120.8342795725
31
0.0000000000
11
238.1041658654
21
120.5152015622
31
0.0000000000
0
SPLINE
5
4DC
100
AcDbEntity
8
0
100
AcDbSpline
62
7
6
CONTINUOUS
70
0
71
3
72
9
73
5
74
3
42
0.0000001000
43
0.0000001000
44
0.0000000001
40
0.0000000000
40
0.0000000000
40
0.0000000000
40
0.0000000000
40
0.5001067780
40
1.0000000000
40
1.0000000000
40
1.0000000000
40
1.0000000000
10
238.0807507586
20
119.4513719018
30
0.0000000000
10
238.0845990540
20
119.5577795955
30
0.0000000000
10
238.0923490269
20
119.7705475582
30
0.0000000000
10
238.1002091181
20
119.9833114813
30
0.0000000000
10
238.1041658654
20
120.0896696980
30
0.0000000000
11
238.0807507586
21
119.4513719018
31
0.0000000000
11
238.0923782233
21
119.7705919857
31
0.0000000000
11
238.1041658654
21
120.0896696980
31
0.0000000000
0
SPLINE
5
4DD
100
AcDbEntity
8
0
100
AcDbSpline
62
7
6
CONTINUOUS
70
0
71
3
72
9
73
5
74
3
42
0.0000001000
43
0.0000001000
44
0.0000000001
40
0.0000000000
40
0.0000000000
40
0.0000000000
40
0.0000000000
40
0.5001105034
40
1.0000000000
40
1.0000000000
40
1.0000000000
40
1.0000000000
10
238.0359021438
20
119.0258400376
30
0.0000000000
10
238.0431610144
20
119.0968003649
30
0.0000000000
10
238.0578930394
20
119.2386674971
30
0.0000000000
10
238.0730601278
20
119.3804887764
30
0.0000000000
10
238.0807507586
20
119.4513719018
30
0.0000000000
11
238.0359021438
21
119.0258400376
31
0.0000000000
11
238.0580051092
21
119.2386873824
31
0.0000000000
11
238.0807507586
21
119.4513719018
31
0.0000000000
0
SPLINE
5
4DE
100
AcDbEntity
8
0
100
AcDbSpline
62
7
6
CONTINUOUS
70
0
71
3
72
9
73
5
74
3
42
0.0000001000
43
0.0000001000
44
0.0000000001
40
0.0000000000
40
0.0000000000
40
0.0000000000
40
0.0000000000
40
0.4993048879
40
1.0000000000
40
1.0000000000
40
1.0000000000
40
1.0000000000
10
237.9735670383
20
118.8130741055
30
0.0000000000
10
237.9834865962
20
118.8486167724
30
0.0000000000
10
238.0038124146
20
118.9196737247
30
0.0000000000
10
238.0250460191
20
118.9904646704
30
0.0000000000
10
238.0359021438
20
119.0258400376
30
0.0000000000
11
237.9735670383
21
118.8130741055
31
0.0000000000
11
238.0040104731
21
118.9195086227
31
0.0000000000
11
238.0359021438
21
119.0258400376
31
0.0000000000
0
SPLINE
5
4DF
100
AcDbEntity
8
0
100
AcDbSpline
62
7
6
CONTINUOUS
70
0
71
3
72
9
73
5
74
3
42
0.0000001000
43
0.0000001000
44
0.0000000001
40
0.0000000000
40
0.0000000000
40
0.0000000000
40
0.0000000000
40
0.5001067780
40
1.0000000000
40
1.0000000000
40
1.0000000000
40
1.0000000000
10
238.0807507586
20
114.9832870300
30
0.0000000000
10
238.0845990540
20
115.0896947237
30
0.0000000000
10
238.0923490269
20
115.3024626864
30
0.0000000000
10
238.1002091181
20
115.5152266095
30
0.0000000000
10
238.1041658654
20
115.6215848263
30
0.0000000000
11
238.0807507586
21
114.9832870300
31
0.0000000000
11
238.0923782233
21
115.3025071139
31
0.0000000000
11
238.1041658654
21
115.6215848263
31
0.0000000000
0
SPLINE
5
4E0
100
AcDbEntity
8
0
100
AcDbSpline
62
7
6
CONTINUOUS
70
0
71
3
72
9
73
5
74
3
42
0.0000001000
43
0.0000001000
44
0.0000000001
40
0.0000000000
40
0.0000000000
40
0.0000000000
40
0.0000000000
40
0.5001105034
40
1.0000000000
40
1.0000000000
40
1.0000000000
40
1.0000000000
10
238.0359021438
20
114.5577550168
30
0.0000000000
10
238.0431610144
20
114.6287153690
30
0.0000000000
10
238.0578930394
20
114.7705825509
30
0.0000000000
10
238.0730601278
20
114.9124038798
30
0.0000000000
10
238.0807507586
20
114.9832870300
30
0.0000000000
11
238.0359021438
21
114.5577550168
31
0.0000000000
11
238.0580051092
21
114.7706024362
31
0.0000000000
11
238.0807507586
21
114.9832870300
31
0.0000000000
0
SPLINE
5
4E1
100
AcDbEntity
8
0
100
AcDbSpline
62
7
6
CONTINUOUS
70
0
71
3
72
9
73
5
74
3
42
0.0000001000
43
0.0000001000
44
0.0000000001
40
0.0000000000
40
0.0000000000
40
0.0000000000
40
0.0000000000
40
0.4993048879
40
1.0000000000
40
1.0000000000
40
1.0000000000
40
1.0000000000
10
237.9735670383
20
114.3449890847
30
0.0000000000
10
237.9834865962
20
114.3805317516
30
0.0000000000
10
238.0038124146
20
114.4515887039
30
0.0000000000
10
238.0250460191
20
114.5223796496
30
0.0000000000
10
238.0359021438
20
114.5577550168
30
0.0000000000
11
237.9735670383
21
114.3449890847
31
0.0000000000
11
238.0040104731
21
114.4514236019
31
0.0000000000
11
238.0359021438
21
114.5577550168
31
0.0000000000
0
SPLINE
5
4E2
100
AcDbEntity
8
0
100
AcDbSpline
62
7
6
CONTINUOUS
70
0
71
3
72
9
73
5
74
3
42
0.0000001000
43
0.0000001000
44
0.0000000001
40
0.0000000000
40
0.0000000000
40
0.0000000000
40
0.0000000000
40
0.4993048879
40
1.0000000000
40
1.0000000000
40
1.0000000000
40
1.0000000000
10
237.9735670383
20
117.5364785130
30
0.0000000000
10
237.9834865962
20
117.5009358462
30
0.0000000000
10
238.0038124146
20
117.4298788939
30
0.0000000000
10
238.0250460191
20
117.3590879482
30
0.0000000000
10
238.0359021438
20
117.3237125809
30
0.0000000000
11
237.9735670383
21
117.5364785130
31
0.0000000000
11
238.0040104731
21
117.4300439958
31
0.0000000000
11
238.0359021438
21
117.3237125809
31
0.0000000000
0
SPLINE
5
4E3
100
AcDbEntity
8
0
100
AcDbSpline
62
7
6
CONTINUOUS
70
0
71
3
72
9
73
5
74
3
42
0.0000001000
43
0.0000001000
44
0.0000000001
40
0.0000000000
40
0.0000000000
40
0.0000000000
40
0.0000000000
40
0.5001105034
40
1.0000000000
40
1.0000000000
40
1.0000000000
40
1.0000000000
10
238.0359021438
20
117.3237125809
30
0.0000000000
10
238.0431610144
20
117.2527522536
30
0.0000000000
10
238.0578930394
20
117.1108851214
30
0.0000000000
10
238.0730601278
20
116.9690638421
30
0.0000000000
10
238.0807507586
20
116.8981807168
30
0.0000000000
11
238.0359021438
21
117.3237125809
31
0.0000000000
11
238.0580051092
21
117.1108652361
31
0.0000000000
11
238.0807507586
21
116.8981807168
31
0.0000000000
0
SPLINE
5
4E4
100
AcDbEntity
8
0
100
AcDbSpline
62
7
6
CONTINUOUS
70
0
71
3
72
9
73
5
74
3
42
0.0000001000
43
0.0000001000
44
0.0000000001
40
0.0000000000
40
0.0000000000
40
0.0000000000
40
0.0000000000
40
0.5001067780
40
1.0000000000
40
1.0000000000
40
1.0000000000
40
1.0000000000
10
238.0807507586
20
116.8981807168
30
0.0000000000
10
238.0845990540
20
116.7917729734
30
0.0000000000
10
238.0923490269
20
116.5790049114
30
0.0000000000
10
238.1002091181
20
116.3662408889
30
0.0000000000
10
238.1041658654
20
116.2598826225
30
0.0000000000
11
238.0807507586
21
116.8981807168
31
0.0000000000
11
238.0923782233
21
116.5789604838
31
0.0000000000
11
238.1041658654
21
116.2598826225
31
0.0000000000
0
SPLINE
5
4E5
100
AcDbEntity
8
0
100
AcDbSpline
62
7
6
CONTINUOUS
70
0
71
3
72
9
73
5
74
3
42
0.0000001000
43
0.0000001000
44
0.0000000001
40
0.0000000000
40
0.0000000000
40
0.0000000000
40
0.0000000000
40
0.5044442748
40
1.0000000000
40
1.0000000000
40
1.0000000000
40
1.0000000000
10
237.7866170029
20
100.7049552981
30
0.0000000000
10
237.7733784077
20
100.6698809047
30
0.0000000000
10
237.7491152075
20
100.5995839310
30
0.0000000000
10
237.7291121870
20
100.5279532747
30
0.0000000000
10
237.7203188683
20
100.4921893660
30
0.0000000000
11
237.7866170029
21
100.7049552981
31
0.0000000000
11
237.7499836053
21
100.5986197186
31
0.0000000000
11
237.7203188683
21
100.4921893660
31
0.0000000000
0
SPLINE
5
4E6
100
AcDbEntity
8
0
100
AcDbSpline
62
7
6
CONTINUOUS
70
0
71
3
72
9
73
5
74
3
42
0.0000001000
43
0.0000001000
44
0.0000000001
40
0.0000000000
40
0.0000000000
40
0.0000000000
40
0.0000000000
40
0.5001627134
40
1.0000000000
40
1.0000000000
40
1.0000000000
40
1.0000000000
10
237.7203188683
20
100.4921893660
30
0.0000000000
10
237.7116101309
20
100.3859296889
30
0.0000000000
10
237.6965037763
20
100.1732841776
30
0.0000000000
10
237.6860286104
20
99.9603601890
30
0.0000000000
10
237.6819533954
20
99.8538915698
30
0.0000000000
11
237.7203188683
21
100.4921893660
31
0.0000000000
11
237.6976574112
21
100.1731453124
31
0.0000000000
11
237.6819533954
21
99.8538915698
31
0.0000000000
0
SPLINE
5
4E7
100
AcDbEntity
8
0
100
AcDbSpline
62
7
6
CONTINUOUS
70
0
71
3
72
9
73
5
74
3
42
0.0000001000
43
0.0000001000
44
0.0000000001
40
0.0000000000
40
0.0000000000
40
0.0000000000
40
0.0000000000
40
0.4999909261
40
1.0000000000
40
1.0000000000
40
1.0000000000
40
1.0000000000
10
237.6819533954
20
99.8538915698
30
0.0000000000
10
237.6795106245
20
99.7475256091
30
0.0000000000
10
237.6754596466
20
99.5347698395
30
0.0000000000
10
237.6730782719
20
99.3219888323
30
0.0000000000
10
237.6723050105
20
99.2155937735
30
0.0000000000
11
237.6819533954
21
99.8538915698
31
0.0000000000
11
237.6758771057
21
99.5347673914
31
0.0000000000
11
237.6723050105
21
99.2155937735
31
0.0000000000
0
SPLINE
5
4E8
100
AcDbEntity
8
0
100
AcDbSpline
62
7
6
CONTINUOUS
70
0
71
3
72
9
73
5
74
3
42
0.0000001000
43
0.0000001000
44
0.0000000001
40
0.0000000000
40
0.0000000000
40
0.0000000000
40
0.0000000000
40
0.7197068114
40
1.0000000000
40
1.0000000000
40
1.0000000000
40
1.0000000000
10
237.6723050105
20
99.2155937735
30
0.0000000000
10
237.6717895667
20
99.0382905842
30
0.0000000000
10
237.6713311120
20
98.7919350206
30
0.0000000000
10
237.6712307419
20
98.5455791652
30
0.0000000000
10
237.6712307415
20
98.4765272999
30
0.0000000000
11
237.6723050105
21
99.2155937735
31
0.0000000000
11
237.6713151407
21
98.6836828788
31
0.0000000000
11
237.6712307415
21
98.4765272999
31
0.0000000000
0
SPLINE
5
4E9
100
AcDbEntity
8
0
100
AcDbSpline
62
7
6
CONTINUOUS
70
0
71
3
72
9
73
5
74
3
42
0.0000001000
43
0.0000001000
44
0.0000000001
40
0.0000000000
40
0.0000000000
40
0.0000000000
40
0.0000000000
40
0.5002693352
40
1.0000000000
40
1.0000000000
40
1.0000000000
40
1.0000000000
10
239.9246016191
20
114.9832870300
30
0.0000000000
10
239.9339718021
20
115.0897329096
30
0.0000000000
10
239.9527654291
20
115.3025044802
30
0.0000000000
10
239.9716859530
20
115.5152648041
30
0.0000000000
10
239.9811728757
20
115.6215848263
30
0.0000000000
11
239.9246016191
21
114.9832870300
31
0.0000000000
11
239.9528073111
21
115.3026162792
31
0.0000000000
11
239.9811728757
21
115.6215848263
31
0.0000000000
0
SPLINE
5
4EA
100
AcDbEntity
8
0
100
AcDbSpline
62
7
6
CONTINUOUS
70
0
71
3
72
9
73
5
74
3
42
0.0000001000
43
0.0000001000
44
0.0000000001
40
0.0000000000
40
0.0000000000
40
0.0000000000
40
0.0000000000
40
0.5001723924
40
1.0000000000
40
1.0000000000
40
1.0000000000
40
1.0000000000
10
239.7594688641
20
114.5577550168
30
0.0000000000
10
239.7865039099
20
114.6288926744
30
0.0000000000
10
239.8410534002
20
114.7709301773
30
0.0000000000
10
239.8965942294
20
114.9125829677
30
0.0000000000
10
239.9246016191
20
114.9832870300
30
0.0000000000
11
239.7594688641
21
114.5577550168
31
0.0000000000
11
239.8413202137
21
114.7708829052
31
0.0000000000
11
239.9246016191
21
114.9832870300
31
0.0000000000
0
SPLINE
5
4EB
100
AcDbEntity
8
0
100
AcDbSpline
62
7
6
CONTINUOUS
70
0
71
3
72
8
73
4
74
2
42
0.0000001000
43
0.0000001000
44
0.0000000001
40
0.0000000000
40
0.0000000000
40
0.0000000000
40
0.0000000000
40
1.0000000000
40
1.0000000000
40
1.0000000000
40
1.0000000000
10
237.6723050105
20
96.6624019925
30
0.0000000000
10
237.6720472895
20
96.7333229803
30
0.0000000000
10
237.6718359407
20
96.8042441518
30
0.0000000000
10
237.6716709630
20
96.8751654387
30
0.0000000000
11
237.6723050105
21
96.6624019925
31
0.0000000000
11
237.6716709630
21
96.8751654387
31
0.0000000000
0
SPLINE
5
4EC
100
AcDbEntity
8
0
100
AcDbSpline
62
7
6
CONTINUOUS
70
0
71
3
72
9
73
5
74
3
42
0.0000001000
43
0.0000001000
44
0.0000000001
40
0.0000000000
40
0.0000000000
40
0.0000000000
40
0.0000000000
40
0.5621431276
40
1.0000000000
40
1.0000000000
40
1.0000000000
40
1.0000000000
10
237.6716709630
20
96.8751654387
30
0.0000000000
10
237.6715059844
20
96.9460870471
30
0.0000000000
10
237.6712949936
20
97.0722501547
30
0.0000000000
10
237.6712307419
20
97.1984134118
30
0.0000000000
10
237.6712307416
20
97.2536548573
30
0.0000000000
11
237.6716709630
21
96.8751654387
31
0.0000000000
11
237.6713151406
21
97.0879305421
31
0.0000000000
11
237.6712307416
21
97.2536548573
31
0.0000000000
0
SPLINE
5
4ED
100
AcDbEntity
8
0
100
AcDbSpline
62
7
6
CONTINUOUS
70
0
71
3
72
9
73
5
74
3
42
0.0000001000
43
0.0000001000
44
0.0000000001
40
0.0000000000
40
0.0000000000
40
0.0000000000
40
0.0000000000
40
0.4972675605
40
1.0000000000
40
1.0000000000
40
1.0000000000
40
1.0000000000
10
239.5498525996
20
114.3449890847
30
0.0000000000
10
239.5840853442
20
114.3807555939
30
0.0000000000
10
239.6534564569
20
114.4521766862
30
0.0000000000
10
239.7238407287
20
114.5225992096
30
0.0000000000
10
239.7594688641
20
114.5577550168
30
0.0000000000
11
239.5498525996
21
114.3449890847
31
0.0000000000
11
239.6533278811
21
114.4515394574
31
0.0000000000
11
239.7594688641
21
114.5577550168
31
0.0000000000
0
SPLINE
5
4EE
100
AcDbEntity
8
0
100
AcDbSpline
62
7
6
CONTINUOUS
70
0
71
3
72
9
73
5
74
3
42
0.0000001000
43
0.0000001000
44
0.0000000001
40
0.0000000000
40
0.0000000000
40
0.0000000000
40
0.0000000000
40
0.4999909261
40
1.0000000000
40
1.0000000000
40
1.0000000000
40
1.0000000000
10
237.6819533954
20
96.0241041962
30
0.0000000000
10
237.6795106245
20
96.1304701570
30
0.0000000000
10
237.6754596466
20
96.3432259265
30
0.0000000000
10
237.6730782719
20
96.5560069337
30
0.0000000000
10
237.6723050105
20
96.6624019925
30
0.0000000000
11
237.6819533954
21
96.0241041962
31
0.0000000000
11
237.6758771057
21
96.3432283747
31
0.0000000000
11
237.6723050105
21
96.6624019925
31
0.0000000000
0
SPLINE
5
4EF
100
AcDbEntity
8
0
100
AcDbSpline
62
7
6
CONTINUOUS
70
0
71
3
72
9
73
5
74
3
42
0.0000001000
43
0.0000001000
44
0.0000000001
40
0.0000000000
40
0.0000000000
40
0.0000000000
40
0.0000000000
40
0.5000989717
40
1.0000000000
40
1.0000000000
40
1.0000000000
40
1.0000000000
10
237.6939542906
20
95.8113382642
30
0.0000000000
10
237.6915836767
20
95.8467839459
30
0.0000000000
10
237.6872129333
20
95.9176864806
30
0.0000000000
10
237.6835827409
20
95.9886307899
30
0.0000000000
10
237.6819533954
20
96.0241041962
30
0.0000000000
11
237.6939542906
21
95.8113382642
31
0.0000000000
11
237.6873972792
21
95.9177109630
31
0.0000000000
11
237.6819533954
21
96.0241041962
31
0.0000000000
0
SPLINE
5
4F0
100
AcDbEntity
8
0
100
AcDbSpline
62
7
6
CONTINUOUS
70
0
71
3
72
9
73
5
74
3
42
0.0000001000
43
0.0000001000
44
0.0000000001
40
0.0000000000
40
0.0000000000
40
0.0000000000
40
0.0000000000
40
0.5000989717
40
1.0000000000
40
1.0000000000
40
1.0000000000
40
1.0000000000
10
237.6939542906
20
95.8113382642
30
0.0000000000
10
237.6915836767
20
95.7758925824
30
0.0000000000
10
237.6872129333
20
95.7049900478
30
0.0000000000
10
237.6835827409
20
95.6340457385
30
0.0000000000
10
237.6819533954
20
95.5985723321
30
0.0000000000
11
237.6939542906
21
95.8113382642
31
0.0000000000
11
237.6873972792
21
95.7049655653
31
0.0000000000
11
237.6819533954
21
95.5985723321
31
0.0000000000
0
SPLINE
5
4F1
100
AcDbEntity
8
0
100
AcDbSpline
62
7
6
CONTINUOUS
70
0
71
3
72
9
73
5
74
3
42
0.0000001000
43
0.0000001000
44
0.0000000001
40
0.0000000000
40
0.0000000000
40
0.0000000000
40
0.0000000000
40
0.4972675605
40
1.0000000000
40
1.0000000000
40
1.0000000000
40
1.0000000000
10
239.5498525996
20
121.7917977507
30
0.0000000000
10
239.5840853442
20
121.7560312416
30
0.0000000000
10
239.6534564569
20
121.6846101493
30
0.0000000000
10
239.7238407287
20
121.6141876259
30
0.0000000000
10
239.7594688641
20
121.5790318186
30
0.0000000000
11
239.5498525996
21
121.7917977507
31
0.0000000000
11
239.6533278811
21
121.6852473781
31
0.0000000000
11
239.7594688641
21
121.5790318186
31
0.0000000000
0
SPLINE
5
4F2
100
AcDbEntity
8
0
100
AcDbSpline
62
7
6
CONTINUOUS
70
0
71
3
72
9
73
5
74
3
42
0.0000001000
43
0.0000001000
44
0.0000000001
40
0.0000000000
40
0.0000000000
40
0.0000000000
40
0.0000000000
40
0.5000084645
40
1.0000000000
40
1.0000000000
40
1.0000000000
40
1.0000000000
10
237.6819533954
20
95.5985723321
30
0.0000000000
10
237.6786967872
20
95.4922200516
30
0.0000000000
10
237.6736664750
20
95.2794710971
30
0.0000000000
10
237.6716041220
20
95.0666726699
30
0.0000000000
10
237.6713151379
20
94.9602745358
30
0.0000000000
11
237.6819533954
21
95.5985723321
31
0.0000000000
11
237.6744084048
21
95.2794551269
31
0.0000000000
11
237.6713151379
21
94.9602745358
31
0.0000000000
0
SPLINE
5
4F3
100
AcDbEntity
8
0
100
AcDbSpline
62
7
6
CONTINUOUS
70
0
71
3
72
9
73
5
74
3
42
0.0000001000
43
0.0000001000
44
0.0000000001
40
0.0000000000
40
0.0000000000
40
0.0000000000
40
0.0000000000
40
0.5001723919
40
1.0000000000
40
1.0000000000
40
1.0000000000
40
1.0000000000
10
239.7594688641
20
121.5790318186
30
0.0000000000
10
239.7865039099
20
121.5078941859
30
0.0000000000
10
239.8410534003
20
121.3658567327
30
0.0000000000
10
239.8965942294
20
121.2242039920
30
0.0000000000
10
239.9246016191
20
121.1534999545
30
0.0000000000
11
239.7594688641
21
121.5790318186
31
0.0000000000
11
239.8413202137
21
121.3659040049
31
0.0000000000
11
239.9246016191
21
121.1534999545
31
0.0000000000
0
SPLINE
5
4F4
100
AcDbEntity
8
0
100
AcDbSpline
62
7
6
CONTINUOUS
70
0
71
3
72
9
73
5
74
3
42
0.0000001000
43
0.0000001000
44
0.0000000001
40
0.0000000000
40
0.0000000000
40
0.0000000000
40
0.0000000000
40
0.5002693352
40
1.0000000000
40
1.0000000000
40
1.0000000000
40
1.0000000000
10
239.9246016191
20
121.1534999545
30
0.0000000000
10
239.9339718021
20
121.0470539755
30
0.0000000000
10
239.9527654291
20
120.8342822062
30
0.0000000000
10
239.9716859530
20
120.6215216836
30
0.0000000000
10
239.9811728757
20
120.5152015622
30
0.0000000000
11
239.9246016191
21
121.1534999545
31
0.0000000000
11
239.9528073111
21
120.8341704071
31
0.0000000000
11
239.9811728757
21
120.5152015622
31
0.0000000000
0
SPLINE
5
4F5
100
AcDbEntity
8
0
100
AcDbSpline
62
7
6
CONTINUOUS
70
0
71
3
72
9
73
5
74
3
42
0.0000001000
43
0.0000001000
44
0.0000000001
40
0.0000000000
40
0.0000000000
40
0.0000000000
40
0.0000000000
40
0.4955360121
40
1.0000000000
40
1.0000000000
40
1.0000000000
40
1.0000000000
10
238.9085794624
20
122.8556274111
30
0.0000000000
10
238.9429757970
20
122.8915135385
30
0.0000000000
10
239.0131813037
20
122.9631757789
30
0.0000000000
10
239.0848676150
20
123.0333555686
30
0.0000000000
10
239.1213794574
20
123.0683933432
30
0.0000000000
11
238.9085794624
21
122.8556274111
31
0.0000000000
11
239.0129181310
21
122.9621719556
31
0.0000000000
11
239.1213794574
21
123.0683933432
31
0.0000000000
0
SPLINE
5
4F6
100
AcDbEntity
8
0
100
AcDbSpline
62
7
6
CONTINUOUS
70
0
71
3
72
9
73
5
74
3
42
0.0000001000
43
0.0000001000
44
0.0000000001
40
0.0000000000
40
0.0000000000
40
0.0000000000
40
0.0000000000
40
0.4999940669
40
1.0000000000
40
1.0000000000
40
1.0000000000
40
1.0000000000
10
237.6776239154
20
91.5560191010
30
0.0000000000
10
237.6757377740
20
91.6623901108
30
0.0000000000
10
237.6728000767
20
91.8751502734
30
0.0000000000
10
237.6715318595
20
92.0879269367
30
0.0000000000
10
237.6713151379
20
92.1943169717
30
0.0000000000
11
237.6776239154
21
91.5560191010
31
0.0000000000
11
237.6732174717
21
91.8751518738
31
0.0000000000
11
237.6713151379
21
92.1943169717
31
0.0000000000
0
SPLINE
5
4F7
100
AcDbEntity
8
0
100
AcDbSpline
62
7
6
CONTINUOUS
70
0
71
3
72
9
73
5
74
3
42
0.0000001000
43
0.0000001000
44
0.0000000001
40
0.0000000000
40
0.0000000000
40
0.0000000000
40
0.0000000000
40
0.4996394250
40
1.0000000000
40
1.0000000000
40
1.0000000000
40
1.0000000000
10
238.7510529241
20
122.4300955470
30
0.0000000000
10
238.7764638904
20
122.5012675241
30
0.0000000000
10
238.8281532512
20
122.6434189401
30
0.0000000000
10
238.8814866734
20
122.7849616731
30
0.0000000000
10
238.9085794624
20
122.8556274111
30
0.0000000000
11
238.7510529241
21
122.4300955470
31
0.0000000000
11
238.8285263982
21
122.6431644763
31
0.0000000000
11
238.9085794624
21
122.8556274111
31
0.0000000000
0
SPLINE
5
4F8
100
AcDbEntity
8
0
100
AcDbSpline
62
7
6
CONTINUOUS
70
0
71
3
72
9
73
5
74
3
42
0.0000001000
43
0.0000001000
44
0.0000000001
40
0.0000000000
40
0.0000000000
40
0.0000000000
40
0.0000000000
40
0.5001392040
40
1.0000000000
40
1.0000000000
40
1.0000000000
40
1.0000000000
10
237.7104146486
20
90.9177212488
30
0.0000000000
10
237.7026342908
20
91.0239960597
30
0.0000000000
10
237.6893855316
20
91.2366618058
30
0.0000000000
10
237.6807699192
20
91.4495656654
30
0.0000000000
10
237.6776239154
20
91.5560191010
30
0.0000000000
11
237.7104146486
21
90.9177212488
31
0.0000000000
11
237.6905407748
21
91.2367805752
31
0.0000000000
11
237.6776239154
21
91.5560191010
31
0.0000000000
0
SPLINE
5
4F9
100
AcDbEntity
8
0
100
AcDbSpline
62
7
6
CONTINUOUS
70
0
71
3
72
9
73
5
74
3
42
0.0000001000
43
0.0000001000
44
0.0000000001
40
0.0000000000
40
0.0000000000
40
0.0000000000
40
0.0000000000
40
0.5003606806
40
1.0000000000
40
1.0000000000
40
1.0000000000
40
1.0000000000
10
238.6046743018
20
121.5790318186
30
0.0000000000
10
238.6281911368
20
121.7211302215
30
0.0000000000
10
238.6760873366
20
122.0049745407
30
0.0000000000
10
238.7257774061
20
122.2885103305
30
0.0000000000
10
238.7510529241
20
122.4300955470
30
0.0000000000
11
238.6046743018
21
121.5790318186
31
0.0000000000
11
238.6765710017
21
122.0051020513
31
0.0000000000
11
238.7510529241
21
122.4300955470
31
0.0000000000
0
SPLINE
5
4FA
100
AcDbEntity
8
0
100
AcDbSpline
62
7
6
CONTINUOUS
70
0
71
3
72
9
73
5
74
3
42
0.0000001000
43
0.0000001000
44
0.0000000001
40
0.0000000000
40
0.0000000000
40
0.0000000000
40
0.0000000000
40
0.5041268991
40
1.0000000000
40
1.0000000000
40
1.0000000000
40
1.0000000000
10
237.7711167651
20
90.7049552981
30
0.0000000000
10
237.7587950212
20
90.7400526963
30
0.0000000000
10
237.7363699535
20
90.8103996580
30
0.0000000000
10
237.7182634836
20
90.8819845475
30
0.0000000000
10
237.7104146486
20
90.9177212488
30
0.0000000000
11
237.7711167651
21
90.7049552981
31
0.0000000000
11
237.7372824069
21
90.8112948995
31
0.0000000000
11
237.7104146486
21
90.9177212488
31
0.0000000000
0
SPLINE
5
4FB
100
AcDbEntity
8
0
100
AcDbSpline
62
7
6
CONTINUOUS
70
0
71
3
72
9
73
5
74
3
42
0.0000001000
43
0.0000001000
44
0.0000000001
40
0.0000000000
40
0.0000000000
40
0.0000000000
40
0.0000000000
40
0.5002927239
40
1.0000000000
40
1.0000000000
40
1.0000000000
40
1.0000000000
10
238.5356247683
20
120.7279680903
30
0.0000000000
10
238.5469123582
20
120.8699133998
30
0.0000000000
10
238.5697014042
20
121.1536199016
30
0.0000000000
10
238.5929453161
20
121.4372894992
30
0.0000000000
10
238.6046743018
20
121.5790318186
30
0.0000000000
11
238.5356247683
21
120.7279680903
31
0.0000000000
11
238.5698285957
21
121.1537767601
31
0.0000000000
11
238.6046743018
21
121.5790318186
31
0.0000000000
0
SPLINE
5
4FC
100
AcDbEntity
8
0
100
AcDbSpline
62
7
6
CONTINUOUS
70
0
71
3
72
9
73
5
74
3
42
0.0000001000
43
0.0000001000
44
0.0000000001
40
0.0000000000
40
0.0000000000
40
0.0000000000
40
0.0000000000
40
0.5001608249
40
1.0000000000
40
1.0000000000
40
1.0000000000
40
1.0000000000
10
238.5021285384
20
119.6641378339
30
0.0000000000
10
238.5076560986
20
119.8415016927
30
0.0000000000
10
238.5187645565
20
120.1961135783
30
0.0000000000
10
238.5299869067
20
120.5507218778
30
0.0000000000
10
238.5356247683
20
120.7279680903
30
0.0000000000
11
238.5021285384
21
119.6641378339
31
0.0000000000
11
238.5187966209
21
120.1962267421
31
0.0000000000
11
238.5356247683
21
120.7279680903
31
0.0000000000
0
SPLINE
5
4FD
100
AcDbEntity
8
0
100
AcDbSpline
62
7
6
CONTINUOUS
70
0
71
3
72
9
73
5
74
3
42
0.0000001000
43
0.0000001000
44
0.0000000001
40
0.0000000000
40
0.0000000000
40
0.0000000000
40
0.0000000000
40
0.5001608249
40
1.0000000000
40
1.0000000000
40
1.0000000000
40
1.0000000000
10
238.5021285384
20
116.4726485546
30
0.0000000000
10
238.5076560986
20
116.2952847951
30
0.0000000000
10
238.5187645565
20
115.9406731082
30
0.0000000000
10
238.5299869067
20
115.5860650074
30
0.0000000000
10
238.5356247683
20
115.4088188942
30
0.0000000000
11
238.5021285384
21
116.4726485546
31
0.0000000000
11
238.5187966209
21
115.9405599445
31
0.0000000000
11
238.5356247683
21
115.4088188942
31
0.0000000000
0
SPLINE
5
4FE
100
AcDbEntity
8
0
100
AcDbSpline
62
7
6
CONTINUOUS
70
0
71
3
72
9
73
5
74
3
42
0.0000001000
43
0.0000001000
44
0.0000000001
40
0.0000000000
40
0.0000000000
40
0.0000000000
40
0.0000000000
40
0.5002927239
40
1.0000000000
40
1.0000000000
40
1.0000000000
40
1.0000000000
10
238.5356247683
20
115.4088188942
30
0.0000000000
10
238.5469123582
20
115.2668735599
30
0.0000000000
10
238.5697014042
20
114.9831670084
30
0.0000000000
10
238.5929453161
20
114.6994973611
30
0.0000000000
10
238.6046743018
20
114.5577550168
30
0.0000000000
11
238.5356247683
21
115.4088188942
31
0.0000000000
11
238.5698285957
21
114.9830101498
31
0.0000000000
11
238.6046743018
21
114.5577550168
31
0.0000000000
0
SPLINE
5
4FF
100
AcDbEntity
8
0
100
AcDbSpline
62
7
6
CONTINUOUS
70
0
71
3
72
9
73
5
74
3
42
0.0000001000
43
0.0000001000
44
0.0000000001
40
0.0000000000
40
0.0000000000
40
0.0000000000
40
0.0000000000
40
0.5003606806
40
1.0000000000
40
1.0000000000
40
1.0000000000
40
1.0000000000
10
238.6046743018
20
114.5577550168
30
0.0000000000
10
238.6281911368
20
114.4156566015
30
0.0000000000
10
238.6760873366
20
114.1318122575
30
0.0000000000
10
238.7257774061
20
113.8482764429
30
0.0000000000
10
238.7510529241
20
113.7066912140
30
0.0000000000
11
238.6046743018
21
114.5577550168
31
0.0000000000
11
238.6765710018
21
114.1316847469
31
0.0000000000
11
238.7510529241
21
113.7066912140
31
0.0000000000
0
SPLINE
5
500
100
AcDbEntity
8
0
100
AcDbSpline
62
7
6
CONTINUOUS
70
0
71
3
72
9
73
5
74
3
42
0.0000001000
43
0.0000001000
44
0.0000000001
40
0.0000000000
40
0.0000000000
40
0.0000000000
40
0.0000000000
40
0.4996394253
40
1.0000000000
40
1.0000000000
40
1.0000000000
40
1.0000000000
10
238.7510529241
20
113.7066912140
30
0.0000000000
10
238.7764638904
20
113.6355192276
30
0.0000000000
10
238.8281532511
20
113.4933677929
30
0.0000000000
10
238.8814866734
20
113.3518250413
30
0.0000000000
10
238.9085794624
20
113.2811592939
30
0.0000000000
11
238.7510529241
21
113.7066912140
31
0.0000000000
11
238.8285263982
21
113.4936222567
31
0.0000000000
11
238.9085794624
21
113.2811592939
31
0.0000000000
0
SPLINE
5
501
100
AcDbEntity
8
0
100
AcDbSpline
62
7
6
CONTINUOUS
70
0
71
3
72
9
73
5
74
3
42
0.0000001000
43
0.0000001000
44
0.0000000001
40
0.0000000000
40
0.0000000000
40
0.0000000000
40
0.0000000000
40
0.4955360125
40
1.0000000000
40
1.0000000000
40
1.0000000000
40
1.0000000000
10
238.9085794624
20
113.2811592939
30
0.0000000000
10
238.9429757969
20
113.2452731635
30
0.0000000000
10
239.0131813036
20
113.1736109169
30
0.0000000000
10
239.0848676150
20
113.1034311209
30
0.0000000000
10
239.1213794574
20
113.0683933432
30
0.0000000000
11
238.9085794624
21
113.2811592939
31
0.0000000000
11
239.0129181310
21
113.1746147402
31
0.0000000000
11
239.1213794574
21
113.0683933432
31
0.0000000000
0
SPLINE
5
502
100
AcDbEntity
8
0
100
AcDbSpline
62
7
6
CONTINUOUS
70
0
71
3
72
9
73
5
74
3
42
0.0000001000
43
0.0000001000
44
0.0000000001
40
0.0000000000
40
0.0000000000
40
0.0000000000
40
0.0000000000
40
0.5001254206
40
1.0000000000
40
1.0000000000
40
1.0000000000
40
1.0000000000
10
238.2312005681
20
117.1109466489
30
0.0000000000
10
238.2357139891
20
117.0045345678
30
0.0000000000
10
238.2447942166
20
116.7917661340
30
0.0000000000
10
238.2539858229
20
116.5790024827
30
0.0000000000
10
238.2586083313
20
116.4726485546
30
0.0000000000
11
238.2312005681
21
117.1109466489
31
0.0000000000
11
238.2448243529
21
116.7917139591
31
0.0000000000
11
238.2586083313
21
116.4726485546
31
0.0000000000
0
SPLINE
5
503
100
AcDbEntity
8
0
100
AcDbSpline
62
7
6
CONTINUOUS
70
0
71
3
72
9
73
5
74
3
42
0.0000001000
43
0.0000001000
44
0.0000000001
40
0.0000000000
40
0.0000000000
40
0.0000000000
40
0.0000000000
40
0.5002696299
40
1.0000000000
40
1.0000000000
40
1.0000000000
40
1.0000000000
10
238.1529842374
20
117.9620103772
30
0.0000000000
10
238.1655314780
20
117.8200450162
30
0.0000000000
10
238.1911077162
20
117.5363108795
30
0.0000000000
10
238.2176756634
20
117.2526678831
30
0.0000000000
10
238.2312005681
20
117.1109466489
30
0.0000000000
11
238.1529842374
21
117.9620103772
31
0.0000000000
11
238.1913697032
21
117.5361806828
31
0.0000000000
11
238.2312005681
21
117.1109466489
31
0.0000000000
0
SPLINE
5
504
100
AcDbEntity
8
0
100
AcDbSpline
62
7
6
CONTINUOUS
70
0
71
3
72
9
73
5
74
3
42
0.0000001000
43
0.0000001000
44
0.0000000001
40
0.0000000000
40
0.0000000000
40
0.0000000000
40
0.0000000000
40
0.4998784648
40
1.0000000000
40
1.0000000000
40
1.0000000000
40
1.0000000000
10
238.1041658654
20
118.1747763093
30
0.0000000000
10
238.1120899834
20
118.1392761798
30
0.0000000000
10
238.1281528867
20
118.0683055518
30
0.0000000000
10
238.1446359819
20
117.9974313381
30
0.0000000000
10
238.1529842374
20
117.9620103772
30
0.0000000000
11
238.1041658654
21
118.1747763093
31
0.0000000000
11
238.1282539792
21
118.0683468945
31
0.0000000000
11
238.1529842374
21
117.9620103772
31
0.0000000000
0
SPLINE
5
505
100
AcDbEntity
8
0
100
AcDbSpline
62
7
6
CONTINUOUS
70
0
71
3
72
9
73
5
74
3
42
0.0000001000
43
0.0000001000
44
0.0000000001
40
0.0000000000
40
0.0000000000
40
0.0000000000
40
0.0000000000
40
0.5001153572
40
1.0000000000
40
1.0000000000
40
1.0000000000
40
1.0000000000
10
238.4604876218
20
92.8326149170
30
0.0000000000
10
238.4647692503
20
92.7262034640
30
0.0000000000
10
238.4734265016
20
92.5134334987
30
0.0000000000
10
238.4822758147
20
92.3006714349
30
0.0000000000
10
238.4867474862
20
92.1943169717
30
0.0000000000
11
238.4604876218
21
92.8326149170
31
0.0000000000
11
238.4734765365
21
92.5133863859
31
0.0000000000
11
238.4867474862
21
92.1943169717
31
0.0000000000
0
SPLINE
5
506
100
AcDbEntity
8
0
100
AcDbSpline
62
7
6
CONTINUOUS
70
0
71
3
72
9
73
5
74
3
42
0.0000001000
43
0.0000001000
44
0.0000000001
40
0.0000000000
40
0.0000000000
40
0.0000000000
40
0.0000000000
40
0.5001123787
40
1.0000000000
40
1.0000000000
40
1.0000000000
40
1.0000000000
10
237.9567516703
20
92.8326149170
30
0.0000000000
10
237.9609775588
20
92.7262042005
30
0.0000000000
10
237.9695221241
20
92.5134343397
30
0.0000000000
10
237.9782561821
20
92.3006721731
30
0.0000000000
10
237.9826696223
20
92.1943169717
30
0.0000000000
11
237.9567516703
21
92.8326149170
31
0.0000000000
11
237.9695714390
21
92.5133884425
31
0.0000000000
11
237.9826696223
21
92.1943169717
31
0.0000000000
0
SPLINE
5
507
100
AcDbEntity
8
0
100
AcDbSpline
62
7
6
CONTINUOUS
70
0
71
3
72
9
73
5
74
3
42
0.0000001000
43
0.0000001000
44
0.0000000001
40
0.0000000000
40
0.0000000000
40
0.0000000000
40
0.0000000000
40
0.4997958585
40
1.0000000000
40
1.0000000000
40
1.0000000000
40
1.0000000000
10
238.4867474862
20
92.1943169717
30
0.0000000000
10
238.5001917682
20
92.1232591899
30
0.0000000000
10
238.5279318169
20
91.9812433282
30
0.0000000000
10
238.5573431398
20
91.8395641807
30
0.0000000000
10
238.5724702038
20
91.7687851075
30
0.0000000000
11
238.4867474862
21
92.1943169717
31
0.0000000000
11
238.5283379685
21
91.9813854207
31
0.0000000000
11
238.5724702038
21
91.7687851075
31
0.0000000000
0
SPLINE
5
508
100
AcDbEntity
8
0
100
AcDbSpline
62
7
6
CONTINUOUS
70
0
71
3
72
9
73
5
74
3
42
0.0000001000
43
0.0000001000
44
0.0000000001
40
0.0000000000
40
0.0000000000
40
0.0000000000
40
0.0000000000
40
0.4998009078
40
1.0000000000
40
1.0000000000
40
1.0000000000
40
1.0000000000
10
237.9826696223
20
92.1943169717
30
0.0000000000
10
237.9959380877
20
92.1232626678
30
0.0000000000
10
238.0233154362
20
91.9812511722
30
0.0000000000
10
238.0523431139
20
91.8395678283
30
0.0000000000
10
238.0672729845
20
91.7687851075
30
0.0000000000
11
237.9826696223
21
92.1943169717
31
0.0000000000
11
238.0237167888
21
91.9813896916
31
0.0000000000
11
238.0672729845
21
91.7687851075
31
0.0000000000
0
SPLINE
5
509
100
AcDbEntity
8
0
100
AcDbSpline
62
7
6
CONTINUOUS
70
0
71
3
72
9
73
5
74
3
42
0.0000001000
43
0.0000001000
44
0.0000000001
40
0.0000000000
40
0.0000000000
40
0.0000000000
40
0.0000000000
40
0.4922330416
40
1.0000000000
40
1.0000000000
40
1.0000000000
40
1.0000000000
10
238.5724702038
20
91.7687851075
30
0.0000000000
10
238.5981778853
20
91.7326994431
30
0.0000000000
10
238.6521003724
20
91.6605858268
30
0.0000000000
10
238.7090488403
20
91.5908437521
30
0.0000000000
10
238.7386488316
20
91.5560191010
30
0.0000000000
11
238.5724702038
21
91.7687851075
31
0.0000000000
11
238.6519959200
21
91.6622806425
31
0.0000000000
11
238.7386488316
21
91.5560191010
31
0.0000000000
0
SPLINE
5
50A
100
AcDbEntity
8
0
100
AcDbSpline
62
7
6
CONTINUOUS
70
0
71
3
72
9
73
5
74
3
42
0.0000001000
43
0.0000001000
44
0.0000000001
40
0.0000000000
40
0.0000000000
40
0.0000000000
40
0.0000000000
40
0.4923600536
40
1.0000000000
40
1.0000000000
40
1.0000000000
40
1.0000000000
10
238.0672729845
20
91.7687851075
30
0.0000000000
10
238.0926361406
20
91.7327109600
30
0.0000000000
10
238.1458355577
20
91.6606170848
30
0.0000000000
10
238.2020492997
20
91.5908544301
30
0.0000000000
10
238.2312675475
20
91.5560191010
30
0.0000000000
11
238.0672729845
21
91.7687851075
31
0.0000000000
11
238.1457534042
21
91.6622838023
31
0.0000000000
11
238.2312675475
21
91.5560191010
31
0.0000000000
0
SPLINE
5
50B
100
AcDbEntity
8
0
100
AcDbSpline
62
7
6
CONTINUOUS
70
0
71
3
72
8
73
4
74
2
42
0.0000001000
43
0.0000001000
44
0.0000000001
40
0.0000000000
40
0.0000000000
40
0.0000000000
40
0.0000000000
40
1.0000000000
40
1.0000000000
40
1.0000000000
40
1.0000000000
10
237.6712307416
20
97.2536548573
30
0.0000000000
10
237.6712307410
20
97.3402585287
30
0.0000000000
10
237.6712998844
20
97.4268621913
30
0.0000000000
10
237.6714381719
20
97.5134657208
30
0.0000000000
11
237.6712307416
21
97.2536548573
31
0.0000000000
11
237.6714381719
21
97.5134657208
31
0.0000000000
0
SPLINE
5
50C
100
AcDbEntity
8
0
100
AcDbSpline
62
7
6
CONTINUOUS
70
0
71
3
72
9
73
5
74
3
42
0.0000001000
43
0.0000001000
44
0.0000000001
40
0.0000000000
40
0.0000000000
40
0.0000000000
40
0.0000000000
40
0.3791009686
40
1.0000000000
40
1.0000000000
40
1.0000000000
40
1.0000000000
10
237.6712307415
20
94.7531199027
30
0.0000000000
10
237.6712307421
20
94.6448642195
30
0.0000000000
10
237.6714131363
20
94.3593052174
30
0.0000000000
10
237.6720766523
20
94.0737468300
30
0.0000000000
10
237.6726741225
20
93.8964445774
30
0.0000000000
11
237.6712307415
21
94.7531199027
31
0.0000000000
11
237.6714381794
21
94.4283529192
31
0.0000000000
11
237.6726741225
21
93.8964445774
31
0.0000000000
0
SPLINE
5
50D
100
AcDbEntity
8
0
100
AcDbSpline
62
7
6
CONTINUOUS
70
0
71
3
72
9
73
5
74
3
42
0.0000001000
43
0.0000001000
44
0.0000000001
40
0.0000000000
40
0.0000000000
40
0.0000000000
40
0.0000000000
40
0.3791009686
40
1.0000000000
40
1.0000000000
40
1.0000000000
40
1.0000000000
10
237.6712307415
20
92.4014715758
30
0.0000000000
10
237.6712307421
20
92.5097272439
30
0.0000000000
10
237.6714131363
20
92.7952862060
30
0.0000000000
10
237.6720766523
20
93.0808445534
30
0.0000000000
10
237.6726741225
20
93.2581467811
30
0.0000000000
11
237.6712307415
21
92.4014715758
31
0.0000000000
11
237.6714381794
21
92.7262385138
31
0.0000000000
11
237.6726741225
21
93.2581467811
31
0.0000000000
0
SPLINE
5
50E
100
AcDbEntity
8
0
100
AcDbSpline
62
7
6
CONTINUOUS
70
0
71
3
72
9
73
5
74
3
42
0.0000001000
43
0.0000001000
44
0.0000000001
40
0.0000000000
40
0.0000000000
40
0.0000000000
40
0.0000000000
40
0.4998784648
40
1.0000000000
40
1.0000000000
40
1.0000000000
40
1.0000000000
10
238.1041658654
20
118.1747763093
30
0.0000000000
10
238.1120899834
20
118.2102764388
30
0.0000000000
10
238.1281528867
20
118.2812470668
30
0.0000000000
10
238.1446359819
20
118.3521212804
30
0.0000000000
10
238.1529842374
20
118.3875422414
30
0.0000000000
11
238.1041658654
21
118.1747763093
31
0.0000000000
11
238.1282539792
21
118.2812057240
31
0.0000000000
11
238.1529842374
21
118.3875422414
31
0.0000000000
0
SPLINE
5
50F
100
AcDbEntity
8
0
100
AcDbSpline
62
7
6
CONTINUOUS
70
0
71
3
72
9
73
5
74
3
42
0.0000001000
43
0.0000001000
44
0.0000000001
40
0.0000000000
40
0.0000000000
40
0.0000000000
40
0.0000000000
40
0.5002696299
40
1.0000000000
40
1.0000000000
40
1.0000000000
40
1.0000000000
10
238.1529842374
20
118.3875422414
30
0.0000000000
10
238.1655314780
20
118.5295076023
30
0.0000000000
10
238.1911077162
20
118.8132417390
30
0.0000000000
10
238.2176756634
20
119.0968847355
30
0.0000000000
10
238.2312005681
20
119.2386059697
30
0.0000000000
11
238.1529842374
21
118.3875422414
31
0.0000000000
11
238.1913697032
21
118.8133719358
31
0.0000000000
11
238.2312005681
21
119.2386059697
31
0.0000000000
0
SPLINE
5
510
100
AcDbEntity
8
0
100
AcDbSpline
62
7
6
CONTINUOUS
70
0
71
3
72
9
73
5
74
3
42
0.0000001000
43
0.0000001000
44
0.0000000001
40
0.0000000000
40
0.0000000000
40
0.0000000000
40
0.0000000000
40
0.5001254206
40
1.0000000000
40
1.0000000000
40
1.0000000000
40
1.0000000000
10
238.2312005681
20
119.2386059697
30
0.0000000000
10
238.2357139891
20
119.3450180011
30
0.0000000000
10
238.2447942166
20
119.5577863355
30
0.0000000000
10
238.2539858229
20
119.7705498875
30
0.0000000000
10
238.2586083313
20
119.8769037659
30
0.0000000000
11
238.2312005681
21
119.2386059697
31
0.0000000000
11
238.2448243529
21
119.5578385104
31
0.0000000000
11
238.2586083313
21
119.8769037659
31
0.0000000000
0
SPLINE
5
511
100
AcDbEntity
8
0
100
AcDbSpline
62
7
6
CONTINUOUS
70
0
71
3
72
9
73
5
74
3
42
0.0000001000
43
0.0000001000
44
0.0000000001
40
0.0000000000
40
0.0000000000
40
0.0000000000
40
0.0000000000
40
0.5001254206
40
1.0000000000
40
1.0000000000
40
1.0000000000
40
1.0000000000
10
238.2312005681
20
121.3662658866
30
0.0000000000
10
238.2357139891
20
121.2598538552
30
0.0000000000
10
238.2447942166
20
121.0470855207
30
0.0000000000
10
238.2539858229
20
120.8343219687
30
0.0000000000
10
238.2586083313
20
120.7279680903
30
0.0000000000
11
238.2312005681
21
121.3662658866
31
0.0000000000
11
238.2448243529
21
121.0470333459
31
0.0000000000
11
238.2586083313
21
120.7279680903
31
0.0000000000
0
SPLINE
5
512
100
AcDbEntity
8
0
100
AcDbSpline
62
7
6
CONTINUOUS
70
0
71
3
72
9
73
5
74
3
42
0.0000001000
43
0.0000001000
44
0.0000000001
40
0.0000000000
40
0.0000000000
40
0.0000000000
40
0.0000000000
40
0.5002696299
40
1.0000000000
40
1.0000000000
40
1.0000000000
40
1.0000000000
10
238.1529842374
20
122.2173296149
30
0.0000000000
10
238.1655314780
20
122.0753642539
30
0.0000000000
10
238.1911077162
20
121.7916301173
30
0.0000000000
10
238.2176756634
20
121.5079871208
30
0.0000000000
10
238.2312005681
20
121.3662658866
30
0.0000000000
11
238.1529842374
21
122.2173296149
31
0.0000000000
11
238.1913697032
21
121.7914999205
31
0.0000000000
11
238.2312005681
21
121.3662658866
31
0.0000000000
0
SPLINE
5
513
100
AcDbEntity
8
0
100
AcDbSpline
62
7
6
CONTINUOUS
70
0
71
3
72
9
73
5
74
3
42
0.0000001000
43
0.0000001000
44
0.0000000001
40
0.0000000000
40
0.0000000000
40
0.0000000000
40
0.0000000000
40
0.4973627585
40
1.0000000000
40
1.0000000000
40
1.0000000000
40
1.0000000000
10
238.9497194646
20
114.5577550168
30
0.0000000000
10
238.9775970305
20
114.5220178055
30
0.0000000000
10
239.0342476713
20
114.4506304762
30
0.0000000000
10
239.0920490482
20
114.3801719858
30
0.0000000000
10
239.1213794574
20
114.3449890847
30
0.0000000000
11
238.9497194646
21
114.5577550168
31
0.0000000000
11
239.0342335257
21
114.4512367741
31
0.0000000000
11
239.1213794574
21
114.3449890847
31
0.0000000000
0
SPLINE
5
514
100
AcDbEntity
8
0
100
AcDbSpline
62
7
6
CONTINUOUS
70
0
71
3
72
9
73
5
74
3
42
0.0000001000
43
0.0000001000
44
0.0000000001
40
0.0000000000
40
0.0000000000
40
0.0000000000
40
0.0000000000
40
0.6648826875
40
1.0000000000
40
1.0000000000
40
1.0000000000
40
1.0000000000
10
239.4668974856
20
114.5577550168
30
0.0000000000
10
239.4951670720
20
114.5220121235
30
0.0000000000
10
239.5381363955
20
114.4686093445
30
0.0000000000
10
239.5817525969
20
114.4157360024
30
0.0000000000
10
239.5964400847
20
114.3980763493
30
0.0000000000
11
239.4668974856
21
114.5577550168
31
0.0000000000
11
239.5525921552
21
114.4512330047
31
0.0000000000
11
239.5964400847
21
114.3980763493
31
0.0000000000
0
SPLINE
5
515
100
AcDbEntity
8
0
100
AcDbSpline
62
7
6
CONTINUOUS
70
0
71
3
72
9
73
5
74
3
42
0.0000001000
43
0.0000001000
44
0.0000000001
40
0.0000000000
40
0.0000000000
40
0.0000000000
40
0.0000000000
40
0.5001242857
40
1.0000000000
40
1.0000000000
40
1.0000000000
40
1.0000000000
10
238.8284144591
20
114.9832870300
30
0.0000000000
10
238.8481477986
20
114.9122093139
30
0.0000000000
10
238.8880949162
20
114.7702248615
30
0.0000000000
10
238.9290191147
20
114.6285189503
30
0.0000000000
10
238.9497194646
20
114.5577550168
30
0.0000000000
11
238.8284144591
21
114.9832870300
31
0.0000000000
11
238.8883492376
21
114.7702592381
31
0.0000000000
11
238.9497194646
21
114.5577550168
31
0.0000000000
0
SPLINE
5
516
100
AcDbEntity
8
0
100
AcDbSpline
62
7
6
CONTINUOUS
70
0
71
3
72
9
73
5
74
3
42
0.0000001000
43
0.0000001000
44
0.0000000001
40
0.0000000000
40
0.0000000000
40
0.0000000000
40
0.0000000000
40
0.5001276921
40
1.0000000000
40
1.0000000000
40
1.0000000000
40
1.0000000000
10
239.3439117354
20
114.9832870300
30
0.0000000000
10
239.3639188020
20
114.9122050292
30
0.0000000000
10
239.4044196148
20
114.7702167157
30
0.0000000000
10
239.4459106682
20
114.6285146064
30
0.0000000000
10
239.4668974856
20
114.5577550168
30
0.0000000000
11
239.3439117354
21
114.9832870300
31
0.0000000000
11
239.4046776447
21
114.7702520418
31
0.0000000000
11
239.4668974856
21
114.5577550168
31
0.0000000000
0
SPLINE
5
517
100
AcDbEntity
8
0
100
AcDbSpline
62
7
6
CONTINUOUS
70
0
71
3
72
9
73
5
74
3
42
0.0000001000
43
0.0000001000
44
0.0000000001
40
0.0000000000
40
0.0000000000
40
0.0000000000
40
0.0000000000
40
0.5002908289
40
1.0000000000
40
1.0000000000
40
1.0000000000
40
1.0000000000
10
238.7510529241
20
115.6215848263
30
0.0000000000
10
238.7637244670
20
115.5151123490
30
0.0000000000
10
238.7892820645
20
115.3023184036
30
0.0000000000
10
238.8152987870
20
115.0895801034
30
0.0000000000
10
238.8284144591
20
114.9832870300
30
0.0000000000
11
238.7510529241
21
115.6215848263
31
0.0000000000
11
238.7894118451
21
115.3022085579
31
0.0000000000
11
238.8284144591
21
114.9832870300
31
0.0000000000
0
SPLINE
5
518
100
AcDbEntity
8
0
100
AcDbSpline
62
7
6
CONTINUOUS
70
0
71
3
72
9
73
5
74
3
42
0.0000001000
43
0.0000001000
44
0.0000000001
40
0.0000000000
40
0.0000000000
40
0.0000000000
40
0.0000000000
40
0.5002987811
40
1.0000000000
40
1.0000000000
40
1.0000000000
40
1.0000000000
10
239.2654840479
20
115.6215848263
30
0.0000000000
10
239.2783301597
20
115.5151098574
30
0.0000000000
10
239.3042397056
20
115.3023151007
30
0.0000000000
10
239.3306152465
20
115.0895776001
30
0.0000000000
10
239.3439117354
20
114.9832870300
30
0.0000000000
11
239.2654840479
21
115.6215848263
31
0.0000000000
11
239.3043718262
21
115.3022022737
31
0.0000000000
11
239.3439117354
21
114.9832870300
31
0.0000000000
0
SPLINE
5
519
100
AcDbEntity
8
0
100
AcDbSpline
62
7
6
CONTINUOUS
70
0
71
3
72
9
73
5
74
3
42
0.0000001000
43
0.0000001000
44
0.0000000001
40
0.0000000000
40
0.0000000000
40
0.0000000000
40
0.0000000000
40
0.5001792635
40
1.0000000000
40
1.0000000000
40
1.0000000000
40
1.0000000000
10
238.7134184639
20
116.4726485546
30
0.0000000000
10
238.7196352724
20
116.3307511957
30
0.0000000000
10
238.7321222294
20
116.0470607186
30
0.0000000000
10
238.7447248996
20
115.7633753585
30
0.0000000000
10
238.7510529241
20
115.6215848263
30
0.0000000000
11
238.7134184639
21
116.4726485546
31
0.0000000000
11
238.7321556553
21
116.0469602880
31
0.0000000000
11
238.7510529241
21
115.6215848263
31
0.0000000000
0
SPLINE
5
51A
100
AcDbEntity
8
0
100
AcDbSpline
62
7
6
CONTINUOUS
70
0
71
3
72
9
73
5
74
3
42
0.0000001000
43
0.0000001000
44
0.0000000001
40
0.0000000000
40
0.0000000000
40
0.0000000000
40
0.0000000000
40
0.5001842126
40
1.0000000000
40
1.0000000000
40
1.0000000000
40
1.0000000000
10
239.2273325349
20
116.4726485546
30
0.0000000000
10
239.2336347343
20
116.3307497174
30
0.0000000000
10
239.2462931631
20
116.0470591655
30
0.0000000000
10
239.2590690627
20
115.7633738796
30
0.0000000000
10
239.2654840479
20
115.6215848263
30
0.0000000000
11
239.2273325349
21
116.4726485546
31
0.0000000000
11
239.2463272161
21
116.0469559642
31
0.0000000000
11
239.2654840479
21
115.6215848263
31
0.0000000000
0
SPLINE
5
51B
100
AcDbEntity
8
0
100
AcDbSpline
62
7
6
CONTINUOUS
70
0
71
3
72
9
73
5
74
3
42
0.0000001000
43
0.0000001000
44
0.0000000001
40
0.0000000000
40
0.0000000000
40
0.0000000000
40
0.0000000000
40
0.5001792635
40
1.0000000000
40
1.0000000000
40
1.0000000000
40
1.0000000000
10
238.7134184639
20
119.6641378339
30
0.0000000000
10
238.7196352724
20
119.8060351928
30
0.0000000000
10
238.7321222294
20
120.0897256698
30
0.0000000000
10
238.7447248996
20
120.3734110300
30
0.0000000000
10
238.7510529241
20
120.5152015622
30
0.0000000000
11
238.7134184639
21
119.6641378339
31
0.0000000000
11
238.7321556553
21
120.0898261004
31
0.0000000000
11
238.7510529241
21
120.5152015622
31
0.0000000000
0
SPLINE
5
51C
100
AcDbEntity
8
0
100
AcDbSpline
62
7
6
CONTINUOUS
70
0
71
3
72
9
73
5
74
3
42
0.0000001000
43
0.0000001000
44
0.0000000001
40
0.0000000000
40
0.0000000000
40
0.0000000000
40
0.0000000000
40
0.5001842126
40
1.0000000000
40
1.0000000000
40
1.0000000000
40
1.0000000000
10
239.2273325349
20
119.6641378339
30
0.0000000000
10
239.2336347343
20
119.8060366710
30
0.0000000000
10
239.2462931631
20
120.0897272229
30
0.0000000000
10
239.2590690627
20
120.3734125088
30
0.0000000000
10
239.2654840479
20
120.5152015622
30
0.0000000000
11
239.2273325349
21
119.6641378339
31
0.0000000000
11
239.2463272161
21
120.0898304242
31
0.0000000000
11
239.2654840479
21
120.5152015622
31
0.0000000000
0
SPLINE
5
51D
100
AcDbEntity
8
0
100
AcDbSpline
62
7
6
CONTINUOUS
70
0
71
3
72
9
73
5
74
3
42
0.0000001000
43
0.0000001000
44
0.0000000001
40
0.0000000000
40
0.0000000000
40
0.0000000000
40
0.0000000000
40
0.5002908291
40
1.0000000000
40
1.0000000000
40
1.0000000000
40
1.0000000000
10
238.7510529241
20
120.5152015622
30
0.0000000000
10
238.7637244670
20
120.6216741388
30
0.0000000000
10
238.7892820645
20
120.8344682829
30
0.0000000000
10
238.8152987870
20
121.0472067818
30
0.0000000000
10
238.8284144591
20
121.1534999545
30
0.0000000000
11
238.7510529241
21
120.5152015622
31
0.0000000000
11
238.7894118451
21
120.8345781288
31
0.0000000000
11
238.8284144591
21
121.1534999545
31
0.0000000000
0
SPLINE
5
51E
100
AcDbEntity
8
0
100
AcDbSpline
62
7
6
CONTINUOUS
70
0
71
3
72
9
73
5
74
3
42
0.0000001000
43
0.0000001000
44
0.0000000001
40
0.0000000000
40
0.0000000000
40
0.0000000000
40
0.0000000000
40
0.5002987812
40
1.0000000000
40
1.0000000000
40
1.0000000000
40
1.0000000000
10
239.2654840479
20
120.5152015622
30
0.0000000000
10
239.2783301597
20
120.6216766304
30
0.0000000000
10
239.3042397056
20
120.8344715858
30
0.0000000000
10
239.3306152465
20
121.0472092851
30
0.0000000000
10
239.3439117354
20
121.1534999545
30
0.0000000000
11
239.2654840479
21
120.5152015622
31
0.0000000000
11
239.3043718262
21
120.8345844130
31
0.0000000000
11
239.3439117354
21
121.1534999545
31
0.0000000000
0
SPLINE
5
51F
100
AcDbEntity
8
0
100
AcDbSpline
62
7
6
CONTINUOUS
70
0
71
3
72
9
73
5
74
3
42
0.0000001000
43
0.0000001000
44
0.0000000001
40
0.0000000000
40
0.0000000000
40
0.0000000000
40
0.0000000000
40
0.5001242852
40
1.0000000000
40
1.0000000000
40
1.0000000000
40
1.0000000000
10
238.8284144591
20
121.1534999545
30
0.0000000000
10
238.8481477986
20
121.2245776458
30
0.0000000000
10
238.8880949162
20
121.3665620485
30
0.0000000000
10
238.9290191147
20
121.5082679100
30
0.0000000000
10
238.9497194646
20
121.5790318186
30
0.0000000000
11
238.8284144591
21
121.1534999545
31
0.0000000000
11
238.8883492376
21
121.3665276717
31
0.0000000000
11
238.9497194646
21
121.5790318186
31
0.0000000000
0
SPLINE
5
520
100
AcDbEntity
8
0
100
AcDbSpline
62
7
6
CONTINUOUS
70
0
71
3
72
9
73
5
74
3
42
0.0000001000
43
0.0000001000
44
0.0000000001
40
0.0000000000
40
0.0000000000
40
0.0000000000
40
0.0000000000
40
0.5001276916
40
1.0000000000
40
1.0000000000
40
1.0000000000
40
1.0000000000
10
239.3439117354
20
121.1534999545
30
0.0000000000
10
239.3639188020
20
121.2245819304
30
0.0000000000
10
239.4044196149
20
121.3665701943
30
0.0000000000
10
239.4459106682
20
121.5082722539
30
0.0000000000
10
239.4668974856
20
121.5790318186
30
0.0000000000
11
239.3439117354
21
121.1534999545
31
0.0000000000
11
239.4046776447
21
121.3665348681
31
0.0000000000
11
239.4668974856
21
121.5790318186
31
0.0000000000
0
SPLINE
5
521
100
AcDbEntity
8
0
100
AcDbSpline
62
7
6
CONTINUOUS
70
0
71
3
72
9
73
5
74
3
42
0.0000001000
43
0.0000001000
44
0.0000000001
40
0.0000000000
40
0.0000000000
40
0.0000000000
40
0.0000000000
40
0.4973627585
40
1.0000000000
40
1.0000000000
40
1.0000000000
40
1.0000000000
10
238.9497194646
20
121.5790318186
30
0.0000000000
10
238.9775970305
20
121.6147690300
30
0.0000000000
10
239.0342476713
20
121.6861563593
30
0.0000000000
10
239.0920490482
20
121.7566148497
30
0.0000000000
10
239.1213794574
20
121.7917977507
30
0.0000000000
11
238.9497194646
21
121.5790318186
31
0.0000000000
11
239.0342335257
21
121.6855500614
31
0.0000000000
11
239.1213794574
21
121.7917977507
31
0.0000000000
0
SPLINE
5
522
100
AcDbEntity
8
0
100
AcDbSpline
62
7
6
CONTINUOUS
70
0
71
3
72
9
73
5
74
3
42
0.0000001000
43
0.0000001000
44
0.0000000001
40
0.0000000000
40
0.0000000000
40
0.0000000000
40
0.0000000000
40
0.6648826875
40
1.0000000000
40
1.0000000000
40
1.0000000000
40
1.0000000000
10
239.4668974856
20
121.5790318186
30
0.0000000000
10
239.4951670720
20
121.6147747120
30
0.0000000000
10
239.5381363955
20
121.6681774910
30
0.0000000000
10
239.5817525969
20
121.7210508331
30
0.0000000000
10
239.5964400847
20
121.7387104862
30
0.0000000000
11
239.4668974856
21
121.5790318186
31
0.0000000000
11
239.5525921552
21
121.6855538308
31
0.0000000000
11
239.5964400847
21
121.7387104862
31
0.0000000000
0
SPLINE
5
523
100
AcDbEntity
8
0
100
AcDbSpline
62
7
6
CONTINUOUS
70
0
71
3
72
8
73
4
74
2
42
0.0000001000
43
0.0000001000
44
0.0000000001
40
0.0000000000
40
0.0000000000
40
0.0000000000
40
0.0000000000
40
1.0000000000
40
1.0000000000
40
1.0000000000
40
1.0000000000
10
238.6593205850
20
122.2173296149
30
0.0000000000
10
238.6654367456
20
122.1490381807
30
0.0000000000
10
238.6716110318
20
122.0807519262
30
0.0000000000
10
238.6778434922
20
122.0124709681
30
0.0000000000
11
238.6593205850
21
122.2173296149
31
0.0000000000
11
238.6778434922
21
122.0124709681
31
0.0000000000
0
SPLINE
5
524
100
AcDbEntity
8
0
100
AcDbSpline
62
7
6
CONTINUOUS
70
0
71
3
72
9
73
5
74
3
42
0.0000001000
43
0.0000001000
44
0.0000000001
40
0.0000000000
40
0.0000000000
40
0.0000000000
40
0.0000000000
40
0.5000816667
40
1.0000000000
40
1.0000000000
40
1.0000000000
40
1.0000000000
10
238.0579964005
20
122.8556274111
30
0.0000000000
10
238.0729659476
20
122.7491011313
30
0.0000000000
10
238.1037652199
20
122.5362040318
30
0.0000000000
10
238.1362921974
20
122.3235640424
30
0.0000000000
10
238.1529842374
20
122.2173296149
30
0.0000000000
11
238.0579964005
21
122.8556274111
31
0.0000000000
11
238.1042023178
21
122.5362335571
31
0.0000000000
11
238.1529842374
21
122.2173296149
31
0.0000000000
0
SPLINE
5
525
100
AcDbEntity
8
0
100
AcDbSpline
62
7
6
CONTINUOUS
70
0
71
3
72
9
73
5
74
3
42
0.0000001000
43
0.0000001000
44
0.0000000001
40
0.0000000000
40
0.0000000000
40
0.0000000000
40
0.0000000000
40
0.6667246489
40
1.0000000000
40
1.0000000000
40
1.0000000000
40
1.0000000000
10
238.5630706406
20
122.8556274111
30
0.0000000000
10
238.5782391344
20
122.7490973053
30
0.0000000000
10
238.6016474025
20
122.5894089732
30
0.0000000000
10
238.6260405873
20
122.4298691600
30
0.0000000000
10
238.6342795565
20
122.3767154756
30
0.0000000000
11
238.5630706406
21
122.8556274111
31
0.0000000000
11
238.6098906900
21
122.5362270309
31
0.0000000000
11
238.6342795565
21
122.3767154756
31
0.0000000000
0
SPLINE
5
526
100
AcDbEntity
8
0
100
AcDbSpline
62
7
6
CONTINUOUS
70
0
71
3
72
8
73
4
74
2
42
0.0000001000
43
0.0000001000
44
0.0000000001
40
0.0000000000
40
0.0000000000
40
0.0000000000
40
0.0000000000
40
1.0000000000
40
1.0000000000
40
1.0000000000
40
1.0000000000
10
238.6342795565
20
122.3767154756
30
0.0000000000
10
238.6425173015
20
122.3235696888
30
0.0000000000
10
238.6508643360
20
122.2704408999
30
0.0000000000
10
238.6593205850
20
122.2173296149
30
0.0000000000
11
238.6342795565
21
122.3767154756
31
0.0000000000
11
238.6593205850
21
122.2173296149
31
0.0000000000
0
SPLINE
5
527
100
AcDbEntity
8
0
100
AcDbSpline
62
7
6
CONTINUOUS
70
0
71
3
72
9
73
5
74
3
42
0.0000001000
43
0.0000001000
44
0.0000000001
40
0.0000000000
40
0.0000000000
40
0.0000000000
40
0.0000000000
40
0.4965579893
40
1.0000000000
40
1.0000000000
40
1.0000000000
40
1.0000000000
10
237.9541011852
20
123.0683933432
30
0.0000000000
10
237.9701785271
20
123.0326463743
30
0.0000000000
10
238.0037187239
20
122.9611746476
30
0.0000000000
10
238.0394700506
20
122.8907841177
30
0.0000000000
10
238.0579964005
20
122.8556274111
30
0.0000000000
11
237.9541011852
21
123.0683933432
31
0.0000000000
11
238.0040330304
21
122.9619332510
31
0.0000000000
11
238.0579964005
21
122.8556274111
31
0.0000000000
0
SPLINE
5
528
100
AcDbEntity
8
0
100
AcDbSpline
62
7
6
CONTINUOUS
70
0
71
3
72
9
73
5
74
3
42
0.0000001000
43
0.0000001000
44
0.0000000001
40
0.0000000000
40
0.0000000000
40
0.0000000000
40
0.0000000000
40
0.4964845303
40
1.0000000000
40
1.0000000000
40
1.0000000000
40
1.0000000000
10
238.4578021976
20
123.0683933432
30
0.0000000000
10
238.4740944221
20
123.0326398718
30
0.0000000000
10
238.5080833922
20
122.9611562727
30
0.0000000000
10
238.5443022801
20
122.8907775026
30
0.0000000000
10
238.5630706406
20
122.8556274111
30
0.0000000000
11
238.4578021976
21
123.0683933432
31
0.0000000000
11
238.5083940856
21
122.9619312065
31
0.0000000000
11
238.5630706406
21
122.8556274111
31
0.0000000000
0
SPLINE
5
529
100
AcDbEntity
8
0
100
AcDbSpline
62
7
6
CONTINUOUS
70
0
71
3
72
9
73
5
74
3
42
0.0000001000
43
0.0000001000
44
0.0000000001
40
0.0000000000
40
0.0000000000
40
0.0000000000
40
0.0000000000
40
0.5003077860
40
1.0000000000
40
1.0000000000
40
1.0000000000
40
1.0000000000
10
240.2756370736
20
121.5790318186
30
0.0000000000
10
240.2857847323
20
121.4016138646
30
0.0000000000
10
240.3061330568
20
121.0469999922
30
0.0000000000
10
240.3266126049
20
120.6923936739
30
0.0000000000
10
240.3368789214
20
120.5152015622
30
0.0000000000
11
240.2756370736
21
121.5790318186
31
0.0000000000
11
240.3061784290
21
121.0467835927
31
0.0000000000
11
240.3368789214
21
120.5152015622
31
0.0000000000
0
SPLINE
5
52A
100
AcDbEntity
8
0
100
AcDbSpline
62
7
6
CONTINUOUS
70
0
71
3
72
9
73
5
74
3
42
0.0000001000
43
0.0000001000
44
0.0000000001
40
0.0000000000
40
0.0000000000
40
0.0000000000
40
0.0000000000
40
0.5003170451
40
1.0000000000
40
1.0000000000
40
1.0000000000
40
1.0000000000
10
240.8119329453
20
121.5790318186
30
0.0000000000
10
240.8222325659
20
121.4016104527
30
0.0000000000
10
240.8428854793
20
121.0469964509
30
0.0000000000
10
240.8636720938
20
120.6923902612
30
0.0000000000
10
240.8740922778
20
120.5152015622
30
0.0000000000
11
240.8119329453
21
121.5790318186
31
0.0000000000
11
240.8429320428
21
121.0467735492
31
0.0000000000
11
240.8740922778
21
120.5152015622
31
0.0000000000
0
SPLINE
5
52B
100
AcDbEntity
8
0
100
AcDbSpline
62
7
6
CONTINUOUS
70
0
71
3
72
9
73
5
74
3
42
0.0000001000
43
0.0000001000
44
0.0000000001
40
0.0000000000
40
0.0000000000
40
0.0000000000
40
0.0000000000
40
0.5005845604
40
1.0000000000
40
1.0000000000
40
1.0000000000
40
1.0000000000
10
240.0385126225
20
122.4300955470
30
0.0000000000
10
240.0771136949
20
122.2878192951
30
0.0000000000
10
240.1551903282
20
122.0038599095
30
0.0000000000
10
240.2351976847
20
121.7204384510
30
0.0000000000
10
240.2756370736
20
121.5790318186
30
0.0000000000
11
240.0385126225
21
122.4300955470
31
0.0000000000
11
240.1557654193
21
122.0036627231
31
0.0000000000
11
240.2756370736
21
121.5790318186
31
0.0000000000
0
SPLINE
5
52C
100
AcDbEntity
8
0
100
AcDbSpline
62
7
6
CONTINUOUS
70
0
71
3
72
9
73
5
74
3
42
0.0000001000
43
0.0000001000
44
0.0000000001
40
0.0000000000
40
0.0000000000
40
0.0000000000
40
0.0000000000
40
0.5006008993
40
1.0000000000
40
1.0000000000
40
1.0000000000
40
1.0000000000
10
240.5712856337
20
122.4300955470
30
0.0000000000
10
240.6104599780
20
122.2878062682
30
0.0000000000
10
240.6896950806
20
122.0038383228
30
0.0000000000
10
240.7708925928
20
121.7204252553
30
0.0000000000
10
240.8119329453
20
121.5790318186
30
0.0000000000
11
240.5712856337
21
122.4300955470
31
0.0000000000
11
240.6902820875
21
122.0036361037
31
0.0000000000
11
240.8119329453
21
121.5790318186
31
0.0000000000
0
SPLINE
5
52D
100
AcDbEntity
8
0
100
AcDbSpline
62
7
6
CONTINUOUS
70
0
71
3
72
9
73
5
74
3
42
0.0000001000
43
0.0000001000
44
0.0000000001
40
0.0000000000
40
0.0000000000
40
0.0000000000
40
0.0000000000
40
0.4995485803
40
1.0000000000
40
1.0000000000
40
1.0000000000
40
1.0000000000
10
239.8137536911
20
122.8556274111
30
0.0000000000
10
239.8503781901
20
122.7843504616
30
0.0000000000
10
239.9245030345
20
122.6420823482
30
0.0000000000
10
240.0002242007
20
122.5006574873
30
0.0000000000
10
240.0385126225
20
122.4300955470
30
0.0000000000
11
239.8137536911
21
122.8556274111
31
0.0000000000
11
239.9248344718
21
122.6424212261
31
0.0000000000
11
240.0385126225
21
122.4300955470
31
0.0000000000
0
SPLINE
5
52E
100
AcDbEntity
8
0
100
AcDbSpline
62
7
6
CONTINUOUS
70
0
71
3
72
9
73
5
74
3
42
0.0000001000
43
0.0000001000
44
0.0000000001
40
0.0000000000
40
0.0000000000
40
0.0000000000
40
0.0000000000
40
0.4995392565
40
1.0000000000
40
1.0000000000
40
1.0000000000
40
1.0000000000
10
240.3432303214
20
122.8556274111
30
0.0000000000
10
240.3803937001
20
122.7843407142
30
0.0000000000
10
240.4556082756
20
122.6420614562
30
0.0000000000
10
240.5324375469
20
122.5006476691
30
0.0000000000
10
240.5712856337
20
122.4300955470
30
0.0000000000
11
240.3432303214
21
122.8556274111
31
0.0000000000
11
240.4559418967
21
122.6424085338
31
0.0000000000
11
240.5712856337
21
122.4300955470
31
0.0000000000
0
SPLINE
5
52F
100
AcDbEntity
8
0
100
AcDbSpline
62
7
6
CONTINUOUS
70
0
71
3
72
9
73
5
74
3
42
0.0000001000
43
0.0000001000
44
0.0000000001
40
0.0000000000
40
0.0000000000
40
0.0000000000
40
0.0000000000
40
0.4955705776
40
1.0000000000
40
1.0000000000
40
1.0000000000
40
1.0000000000
10
239.5498525996
20
123.0683933432
30
0.0000000000
10
239.5928196833
20
123.0324796595
30
0.0000000000
10
239.6801818072
20
122.9607965881
30
0.0000000000
10
239.7687749332
20
122.8906416036
30
0.0000000000
10
239.8137536911
20
122.8556274111
30
0.0000000000
11
239.5498525996
21
123.0683933432
31
0.0000000000
11
239.6797102018
21
122.9618069005
31
0.0000000000
11
239.8137536911
21
122.8556274111
31
0.0000000000
0
SPLINE
5
530
100
AcDbEntity
8
0
100
AcDbSpline
62
7
6
CONTINUOUS
70
0
71
3
72
9
73
5
74
3
42
0.0000001000
43
0.0000001000
44
0.0000000001
40
0.0000000000
40
0.0000000000
40
0.0000000000
40
0.0000000000
40
0.4955214888
40
1.0000000000
40
1.0000000000
40
1.0000000000
40
1.0000000000
10
240.0755108394
20
123.0683933432
30
0.0000000000
10
240.1191043012
20
123.0324720770
30
0.0000000000
10
240.2077395086
20
122.9607783170
30
0.0000000000
10
240.2976054110
20
122.8906343851
30
0.0000000000
10
240.3432303214
20
122.8556274111
30
0.0000000000
11
240.0755108394
21
123.0683933432
31
0.0000000000
11
240.2072477878
21
122.9618010268
31
0.0000000000
11
240.3432303214
21
122.8556274111
31
0.0000000000
0
SPLINE
5
531
100
AcDbEntity
8
0
100
AcDbSpline
62
7
6
CONTINUOUS
70
0
71
3
72
8
73
4
74
2
42
0.0000001000
43
0.0000001000
44
0.0000000001
40
0.0000000000
40
0.0000000000
40
0.0000000000
40
0.0000000000
40
1.0000000000
40
1.0000000000
40
1.0000000000
40
1.0000000000
10
237.6712307415
20
98.4765272999
30
0.0000000000
10
237.6712307410
20
98.3682726654
30
0.0000000000
10
237.6712998843
20
98.2600180381
30
0.0000000000
10
237.6714381719
20
98.1517635171
30
0.0000000000
11
237.6712307415
21
98.4765272999
31
0.0000000000
11
237.6714381719
21
98.1517635171
31
0.0000000000
0
SPLINE
5
532
100
AcDbEntity
8
0
100
AcDbSpline
62
7
6
CONTINUOUS
70
0
71
3
72
9
73
5
74
3
42
0.0000001000
43
0.0000001000
44
0.0000000001
40
0.0000000000
40
0.0000000000
40
0.0000000000
40
0.0000000000
40
0.4965579898
40
1.0000000000
40
1.0000000000
40
1.0000000000
40
1.0000000000
10
237.9541011852
20
113.0683933432
30
0.0000000000
10
237.9701785271
20
113.1041403153
30
0.0000000000
10
238.0037187238
20
113.1756120482
30
0.0000000000
10
238.0394700506
20
113.2460025843
30
0.0000000000
10
238.0579964005
20
113.2811592939
30
0.0000000000
11
237.9541011852
21
113.0683933432
31
0.0000000000
11
238.0040330304
21
113.1748534448
31
0.0000000000
11
238.0579964005
21
113.2811592939
31
0.0000000000
0
SPLINE
5
533
100
AcDbEntity
8
0
100
AcDbSpline
62
7
6
CONTINUOUS
70
0
71
3
72
9
73
5
74
3
42
0.0000001000
43
0.0000001000
44
0.0000000001
40
0.0000000000
40
0.0000000000
40
0.0000000000
40
0.0000000000
40
0.4964845309
40
1.0000000000
40
1.0000000000
40
1.0000000000
40
1.0000000000
10
238.4578021976
20
113.0683933432
30
0.0000000000
10
238.4740944221
20
113.1041468178
30
0.0000000000
10
238.5080833922
20
113.1756304230
30
0.0000000000
10
238.5443022801
20
113.2460091994
30
0.0000000000
10
238.5630706406
20
113.2811592939
30
0.0000000000
11
238.4578021976
21
113.0683933432
31
0.0000000000
11
238.5083940856
21
113.1748554893
31
0.0000000000
11
238.5630706406
21
113.2811592939
31
0.0000000000
0
SPLINE
5
534
100
AcDbEntity
8
0
100
AcDbSpline
62
7
6
CONTINUOUS
70
0
71
3
72
9
73
5
74
3
42
0.0000001000
43
0.0000001000
44
0.0000000001
40
0.0000000000
40
0.0000000000
40
0.0000000000
40
0.0000000000
40
0.5003124841
40
1.0000000000
40
1.0000000000
40
1.0000000000
40
1.0000000000
10
240.8119329453
20
114.5577550168
30
0.0000000000
10
240.8222325986
20
114.6996925049
30
0.0000000000
10
240.8428856402
20
114.9833853500
30
0.0000000000
10
240.8636721276
20
115.2670684487
30
0.0000000000
10
240.8740922778
20
115.4088188942
30
0.0000000000
11
240.8119329453
21
114.5577550168
31
0.0000000000
11
240.8429319509
21
114.9835602093
31
0.0000000000
11
240.8740922778
21
115.4088188942
31
0.0000000000
0
SPLINE
5
535
100
AcDbEntity
8
0
100
AcDbSpline
62
7
6
CONTINUOUS
70
0
71
3
72
9
73
5
74
3
42
0.0000001000
43
0.0000001000
44
0.0000000001
40
0.0000000000
40
0.0000000000
40
0.0000000000
40
0.0000000000
40
0.5003033752
40
1.0000000000
40
1.0000000000
40
1.0000000000
40
1.0000000000
10
240.2756370736
20
114.5577550168
30
0.0000000000
10
240.2857847634
20
114.6996897606
30
0.0000000000
10
240.3061332101
20
114.9833824446
30
0.0000000000
10
240.3266126371
20
115.2670657034
30
0.0000000000
10
240.3368789214
20
115.4088188942
30
0.0000000000
11
240.2756370736
21
114.5577550168
31
0.0000000000
11
240.3061783414
21
114.9835522161
31
0.0000000000
11
240.3368789214
21
115.4088188942
31
0.0000000000
0
SPLINE
5
536
100
AcDbEntity
8
0
100
AcDbSpline
62
7
6
CONTINUOUS
70
0
71
3
72
9
73
5
74
3
42
0.0000001000
43
0.0000001000
44
0.0000000001
40
0.0000000000
40
0.0000000000
40
0.0000000000
40
0.0000000000
40
0.5000816667
40
1.0000000000
40
1.0000000000
40
1.0000000000
40
1.0000000000
10
238.0579964005
20
113.2811592939
30
0.0000000000
10
238.0729659476
20
113.3876855831
30
0.0000000000
10
238.1037652199
20
113.6005827012
30
0.0000000000
10
238.1362921974
20
113.8132227093
30
0.0000000000
10
238.1529842374
20
113.9194571461
30
0.0000000000
11
238.0579964005
21
113.2811592939
31
0.0000000000
11
238.1042023178
21
113.6005531759
31
0.0000000000
11
238.1529842374
21
113.9194571461
31
0.0000000000
0
SPLINE
5
537
100
AcDbEntity
8
0
100
AcDbSpline
62
7
6
CONTINUOUS
70
0
71
3
72
9
73
5
74
3
42
0.0000001000
43
0.0000001000
44
0.0000000001
40
0.0000000000
40
0.0000000000
40
0.0000000000
40
0.0000000000
40
0.5006008994
40
1.0000000000
40
1.0000000000
40
1.0000000000
40
1.0000000000
10
240.5712856337
20
113.7066912140
30
0.0000000000
10
240.6104599780
20
113.8489805052
30
0.0000000000
10
240.6896950806
20
114.1329484754
30
0.0000000000
10
240.7708925928
20
114.4163615678
30
0.0000000000
10
240.8119329453
20
114.5577550168
30
0.0000000000
11
240.5712856337
21
113.7066912140
31
0.0000000000
11
240.6902820876
21
114.1331506947
31
0.0000000000
11
240.8119329453
21
114.5577550168
31
0.0000000000
0
SPLINE
5
538
100
AcDbEntity
8
0
100
AcDbSpline
62
7
6
CONTINUOUS
70
0
71
3
72
9
73
5
74
3
42
0.0000001000
43
0.0000001000
44
0.0000000001
40
0.0000000000
40
0.0000000000
40
0.0000000000
40
0.0000000000
40
0.6667246490
40
1.0000000000
40
1.0000000000
40
1.0000000000
40
1.0000000000
10
238.5630706406
20
113.2811592939
30
0.0000000000
10
238.5782391344
20
113.3876894091
30
0.0000000000
10
238.6016474025
20
113.5473777552
30
0.0000000000
10
238.6260405873
20
113.7069175824
30
0.0000000000
10
238.6342795565
20
113.7600712715
30
0.0000000000
11
238.5630706406
21
113.2811592939
31
0.0000000000
11
238.6098906900
21
113.6005597022
31
0.0000000000
11
238.6342795565
21
113.7600712715
31
0.0000000000
0
SPLINE
5
539
100
AcDbEntity
8
0
100
AcDbSpline
62
7
6
CONTINUOUS
70
0
71
3
72
8
73
4
74
2
42
0.0000001000
43
0.0000001000
44
0.0000000001
40
0.0000000000
40
0.0000000000
40
0.0000000000
40
0.0000000000
40
1.0000000000
40
1.0000000000
40
1.0000000000
40
1.0000000000
10
238.6342795565
20
113.7600712715
30
0.0000000000
10
238.6425173015
20
113.8132170628
30
0.0000000000
10
238.6508643360
20
113.8663458564
30
0.0000000000
10
238.6593205850
20
113.9194571461
30
0.0000000000
11
238.6342795565
21
113.7600712715
31
0.0000000000
11
238.6593205850
21
113.9194571461
31
0.0000000000
0
SPLINE
5
53A
100
AcDbEntity
8
0
100
AcDbSpline
62
7
6
CONTINUOUS
70
0
71
3
72
9
73
5
74
3
42
0.0000001000
43
0.0000001000
44
0.0000000001
40
0.0000000000
40
0.0000000000
40
0.0000000000
40
0.0000000000
40
0.5005845605
40
1.0000000000
40
1.0000000000
40
1.0000000000
40
1.0000000000
10
240.0385126225
20
113.7066912140
30
0.0000000000
10
240.0771136949
20
113.8489674783
30
0.0000000000
10
240.1551903281
20
114.1329268888
30
0.0000000000
10
240.2351976847
20
114.4163483721
30
0.0000000000
10
240.2756370736
20
114.5577550168
30
0.0000000000
11
240.0385126225
21
113.7066912140
31
0.0000000000
11
240.1557654193
21
114.1331240753
31
0.0000000000
11
240.2756370736
21
114.5577550168
31
0.0000000000
0
SPLINE
5
53B
100
AcDbEntity
8
0
100
AcDbSpline
62
7
6
CONTINUOUS
70
0
71
3
72
9
73
5
74
3
42
0.0000001000
43
0.0000001000
44
0.0000000001
40
0.0000000000
40
0.0000000000
40
0.0000000000
40
0.0000000000
40
0.4995392569
40
1.0000000000
40
1.0000000000
40
1.0000000000
40
1.0000000000
10
240.3432303214
20
113.2811592939
30
0.0000000000
10
240.3803937000
20
113.3524460002
30
0.0000000000
10
240.4556082755
20
113.4947252768
30
0.0000000000
10
240.5324375469
20
113.6361390825
30
0.0000000000
10
240.5712856337
20
113.7066912140
30
0.0000000000
11
240.3432303214
21
113.2811592939
31
0.0000000000
11
240.4559418967
21
113.4943781993
31
0.0000000000
11
240.5712856337
21
113.7066912140
31
0.0000000000
0
SPLINE
5
53C
100
AcDbEntity
8
0
100
AcDbSpline
62
7
6
CONTINUOUS
70
0
71
3
72
9
73
5
74
3
42
0.0000001000
43
0.0000001000
44
0.0000000001
40
0.0000000000
40
0.0000000000
40
0.0000000000
40
0.0000000000
40
0.4995485807
40
1.0000000000
40
1.0000000000
40
1.0000000000
40
1.0000000000
10
239.8137536911
20
113.2811592939
30
0.0000000000
10
239.8503781901
20
113.3524362528
30
0.0000000000
10
239.9245030344
20
113.4947043848
30
0.0000000000
10
240.0002242007
20
113.6361292644
30
0.0000000000
10
240.0385126225
20
113.7066912140
30
0.0000000000
11
239.8137536911
21
113.2811592939
31
0.0000000000
11
239.9248344719
21
113.4943655070
31
0.0000000000
11
240.0385126225
21
113.7066912140
31
0.0000000000
0
SPLINE
5
53D
100
AcDbEntity
8
0
100
AcDbSpline
62
7
6
CONTINUOUS
70
0
71
3
72
9
73
5
74
3
42
0.0000001000
43
0.0000001000
44
0.0000000001
40
0.0000000000
40
0.0000000000
40
0.0000000000
40
0.0000000000
40
0.5002696299
40
1.0000000000
40
1.0000000000
40
1.0000000000
40
1.0000000000
10
238.1529842374
20
113.9194571461
30
0.0000000000
10
238.1655314780
20
114.0614225195
30
0.0000000000
10
238.1911077162
20
114.3451566810
30
0.0000000000
10
238.2176756634
20
114.6287997023
30
0.0000000000
10
238.2312005681
20
114.7705209489
30
0.0000000000
11
238.1529842374
21
113.9194571461
31
0.0000000000
11
238.1913697032
21
114.3452868778
31
0.0000000000
11
238.2312005681
21
114.7705209489
31
0.0000000000
0
SPLINE
5
53E
100
AcDbEntity
8
0
100
AcDbSpline
62
7
6
CONTINUOUS
70
0
71
3
72
8
73
4
74
2
42
0.0000001000
43
0.0000001000
44
0.0000000001
40
0.0000000000
40
0.0000000000
40
0.0000000000
40
0.0000000000
40
1.0000000000
40
1.0000000000
40
1.0000000000
40
1.0000000000
10
238.6593205850
20
113.9194571461
30
0.0000000000
10
238.6654367460
20
113.9877485903
30
0.0000000000
10
238.6716110325
20
114.0560348549
30
0.0000000000
10
238.6778434934
20
114.1243158230
30
0.0000000000
11
238.6593205850
21
113.9194571461
31
0.0000000000
11
238.6778434934
21
114.1243158230
31
0.0000000000
0
SPLINE
5
53F
100
AcDbEntity
8
0
100
AcDbSpline
62
7
6
CONTINUOUS
70
0
71
3
72
9
73
5
74
3
42
0.0000001000
43
0.0000001000
44
0.0000000001
40
0.0000000000
40
0.0000000000
40
0.0000000000
40
0.0000000000
40
0.4955214892
40
1.0000000000
40
1.0000000000
40
1.0000000000
40
1.0000000000
10
240.0755108394
20
113.0683933432
30
0.0000000000
10
240.1191043011
20
113.1043146126
30
0.0000000000
10
240.2077395085
20
113.1760083788
30
0.0000000000
10
240.2976054110
20
113.2461523168
30
0.0000000000
10
240.3432303214
20
113.2811592939
30
0.0000000000
11
240.0755108394
21
113.0683933432
31
0.0000000000
11
240.2072477878
21
113.1749856690
31
0.0000000000
11
240.3432303214
21
113.2811592939
31
0.0000000000
0
SPLINE
5
540
100
AcDbEntity
8
0
100
AcDbSpline
62
7
6
CONTINUOUS
70
0
71
3
72
9
73
5
74
3
42
0.0000001000
43
0.0000001000
44
0.0000000001
40
0.0000000000
40
0.0000000000
40
0.0000000000
40
0.0000000000
40
0.4955705779
40
1.0000000000
40
1.0000000000
40
1.0000000000
40
1.0000000000
10
239.5498525996
20
113.0683933432
30
0.0000000000
10
239.5928196833
20
113.1043070301
30
0.0000000000
10
239.6801818071
20
113.1759901077
30
0.0000000000
10
239.7687749332
20
113.2461450984
30
0.0000000000
10
239.8137536911
20
113.2811592939
30
0.0000000000
11
239.5498525996
21
113.0683933432
31
0.0000000000
11
239.6797102018
21
113.1749797953
31
0.0000000000
11
239.8137536911
21
113.2811592939
31
0.0000000000
0
SPLINE
5
541
100
AcDbEntity
8
0
100
AcDbSpline
62
7
6
CONTINUOUS
70
0
71
3
72
9
73
5
74
3
42
0.0000001000
43
0.0000001000
44
0.0000000001
40
0.0000000000
40
0.0000000000
40
0.0000000000
40
0.0000000000
40
0.5001254206
40
1.0000000000
40
1.0000000000
40
1.0000000000
40
1.0000000000
10
238.2312005681
20
114.7705209489
30
0.0000000000
10
238.2357139891
20
114.8769330051
30
0.0000000000
10
238.2447942166
20
115.0897013893
30
0.0000000000
10
238.2539858229
20
115.3024649909
30
0.0000000000
10
238.2586083313
20
115.4088188942
30
0.0000000000
11
238.2312005681
21
114.7705209489
31
0.0000000000
11
238.2448243529
21
115.0897535641
31
0.0000000000
11
238.2586083313
21
115.4088188942
31
0.0000000000
0
SPLINE
5
542
100
AcDbEntity
8
0
100
AcDbSpline
62
7
6
CONTINUOUS
70
0
71
3
72
12
73
8
74
6
42
0.0000001000
43
0.0000001000
44
0.0000000001
40
0.0000000000
40
0.0000000000
40
0.0000000000
40
0.0000000000
40
0.2144292522
40
0.4172265978
40
0.6139433615
40
0.8076036008
40
1.0000000000
40
1.0000000000
40
1.0000000000
40
1.0000000000
10
280.1712307417
20
164.3792559616
30
0.0000000000
10
281.1223973143
20
164.6963114858
30
0.0000000000
10
282.9879637669
20
165.2702485152
30
0.0000000000
10
285.7755783672
20
165.9622072283
30
0.0000000000
10
288.5057793677
20
166.4620229985
30
0.0000000000
10
291.2158090519
20
166.7668872412
30
0.0000000000
10
293.0216332552
20
166.8354568922
30
0.0000000000
10
293.9212307416
20
166.8354568922
30
0.0000000000
11
280.1712307417
21
164.3792559616
31
0.0000000000
11
283.0475954601
21
165.2588606995
31
0.0000000000
11
285.8095890404
21
165.9397775504
31
0.0000000000
11
288.5245595120
21
166.4329283599
31
0.0000000000
11
291.2243466534
21
166.7339829896
31
0.0000000000
11
293.9212307416
21
166.8354568922
31
0.0000000000
0
SPLINE
5
543
100
AcDbEntity
8
0
100
AcDbSpline
62
7
6
CONTINUOUS
70
0
71
3
72
12
73
8
74
6
42
0.0000001000
43
0.0000001000
44
0.0000000001
40
0.0000000000
40
0.0000000000
40
0.0000000000
40
0.0000000000
40
0.1924410324
40
0.3861263842
40
0.5828423847
40
0.7855722362
40
1.0000000000
40
1.0000000000
40
1.0000000000
40
1.0000000000
10
293.9212307416
20
166.8354568922
30
0.0000000000
10
294.8210369119
20
166.8354568922
30
0.0000000000
10
296.6271876945
20
166.7668587489
30
0.0000000000
10
299.3375320026
20
166.4619002292
30
0.0000000000
10
302.0675226639
20
165.9620575931
30
0.0000000000
10
304.8548127542
20
165.2701517358
30
0.0000000000
10
306.7200707814
20
164.6963092817
30
0.0000000000
10
307.6712307417
20
164.3792559616
30
0.0000000000
11
293.9212307416
21
166.8354568922
31
0.0000000000
11
296.6187395608
21
166.7339361209
31
0.0000000000
11
299.3188704295
21
166.4327856625
31
0.0000000000
11
302.0338189544
21
165.9395740951
31
0.0000000000
11
304.7948861821
21
165.2588551178
31
0.0000000000
11
307.6712307417
21
164.3792559616
31
0.0000000000
0
SPLINE
5
544
100
AcDbEntity
8
0
100
AcDbSpline
62
7
6
CONTINUOUS
70
0
71
3
72
12
73
8
74
6
42
0.0000001000
43
0.0000001000
44
0.0000000001
40
0.0000000000
40
0.0000000000
40
0.0000000000
40
0.0000000000
40
0.2435184958
40
0.4738271131
40
0.6972302631
40
0.9171622439
40
1.0000000000
40
1.0000000000
40
1.0000000000
40
1.0000000000
10
252.6712307417
20
164.3792559616
30
0.0000000000
10
253.6223973143
20
164.6963114858
30
0.0000000000
10
255.4879637670
20
165.2702485152
30
0.0000000000
10
258.2755783674
20
165.9622072283
30
0.0000000000
10
261.0057793680
20
166.4620229986
30
0.0000000000
10
263.1603208977
20
166.7043977133
30
0.0000000000
10
264.4051264749
20
166.7802525287
30
0.0000000000
10
264.7459198875
20
166.7961877049
30
0.0000000000
11
252.6712307417
21
164.3792559616
31
0.0000000000
11
255.5475954602
21
165.2588606995
31
0.0000000000
11
258.3095890406
21
165.9397775504
31
0.0000000000
11
261.0245595123
21
166.4329283599
31
0.0000000000
11
263.7243466538
21
166.7339829896
31
0.0000000000
11
264.7459198875
21
166.7961877049
31
0.0000000000
0
SPLINE
5
545
100
AcDbEntity
8
0
100
AcDbSpline
62
7
6
CONTINUOUS
70
0
71
3
72
8
73
4
74
2
42
0.0000001000
43
0.0000001000
44
0.0000000001
40
0.0000000000
40
0.0000000000
40
0.0000000000
40
0.0000000000
40
1.0000000000
40
1.0000000000
40
1.0000000000
40
1.0000000000
10
264.7459198875
20
166.7961877049
30
0.0000000000
10
265.3040189119
20
166.8222838851
30
0.0000000000
10
265.8626939707
20
166.8354568923
30
0.0000000000
10
266.4212307420
20
166.8354568923
30
0.0000000000
11
264.7459198875
21
166.7961877049
31
0.0000000000
11
266.4212307420
21
166.8354568923
31
0.0000000000
0
SPLINE
5
546
100
AcDbEntity
8
0
100
AcDbSpline
62
7
6
CONTINUOUS
70
0
71
3
72
12
73
8
74
6
42
0.0000001000
43
0.0000001000
44
0.0000000001
40
0.0000000000
40
0.0000000000
40
0.0000000000
40
0.0000000000
40
0.1924410324
40
0.3861263842
40
0.5828423847
40
0.7855722362
40
1.0000000000
40
1.0000000000
40
1.0000000000
40
1.0000000000
10
266.4212307420
20
166.8354568923
30
0.0000000000
10
267.3210369126
20
166.8354568922
30
0.0000000000
10
269.1271876954
20
166.7668587488
30
0.0000000000
10
271.8375320035
20
166.4619002291
30
0.0000000000
10
274.5675226645
20
165.9620575929
30
0.0000000000
10
277.3548127545
20
165.2701517357
30
0.0000000000
10
279.2200707815
20
164.6963092817
30
0.0000000000
10
280.1712307417
20
164.3792559616
30
0.0000000000
11
266.4212307420
21
166.8354568923
31
0.0000000000
11
269.1187395620
21
166.7339361208
31
0.0000000000
11
271.8188704304
21
166.4327856624
31
0.0000000000
11
274.5338189550
21
165.9395740950
31
0.0000000000
11
277.2948861824
21
165.2588551177
31
0.0000000000
11
280.1712307417
21
164.3792559616
31
0.0000000000
0
SPLINE
5
547
100
AcDbEntity
8
0
100
AcDbSpline
62
7
6
CONTINUOUS
70
0
71
3
72
23
73
19
74
17
42
0.0000001000
43
0.0000001000
44
0.0000000001
40
0.0000000000
40
0.0000000000
40
0.0000000000
40
0.0000000000
40
0.0727723256
40
0.1448754536
40
0.2098866496
40
0.2683980240
40
0.3212117928
40
0.3697050300
40
0.4160281542
40
0.4630825007
40
0.5146559777
40
0.5739491948
40
0.6413929298
40
0.7150651098
40
0.7924788166
40
0.8710651245
40
0.9496897757
40
1.0000000000
40
1.0000000000
40
1.0000000000
40
1.0000000000
10
160.9564341633
20
-110.7005623275
30
0.0000000000
10
161.5461193834
20
-110.6611883528
30
0.0000000000
10
162.7195335901
20
-110.5744637225
30
0.0000000000
10
164.4171114366
20
-110.4196167504
30
0.0000000000
10
165.9960301704
20
-110.2422969383
30
0.0000000000
10
167.4148933289
20
-110.0470475065
30
0.0000000000
10
168.6949243518
20
-109.8308587791
30
0.0000000000
10
169.8689346449
20
-109.5858952427
30
0.0000000000
10
170.9844266163
20
-109.2952309638
30
0.0000000000
10
172.1032044020
20
-108.9258332694
30
0.0000000000
10
173.2847415446
20
-108.4221287096
30
0.0000000000
10
174.5498210166
20
-107.7099655715
30
0.0000000000
10
175.8504895638
20
-106.7214290327
30
0.0000000000
10
177.0799892238
20
-105.4297592778
30
0.0000000000
10
178.1156910016
20
-103.8661991983
30
0.0000000000
10
178.8641879649
20
-102.1018337217
30
0.0000000000
10
179.2254122298
20
-100.4460357782
30
0.0000000000
10
179.2893852678
20
-99.3966677776
30
0.0000000000
10
179.2898263202
20
-98.9875449977
30
0.0000000000
11
160.9564341633
21
-110.7005623275
31
0.0000000000
11
162.7245370518
21
-110.5689766206
31
0.0000000000
11
164.4738288569
21
-110.4079896497
31
0.0000000000
11
166.0476432987
21
-110.2295336696
31
0.0000000000
11
167.4595985164
21
-110.0331901939
31
0.0000000000
11
168.7279618283
21
-109.8165729415
31
0.0000000000
11
169.8839689981
21
-109.5726343716
31
0.0000000000
11
170.9753584915
21
-109.2852473736
31
0.0000000000
11
172.0630151323
21
-108.9229563518
31
0.0000000000
11
173.2176990559
21
-108.4274541765
31
0.0000000000
11
174.4752188646
21
-107.7164804171
31
0.0000000000
11
175.7822223492
21
-106.7206226035
31
0.0000000000
11
177.0188201711
21
-105.4196485917
31
0.0000000000
11
178.0597214774
21
-103.8468237953
31
0.0000000000
11
178.8071230625
21
-102.0840914617
31
0.0000000000
11
179.2150301767
21
-100.2124546691
31
0.0000000000
11
179.2898263202
21
-98.9875449977
31
0.0000000000
0
SPLINE
5
548
100
AcDbEntity
8
0
100
AcDbSpline
62
7
6
CONTINUOUS
70
0
71
3
72
12
73
8
74
6
42
0.0000001000
43
0.0000001000
44
0.0000000001
40
0.0000000000
40
0.0000000000
40
0.0000000000
40
0.0000000000
40
0.1997723024
40
0.4061330458
40
0.6104399649
40
0.8107905892
40
1.0000000000
40
1.0000000000
40
1.0000000000
40
1.0000000000
10
128.7466071444
20
-111.8950010010
30
0.0000000000
10
130.8930988620
20
-111.8715680675
30
0.0000000000
10
135.2566716373
20
-111.8026748119
30
0.0000000000
10
141.8139639278
20
-111.6328921598
30
0.0000000000
10
148.3752983845
20
-111.3927564781
30
0.0000000000
10
154.7494027522
20
-111.0870599822
30
0.0000000000
10
158.9279527612
20
-110.8360276773
30
0.0000000000
10
160.9565521051
20
-110.7005538826
30
0.0000000000
11
128.7466071444
21
-111.8950010010
31
0.0000000000
11
135.1856597519
21
-111.7931306497
31
0.0000000000
11
141.8356576346
21
-111.6204085561
31
0.0000000000
11
148.4172522261
21
-111.3786431610
31
0.0000000000
11
154.8682740852
21
-111.0679664578
31
0.0000000000
11
160.9565521051
21
-110.7005538826
31
0.0000000000
0
SPLINE
5
549
100
AcDbEntity
8
0
100
AcDbSpline
62
7
6
CONTINUOUS
70
0
71
3
72
10
73
6
74
4
42
0.0000001000
43
0.0000001000
44
0.0000000001
40
0.0000000000
40
0.0000000000
40
0.0000000000
40
0.0000000000
40
0.2516076315
40
0.7588288454
40
1.0000000000
40
1.0000000000
40
1.0000000000
40
1.0000000000
10
127.9034269844
20
-111.8994927408
30
0.0000000000
10
127.9741452076
20
-111.8994927248
30
0.0000000000
10
128.1874258653
20
-111.8992206620
30
0.0000000000
10
128.4684883583
20
-111.8977401046
30
0.0000000000
10
128.6788264893
20
-111.8957408044
30
0.0000000000
10
128.7466073588
20
-111.8950008853
30
0.0000000000
11
127.9034269844
21
-111.8994927408
31
0.0000000000
11
128.1155814332
21
-111.8992187003
31
0.0000000000
11
128.5432618846
21
-111.8969368080
31
0.0000000000
11
128.7466073588
21
-111.8950008853
31
0.0000000000
0
SPLINE
5
54A
100
AcDbEntity
8
0
100
AcDbSpline
62
7
6
CONTINUOUS
70
0
71
3
72
23
73
19
74
17
42
0.0000001000
43
0.0000001000
44
0.0000000001
40
0.0000000000
40
0.0000000000
40
0.0000000000
40
0.0000000000
40
0.0503003262
40
0.1288759682
40
0.2073933013
40
0.2847458040
40
0.3583905800
40
0.4258415495
40
0.4851822834
40
0.5367947987
40
0.5838764380
40
0.6302151936
40
0.6787179980
40
0.7315393750
40
0.7900595513
40
0.8550826450
40
0.9272030351
40
1.0000000000
40
1.0000000000
40
1.0000000000
40
1.0000000000
10
179.2898263542
20
-98.3114731677
30
0.0000000000
10
179.2893867005
20
-97.9024301112
30
0.0000000000
10
179.2254583950
20
-96.8535397624
30
0.0000000000
10
178.8645990210
20
-95.1987405736
30
0.0000000000
10
178.1170752443
20
-93.4355694478
30
0.0000000000
10
177.0826773418
20
-91.8727042885
30
0.0000000000
10
175.8542447742
20
-90.5809380083
30
0.0000000000
10
174.5538659696
20
-89.5916416559
30
0.0000000000
10
173.2883879375
20
-88.8786068400
30
0.0000000000
10
172.1061256497
20
-88.3742243673
30
0.0000000000
10
170.9867729287
20
-88.0044286637
30
0.0000000000
10
169.8708954897
20
-87.7135393625
30
0.0000000000
10
168.6966377240
20
-87.4684431167
30
0.0000000000
10
167.4164050236
20
-87.2521645334
30
0.0000000000
10
165.9973163995
20
-87.0568451313
30
0.0000000000
10
164.4180909656
20
-86.8794646921
30
0.0000000000
10
162.7200759086
20
-86.7245631186
30
0.0000000000
10
161.5463201797
20
-86.6378104365
30
0.0000000000
10
160.9564341427
20
-86.5984230569
30
0.0000000000
11
179.2898263542
21
-98.3114731677
31
0.0000000000
11
179.2150630919
21
-97.0868013723
31
0.0000000000
11
178.8075680351
21
-95.2162929918
31
0.0000000000
11
178.0612150964
21
-93.4549372779
31
0.0000000000
11
177.0217224477
21
-91.8829640619
31
0.0000000000
11
175.7861920814
21
-90.5818919687
31
0.0000000000
11
174.4795189048
21
-89.5853047927
31
0.0000000000
11
173.2212647277
21
-88.8732721586
31
0.0000000000
11
172.0658358715
21
-88.3770879090
31
0.0000000000
11
170.9776078146
21
-88.0144011660
31
0.0000000000
11
169.8858786250
21
-87.7267999466
31
0.0000000000
11
168.7296577494
21
-87.4827339541
31
0.0000000000
11
167.4611187414
21
-87.2660293665
31
0.0000000000
11
166.0489538554
21
-87.0696163509
31
0.0000000000
11
164.4748513561
21
-86.8911003448
31
0.0000000000
11
162.7251387907
21
-86.7300584716
31
0.0000000000
11
160.9564341427
21
-86.5984230569
31
0.0000000000
0
SPLINE
5
54B
100
AcDbEntity
8
0
100
AcDbSpline
62
7
6
CONTINUOUS
70
0
71
3
72
12
73
8
74
6
42
0.0000001000
43
0.0000001000
44
0.0000000001
40
0.0000000000
40
0.0000000000
40
0.0000000000
40
0.0000000000
40
0.1892094108
40
0.3895600351
40
0.5938669542
40
0.8002276976
40
1.0000000000
40
1.0000000000
40
1.0000000000
40
1.0000000000
10
160.9565521051
20
-86.5984315036
30
0.0000000000
10
158.9279527612
20
-86.4629577090
30
0.0000000000
10
154.7494027522
20
-86.2119254040
30
0.0000000000
10
148.3752983845
20
-85.9062289081
30
0.0000000000
10
141.8139639278
20
-85.6660932264
30
0.0000000000
10
135.2566716373
20
-85.4963105743
30
0.0000000000
10
130.8930988620
20
-85.4274173187
30
0.0000000000
10
128.7466071444
20
-85.4039843852
30
0.0000000000
11
160.9565521051
21
-86.5984315036
31
0.0000000000
11
154.8682740852
21
-86.2310189284
31
0.0000000000
11
148.4172522261
21
-85.9203422252
31
0.0000000000
11
141.8356576346
21
-85.6785768301
31
0.0000000000
11
135.1856597519
21
-85.5058547365
31
0.0000000000
11
128.7466071444
21
-85.4039843852
31
0.0000000000
0
SPLINE
5
54C
100
AcDbEntity
8
0
100
AcDbSpline
62
7
6
CONTINUOUS
70
0
71
3
72
10
73
6
74
4
42
0.0000001000
43
0.0000001000
44
0.0000000001
40
0.0000000000
40
0.0000000000
40
0.0000000000
40
0.0000000000
40
0.2411711546
40
0.7483923685
40
1.0000000000
40
1.0000000000
40
1.0000000000
40
1.0000000000
10
128.7466073588
20
-85.4039845009
30
0.0000000000
10
128.6788264893
20
-85.4032445818
30
0.0000000000
10
128.4684883583
20
-85.4012452817
30
0.0000000000
10
128.1874258653
20
-85.3997647242
30
0.0000000000
10
127.9741452076
20
-85.3994926614
30
0.0000000000
10
127.9034269844
20
-85.3994926454
30
0.0000000000
11
128.7466073588
21
-85.4039845009
31
0.0000000000
11
128.5432618846
21
-85.4020485782
31
0.0000000000
11
128.1155814332
21
-85.3997666859
31
0.0000000000
11
127.9034269844
21
-85.3994926454
31
0.0000000000
0
SPLINE
5
54D
100
AcDbEntity
8
0
100
AcDbSpline
62
7
6
CONTINUOUS
70
0
71
3
72
23
73
19
74
17
42
0.0000001000
43
0.0000001000
44
0.0000000001
40
0.0000000000
40
0.0000000000
40
0.0000000000
40
0.0000000000
40
0.0503003262
40
0.1288759682
40
0.2073933013
40
0.2847458040
40
0.3583905800
40
0.4258415495
40
0.4851822834
40
0.5367947987
40
0.5838764380
40
0.6302151936
40
0.6787179980
40
0.7315393750
40
0.7900595513
40
0.8550826450
40
0.9272030351
40
1.0000000000
40
1.0000000000
40
1.0000000000
40
1.0000000000
10
57.2899459943
20
-98.9875122185
30
0.0000000000
10
57.2903856481
20
-99.3965552750
30
0.0000000000
10
57.3543139535
20
-100.4454456238
30
0.0000000000
10
57.7151733275
20
-102.1002448126
30
0.0000000000
10
58.4626971042
20
-103.8634159384
30
0.0000000000
10
59.4970950067
20
-105.4262810977
30
0.0000000000
10
60.7255275743
20
-106.7180473779
30
0.0000000000
10
62.0259063789
20
-107.7073437303
30
0.0000000000
10
63.2913844111
20
-108.4203785462
30
0.0000000000
10
64.4736466989
20
-108.9247610189
30
0.0000000000
10
65.5929994198
20
-109.2945567225
30
0.0000000000
10
66.7088768588
20
-109.5854460237
30
0.0000000000
10
67.8831346245
20
-109.8305422696
30
0.0000000000
10
69.1633673249
20
-110.0468208528
30
0.0000000000
10
70.5824559490
20
-110.2421402549
30
0.0000000000
10
72.1616813830
20
-110.4195206941
30
0.0000000000
10
73.8596964399
20
-110.5744222676
30
0.0000000000
10
75.0334521688
20
-110.6611749497
30
0.0000000000
10
75.6233382058
20
-110.7005623294
30
0.0000000000
11
57.2899459943
21
-98.9875122185
31
0.0000000000
11
57.3647092566
21
-100.2121840140
31
0.0000000000
11
57.7722043134
21
-102.0826923944
31
0.0000000000
11
58.5185572521
21
-103.8440481083
31
0.0000000000
11
59.5580499008
21
-105.4160213243
31
0.0000000000
11
60.7935802671
21
-106.7170934176
31
0.0000000000
11
62.1002534438
21
-107.7136805935
31
0.0000000000
11
63.3585076209
21
-108.4257132276
31
0.0000000000
11
64.5139364771
21
-108.9218974773
31
0.0000000000
11
65.6021645339
21
-109.2845842202
31
0.0000000000
11
66.6938937235
21
-109.5721854396
31
0.0000000000
11
67.8501145991
21
-109.8162514321
31
0.0000000000
11
69.1186536071
21
-110.0329560197
31
0.0000000000
11
70.5308184931
21
-110.2293690353
31
0.0000000000
11
72.1049209924
21
-110.4078850414
31
0.0000000000
11
73.8546335578
21
-110.5689269146
31
0.0000000000
11
75.6233382058
21
-110.7005623294
31
0.0000000000
0
SPLINE
5
54E
100
AcDbEntity
8
0
100
AcDbSpline
62
7
6
CONTINUOUS
70
0
71
3
72
12
73
8
74
6
42
0.0000001000
43
0.0000001000
44
0.0000000001
40
0.0000000000
40
0.0000000000
40
0.0000000000
40
0.0000000000
40
0.1892094108
40
0.3895600351
40
0.5938669542
40
0.8002276976
40
1.0000000000
40
1.0000000000
40
1.0000000000
40
1.0000000000
10
75.6232202434
20
-110.7005538826
30
0.0000000000
10
77.6518195873
20
-110.8360276773
30
0.0000000000
10
81.8303695963
20
-111.0870599822
30
0.0000000000
10
88.2044739640
20
-111.3927564781
30
0.0000000000
10
94.7658084207
20
-111.6328921598
30
0.0000000000
10
101.3231007112
20
-111.8026748119
30
0.0000000000
10
105.6866734865
20
-111.8715680675
30
0.0000000000
10
107.8331652041
20
-111.8950010010
30
0.0000000000
11
75.6232202434
21
-110.7005538826
31
0.0000000000
11
81.7114982633
21
-111.0679664578
31
0.0000000000
11
88.1625201225
21
-111.3786431610
31
0.0000000000
11
94.7441147139
21
-111.6204085561
31
0.0000000000
11
101.3941125966
21
-111.7931306497
31
0.0000000000
11
107.8331652041
21
-111.8950010010
31
0.0000000000
0
SPLINE
5
54F
100
AcDbEntity
8
0
100
AcDbSpline
62
7
6
CONTINUOUS
70
0
71
3
72
10
73
6
74
4
42
0.0000001000
43
0.0000001000
44
0.0000000001
40
0.0000000000
40
0.0000000000
40
0.0000000000
40
0.0000000000
40
0.2411711546
40
0.7483923685
40
1.0000000000
40
1.0000000000
40
1.0000000000
40
1.0000000000
10
107.8331649897
20
-111.8950008853
30
0.0000000000
10
107.9009458593
20
-111.8957408044
30
0.0000000000
10
108.1112839903
20
-111.8977401046
30
0.0000000000
10
108.3923464832
20
-111.8992206620
30
0.0000000000
10
108.6056271410
20
-111.8994927248
30
0.0000000000
10
108.6763453641
20
-111.8994927408
30
0.0000000000
11
107.8331649897
21
-111.8950008853
31
0.0000000000
11
108.0365104639
21
-111.8969368080
31
0.0000000000
11
108.4641909153
21
-111.8992187003
31
0.0000000000
11
108.6763453641
21
-111.8994927408
31
0.0000000000
0
SPLINE
5
550
100
AcDbEntity
8
0
100
AcDbSpline
62
7
6
CONTINUOUS
70
0
71
3
72
23
73
19
74
17
42
0.0000001000
43
0.0000001000
44
0.0000000001
40
0.0000000000
40
0.0000000000
40
0.0000000000
40
0.0000000000
40
0.0727723256
40
0.1448754536
40
0.2098866496
40
0.2683980240
40
0.3212117928
40
0.3697050300
40
0.4160281542
40
0.4630825007
40
0.5146559777
40
0.5739491948
40
0.6413929298
40
0.7150651098
40
0.7924788166
40
0.8710651245
40
0.9496897757
40
1.0000000000
40
1.0000000000
40
1.0000000000
40
1.0000000000
10
75.6233381852
20
-86.5984230587
30
0.0000000000
10
75.0336529651
20
-86.6377970334
30
0.0000000000
10
73.8602387584
20
-86.7245216637
30
0.0000000000
10
72.1626609119
20
-86.8793686358
30
0.0000000000
10
70.5837421781
20
-87.0566884479
30
0.0000000000
10
69.1648790196
20
-87.2519378797
30
0.0000000000
10
67.8848479968
20
-87.4681266071
30
0.0000000000
10
66.7108377037
20
-87.7130901435
30
0.0000000000
10
65.5953457322
20
-88.0037544225
30
0.0000000000
10
64.4765679466
20
-88.3731521168
30
0.0000000000
10
63.2950308039
20
-88.8768566766
30
0.0000000000
10
62.0299513319
20
-89.5890198148
30
0.0000000000
10
60.7292827847
20
-90.5775563535
30
0.0000000000
10
59.4997831247
20
-91.8692261084
30
0.0000000000
10
58.4640813470
20
-93.4327861879
30
0.0000000000
10
57.7155843836
20
-95.1971516645
30
0.0000000000
10
57.3543601187
20
-96.8529496080
30
0.0000000000
10
57.2903870807
20
-97.9023176087
30
0.0000000000
10
57.2899460283
20
-98.3114403885
30
0.0000000000
11
75.6233381852
21
-86.5984230587
31
0.0000000000
11
73.8552352967
21
-86.7300087656
31
0.0000000000
11
72.1059434916
21
-86.8909957365
31
0.0000000000
11
70.5321290499
21
-87.0694517167
31
0.0000000000
11
69.1201738321
21
-87.2657951923
31
0.0000000000
11
67.8518105202
21
-87.4824124447
31
0.0000000000
11
66.6958033504
21
-87.7263510146
31
0.0000000000
11
65.6044138570
21
-88.0137380127
31
0.0000000000
11
64.5167572162
21
-88.3760290344
31
0.0000000000
11
63.3620732926
21
-88.8715312097
31
0.0000000000
11
62.1045534839
21
-89.5825049691
31
0.0000000000
11
60.7975499993
21
-90.5783627827
31
0.0000000000
11
59.5609521774
21
-91.8793367945
31
0.0000000000
11
58.5200508711
21
-93.4521615910
31
0.0000000000
11
57.7726492860
21
-95.2148939245
31
0.0000000000
11
57.3647421719
21
-97.0865307171
31
0.0000000000
11
57.2899460283
21
-98.3114403885
31
0.0000000000
0
SPLINE
5
551
100
AcDbEntity
8
0
100
AcDbSpline
62
7
6
CONTINUOUS
70
0
71
3
72
12
73
8
74
6
42
0.0000001000
43
0.0000001000
44
0.0000000001
40
0.0000000000
40
0.0000000000
40
0.0000000000
40
0.0000000000
40
0.1997723024
40
0.4061330458
40
0.6104399649
40
0.8107905892
40
1.0000000000
40
1.0000000000
40
1.0000000000
40
1.0000000000
10
107.8331652041
20
-85.4039843852
30
0.0000000000
10
105.6866734865
20
-85.4274173187
30
0.0000000000
10
101.3231007112
20
-85.4963105743
30
0.0000000000
10
94.7658084207
20
-85.6660932264
30
0.0000000000
10
88.2044739640
20
-85.9062289081
30
0.0000000000
10
81.8303695963
20
-86.2119254040
30
0.0000000000
10
77.6518195873
20
-86.4629577090
30
0.0000000000
10
75.6232202434
20
-86.5984315036
30
0.0000000000
11
107.8331652041
21
-85.4039843852
31
0.0000000000
11
101.3941125966
21
-85.5058547365
31
0.0000000000
11
94.7441147139
21
-85.6785768301
31
0.0000000000
11
88.1625201225
21
-85.9203422252
31
0.0000000000
11
81.7114982633
21
-86.2310189284
31
0.0000000000
11
75.6232202434
21
-86.5984315036
31
0.0000000000
0
SPLINE
5
552
100
AcDbEntity
8
0
100
AcDbSpline
62
7
6
CONTINUOUS
70
0
71
3
72
10
73
6
74
4
42
0.0000001000
43
0.0000001000
44
0.0000000001
40
0.0000000000
40
0.0000000000
40
0.0000000000
40
0.0000000000
40
0.2516076315
40
0.7588288454
40
1.0000000000
40
1.0000000000
40
1.0000000000
40
1.0000000000
10
108.6763453641
20
-85.3994926454
30
0.0000000000
10
108.6056271410
20
-85.3994926614
30
0.0000000000
10
108.3923464832
20
-85.3997647242
30
0.0000000000
10
108.1112839903
20
-85.4012452817
30
0.0000000000
10
107.9009458593
20
-85.4032445818
30
0.0000000000
10
107.8331649897
20
-85.4039845009
30
0.0000000000
11
108.6763453641
21
-85.3994926454
31
0.0000000000
11
108.4641909153
21
-85.3997666859
31
0.0000000000
11
108.0365104639
21
-85.4020485782
31
0.0000000000
11
107.8331649897
21
-85.4039845009
31
0.0000000000
0
ENDSEC
0
SECTION
2
OBJECTS
0
DICTIONARY
5
553
100
AcDbDictionary
3
ACAD_GROUP
350
554
3
ACAD_MLINESTYLE
350
555
0
DICTIONARY
5
554
102
{ACAD_REACTORS
330
553
102
}
100
AcDbDictionary
0
DICTIONARY
5
555
102
{ACAD_REACTORS
330
553
102
}
100
AcDbDictionary
3
STANDARD
350
556
0
MLINESTYLE
5
556
102
{ACAD_REACTORS
330
555
102
}
100
AcDbMlineStyle
2
STANDARD
70
0
3

62
256
51
90.0
52
90.0
71
2
49
0.5
62
256
6
BYLAYER
49
-0.5
62
256
6
BYLAYER
0
ENDSEC
0
EOF
