999
DXF file: G:\TBM\JAKUBETZ\Internet\CAD-Daten\2vlbg-10t-m42.dxf
999
Pro/ENGINEER 2001400 by Parametric Technology Corporation
0
SECTION
2
HEADER
9
$ACADVER
1
AC1014
9
$EXTMAX
10
420.0000000000
20
297.0000000000
9
$EXTMIN
10
0.0000000000
20
0.0000000000
9
$LIMMIN
10
0.0000000000
20
0.0000000000
9
$LIMMAX
10
420.0000000000
20
297.0000000000
9
$VIEWCTR
10
210.0000000000
20
148.5000000000
9
$VIEWSIZE
40
297.0000000000
9
$CLAYER
8
0
9
$LTSCALE
40
23.1000000000
9
$CELTYPE
6
BYLAYER
9
$DIMSCALE
40
1
9
$DIMASZ
40
3.5000000000
9
$DIMEXO
40
2.6250000000
9
$DIMDLI
40
15.9600000000
9
$DIMEXE
40
7.5600000000
9
$DIMCEN
40
3.7800000000
9
$DIMLFAC
40
1.0000000000
9
$DIMTXT
40
3.5000000000
9
$DIMTOL
70
1
9
$DIMTFAC
40
0.6000000000
9
$DIMTP
40
0.0050000000
9
$DIMTM
40
0.0050000000
9
$HANDSEED
5
534
0
ENDSEC
0
SECTION
2
CLASSES
0
ENDSEC
0
SECTION
2
TABLES
0
TABLE
2
VPORT
5
8
100
AcDbSymbolTable
70
2
0
VPORT
5
1F4
100
AcDbSymbolTableRecord
100
AcDbViewportTableRecord
2
*ACTIVE
70
0
10
0.0
20
0.0
11
1.0
21
1.0
12
210.0000000000
22
148.5000000000
13
0.0
23
0.0
14
1.0
24
1.0
15
0.0
25
0.0
16
0.0
26
0.0
36
1.0
17
0.0
27
0.0
37
0.0
40
297.0000000000
41
1.4141414141
42
50.0
43
0.0
44
0.0
50
0.0
51
0.0
71
0
72
100
73
1
74
1
75
0
76
0
77
0
78
0
0
ENDTAB
0
TABLE
2
LTYPE
5
5
100
AcDbSymbolTable
70
6
0
LTYPE
5
14
100
AcDbSymbolTableRecord
100
AcDbLinetypeTableRecord
2
BYBLOCK
70
0
3

72
65
73
0
40
0.0
0
LTYPE
5
15
100
AcDbSymbolTableRecord
100
AcDbLinetypeTableRecord
2
BYLAYER
70
0
3

72
65
73
0
40
0.0
0
LTYPE
5
16
100
AcDbSymbolTableRecord
100
AcDbLinetypeTableRecord
2
CONTINUOUS
70
64
3
Solid line
72
65
73
0
40
0
0
LTYPE
5
1F5
100
AcDbSymbolTableRecord
100
AcDbLinetypeTableRecord
2
CENTER
70
64
3
____ _ ____ _ ____ _ ____ _ ____ _ ____ _ ____
72
65
73
4
40
0.6
49
0.375
74
0
49
-0.075
74
0
49
0.075
74
0
49
-0.075
74
0
0
LTYPE
5
1F6
100
AcDbSymbolTableRecord
100
AcDbLinetypeTableRecord
2
HIDDEN
70
64
3
- - - - - - - - - - - - - - - - - - - -
72
65
73
2
40
0.2
49
0.1
74
0
49
-0.1
74
0
0
LTYPE
5
1F7
100
AcDbSymbolTableRecord
100
AcDbLinetypeTableRecord
2
PHANTOM
70
64
3
_____ _ _ _____ _ _ _____ _ _ _____
72
65
73
6
40
0.8
49
0.45
74
0
49
-0.05
74
0
49
0.1
74
0
49
-0.05
74
0
49
0.1
74
0
49
-0.05
74
0
0
LTYPE
5
1F8
100
AcDbSymbolTableRecord
100
AcDbLinetypeTableRecord
2
DOT
70
64
3
. . . . . . . . . . . . . . . . . . . .
72
65
73
2
40
0.2
49
0.1
74
0
49
-0.1
74
0
0
LTYPE
5
1F9
100
AcDbSymbolTableRecord
100
AcDbLinetypeTableRecord
2
DASHED
70
64
3
- - - - - - - - - - - - - - - - - - - -
72
65
73
2
40
0.2
49
0.1
74
0
49
-0.1
74
0
0
ENDTAB
0
TABLE
2
LAYER
5
2
100
AcDbSymbolTable
70
36
0
LAYER
5
10
100
AcDbSymbolTableRecord
100
AcDbLayerTableRecord
2
0
70
0
62
7
6
CONTINUOUS
0
LAYER
5
1FA
100
AcDbSymbolTableRecord
100
AcDbLayerTableRecord
2
DEFAULT_1
70
0
62
7
6
CENTER
0
LAYER
5
1FB
100
AcDbSymbolTableRecord
100
AcDbLayerTableRecord
2
DEFAULT_2
70
0
62
8
6
HIDDEN
0
LAYER
5
1FC
100
AcDbSymbolTableRecord
100
AcDbLayerTableRecord
2
DEFAULT_3
70
0
62
7
6
PHANTOM
0
ENDTAB
0
TABLE
2
STYLE
5
3
100
AcDbSymbolTable
70
1
0
STYLE
5
11
100
AcDbSymbolTableRecord
100
AcDbTextStyleTableRecord
2
STANDARD
70
0
40
0.0
41
1.0
50
0.0
71
0
42
0.0
3
txt
4

0
STYLE
5
1FD
100
AcDbSymbolTableRecord
100
AcDbTextStyleTableRecord
2
TEXTSTYLE_0
70
0
40
0.0
41
0.80
50
0.0
71
0
42
0.2
3
txt
4

0
ENDTAB
0
TABLE
2
VIEW
5
6
100
AcDbSymbolTable
70
0
0
ENDTAB
0
TABLE
2
UCS
5
7
100
AcDbSymbolTable
70
0
0
ENDTAB
0
TABLE
2
APPID
5
9
100
AcDbSymbolTable
70
1
0
APPID
5
1FE
100
AcDbSymbolTableRecord
100
AcDbRegAppTableRecord
2
ACAD
70
0
0
ENDTAB
0
TABLE
2
DIMSTYLE
5
A
100
AcDbSymbolTable
70
1
0
DIMSTYLE
105
1FF
100
AcDbSymbolTableRecord
100
AcDbDimStyleTableRecord
2
STANDARD
70
0
3

4

5

6

7

40
1.0
41
0.18
42
0.0625
43
0.38
44
0.18
45
0.0
46
0.0
47
0.0050000000
48
0.0050000000
140
3.5000000000
141
0.09
142
0.0
143
25.4
144
1.0000000000
145
0.0
146
0.6000000000
147
0.09
71
1
72
0
73
1
74
1
75
0
76
0
77
0
78
0
170
0
171
2
172
0
173
0
174
0
175
0
176
0
177
0
178
0
270
2
271
3
272
4
273
2
274
2
340
11
275
0
280
0
281
0
282
0
283
1
284
0
285
0
286
0
287
3
288
0
0
ENDTAB
0
TABLE
2
BLOCK_RECORD
5
1
100
AcDbSymbolTable
70
0
0
BLOCK_RECORD
5
1B
100
AcDbSymbolTableRecord
100
AcDbBlockTableRecord
2
*MODEL_SPACE
0
BLOCK_RECORD
5
1C
100
AcDbSymbolTableRecord
100
AcDbBlockTableRecord
2
*PAPER_SPACE
0
ENDTAB
0
ENDSEC
0
SECTION
2
BLOCKS
0
BLOCK
5
1E
100
AcDbEntity
8
0
100
AcDbBlockBegin
2
*MODEL_SPACE
70
0
10
0.0
20
0.0
30
0.0
3
*MODEL_SPACE
1

0
ENDBLK
5
1F
100
AcDbEntity
8
0
100
AcDbBlockEnd
0
BLOCK
5
20
100
AcDbEntity
8
0
100
AcDbBlockBegin
2
*PAPER_SPACE
70
0
10
0.0
20
0.0
30
0.0
3
*PAPER_SPACE
1

0
ENDBLK
5
21
100
AcDbEntity
8
0
100
AcDbBlockEnd
0
ENDSEC
0
SECTION
2
ENTITIES
0
TEXT
5
200
100
AcDbEntity
8
0
100
AcDbText
62
2
6
CONTINUOUS
10
75.3234960272
20
-101.8134931896
7
TEXTSTYLE_0
40
8.0000000000
1
RUD VLBG 10t-M42
72
5
11
172.6568293606
21
-101.8134931896
100
AcDbText
0
TEXT
5
201
100
AcDbEntity
8
0
100
AcDbText
62
2
6
CONTINUOUS
10
181.6345062429
20
135.5985385925
7
TEXTSTYLE_0
40
8.0000000000
1
RUD VLBG 10t-M42
50
90.0000000000
72
5
11
181.6345062429
21
232.9318719258
100
AcDbText
0
TEXT
5
202
100
AcDbEntity
8
0
100
AcDbText
62
2
6
CONTINUOUS
10
350.8740068104
20
144.6564273553
7
TEXTSTYLE_0
40
8.0000000000
1
RUD VLBG 10t-M42
50
90.0000000000
72
5
11
350.8740068104
21
241.9897606886
100
AcDbText
0
LINE
5
203
100
AcDbEntity
8
0
100
AcDbLine
62
7
6
CONTINUOUS
10
0.0000000000
20
0.0000000000
11
0.0000000000
21
297.0000000000
0
LINE
5
204
100
AcDbEntity
8
0
100
AcDbLine
62
7
6
CONTINUOUS
10
0.0000000000
20
0.0000000000
11
420.0000000000
21
0.0000000000
0
LINE
5
205
100
AcDbEntity
8
0
100
AcDbLine
62
7
6
CONTINUOUS
10
0.0000000000
20
297.0000000000
11
420.0000000000
21
297.0000000000
0
LINE
5
206
100
AcDbEntity
8
0
100
AcDbLine
62
7
6
CONTINUOUS
10
420.0000000000
20
0.0000000000
11
420.0000000000
21
297.0000000000
0
LINE
5
207
100
AcDbEntity
8
0
100
AcDbLine
62
7
6
CONTINUOUS
10
140.7551390829
20
14.9885652495
11
104.2761390829
21
14.9885652495
0
LINE
5
208
100
AcDbEntity
8
0
100
AcDbLine
62
7
6
CONTINUOUS
10
101.5156390829
20
18.9885652495
11
143.5156390829
21
18.9885652495
0
LINE
5
209
100
AcDbEntity
8
0
100
AcDbLine
62
7
6
CONTINUOUS
10
105.5156390829
20
14.9885652495
11
101.5156390829
21
18.9885652495
0
LINE
5
20A
100
AcDbEntity
8
0
100
AcDbLine
62
7
6
CONTINUOUS
10
50.1149978132
20
211.0329220772
11
45.1887328076
21
117.0341861454
0
LINE
5
20B
100
AcDbEntity
8
0
100
AcDbLine
62
7
6
CONTINUOUS
10
84.9878715855
20
188.0857823315
11
90.0156390829
21
190.9885652495
0
LINE
5
20C
100
AcDbEntity
8
0
100
AcDbLine
62
7
6
CONTINUOUS
10
157.5156390829
20
87.9885652495
11
87.5156390829
21
87.9885652495
0
LINE
5
20D
100
AcDbEntity
8
0
100
AcDbLine
62
7
6
CONTINUOUS
10
157.5156390829
20
95.9885652495
11
87.5156390829
21
95.9885652495
0
LINE
5
20E
100
AcDbEntity
8
0
100
AcDbLine
62
7
6
CONTINUOUS
10
86.0156390829
20
96.4885652495
11
159.0156390829
21
96.4885652495
0
LINE
5
20F
100
AcDbEntity
8
0
100
AcDbLine
62
7
6
CONTINUOUS
10
82.5156390829
20
149.6864149049
11
82.5156390829
21
209.7385652495
0
LINE
5
210
100
AcDbEntity
8
0
100
AcDbLine
62
7
6
CONTINUOUS
10
84.0156390829
20
98.4885652495
11
84.0156390829
21
154.4885652495
0
LINE
5
211
100
AcDbEntity
8
0
100
AcDbLine
62
7
6
CONTINUOUS
10
84.9878715855
20
165.4885652495
11
84.9878715855
21
188.0857823315
0
LINE
5
212
100
AcDbEntity
8
0
100
AcDbLine
62
7
6
CONTINUOUS
10
87.5156390829
20
164.9885652495
11
87.5156390829
21
156.9885652495
0
LINE
5
213
100
AcDbEntity
8
0
100
AcDbLine
62
7
6
CONTINUOUS
10
87.5156390829
20
95.9885652495
11
87.5156390829
21
87.9885652495
0
LINE
5
214
100
AcDbEntity
8
0
100
AcDbLine
62
7
6
CONTINUOUS
10
92.5656390829
20
164.9885652495
11
92.5656390829
21
165.4885652495
0
LINE
5
215
100
AcDbEntity
8
0
100
AcDbLine
62
7
6
CONTINUOUS
10
50.2425140142
20
111.7385652495
11
81.3090599245
21
111.7385652495
0
LINE
5
216
100
AcDbEntity
8
0
100
AcDbLine
62
7
6
CONTINUOUS
10
163.7222182412
20
111.7385652495
11
194.7887641515
21
111.7385652495
0
LINE
5
217
100
AcDbEntity
8
0
100
AcDbLine
62
7
6
CONTINUOUS
10
94.5156390829
20
156.9885652495
11
94.5156390829
21
156.4885652495
0
LINE
5
218
100
AcDbEntity
8
0
100
AcDbLine
62
7
6
CONTINUOUS
10
94.5156390829
20
96.4885652495
11
94.5156390829
21
95.9885652495
0
LINE
5
219
100
AcDbEntity
8
0
100
AcDbLine
62
7
6
CONTINUOUS
10
96.2321566266
20
190.9885652495
11
96.2321566266
21
191.1885652495
0
LINE
5
21A
100
AcDbEntity
8
0
100
AcDbLine
62
7
6
CONTINUOUS
10
101.5156390829
20
18.9885652495
11
101.5156390829
21
87.9885652495
0
LINE
5
21B
100
AcDbEntity
8
DEFAULT_1
100
AcDbLine
62
2
6
CENTER
10
61.4982973893
20
126.4885652495
11
189.9758302106
21
126.4885652495
0
LINE
5
21C
100
AcDbEntity
8
0
100
AcDbLine
62
7
6
CONTINUOUS
10
103.7517553342
20
165.4885652495
11
103.7517553342
21
188.0857823315
0
LINE
5
21D
100
AcDbEntity
8
0
100
AcDbLine
62
7
6
CONTINUOUS
10
104.1743309221
20
190.9885652495
11
104.1743309221
21
191.1885652495
0
LINE
5
21E
100
AcDbEntity
8
0
100
AcDbLine
62
7
6
CONTINUOUS
10
104.2573626844
20
190.9885652495
11
104.2573626844
21
191.1885652495
0
LINE
5
21F
100
AcDbEntity
8
0
100
AcDbLine
62
2
6
CONTINUOUS
10
104.2761390829
20
87.9885652495
11
104.2761390829
21
14.9885652495
0
LINE
5
220
100
AcDbEntity
8
0
100
AcDbLine
62
7
6
CONTINUOUS
10
104.6033283475
20
190.9885652495
11
104.6033283475
21
191.1885652495
0
LINE
5
221
100
AcDbEntity
8
0
100
AcDbLine
62
7
6
CONTINUOUS
10
104.7001987633
20
190.9885652495
11
104.7001987633
21
191.1885652495
0
LINE
5
222
100
AcDbEntity
8
0
100
AcDbLine
62
7
6
CONTINUOUS
10
104.8112276567
20
190.9885652495
11
104.8112276567
21
191.1885652495
0
LINE
5
223
100
AcDbEntity
8
0
100
AcDbLine
62
7
6
CONTINUOUS
10
105.3059145390
20
190.9885652495
11
105.3059145390
21
191.1885652495
0
LINE
5
224
100
AcDbEntity
8
0
100
AcDbLine
62
7
6
CONTINUOUS
10
105.6896332542
20
190.9885652495
11
105.6896332542
21
191.1885652495
0
LINE
5
225
100
AcDbEntity
8
0
100
AcDbLine
62
7
6
CONTINUOUS
10
105.8714672222
20
190.9885652495
11
105.8714672222
21
191.1885652495
0
LINE
5
226
100
AcDbEntity
8
0
100
AcDbLine
62
7
6
CONTINUOUS
10
105.9423330368
20
190.9885652495
11
105.9423330368
21
191.1885652495
0
LINE
5
227
100
AcDbEntity
8
0
100
AcDbLine
62
7
6
CONTINUOUS
10
107.0676038062
20
190.9885652495
11
107.0676038062
21
191.1885652495
0
LINE
5
228
100
AcDbEntity
8
0
100
AcDbLine
62
7
6
CONTINUOUS
10
108.8429791854
20
190.9885652495
11
108.8429791854
21
191.1885652495
0
LINE
5
229
100
AcDbEntity
8
0
100
AcDbLine
62
7
6
CONTINUOUS
10
109.0822822615
20
190.9885652495
11
109.0822822615
21
191.1885652495
0
LINE
5
22A
100
AcDbEntity
8
0
100
AcDbLine
62
7
6
CONTINUOUS
10
109.1170437110
20
190.9885652495
11
109.1170437110
21
191.1885652495
0
LINE
5
22B
100
AcDbEntity
8
0
100
AcDbLine
62
7
6
CONTINUOUS
10
113.5705981098
20
190.9885652495
11
113.5705981098
21
191.1885652495
0
LINE
5
22C
100
AcDbEntity
8
0
100
AcDbLine
62
7
6
CONTINUOUS
10
115.4806318416
20
190.9885652495
11
115.4806318416
21
191.1885652495
0
LINE
5
22D
100
AcDbEntity
8
0
100
AcDbLine
62
7
6
CONTINUOUS
10
116.1524550814
20
190.9885652495
11
116.1524550814
21
191.1885652495
0
LINE
5
22E
100
AcDbEntity
8
0
100
AcDbLine
62
7
6
CONTINUOUS
10
117.7200417867
20
190.9885652495
11
117.7200417867
21
191.1885652495
0
LINE
5
22F
100
AcDbEntity
8
0
100
AcDbLine
62
7
6
CONTINUOUS
10
118.6158078149
20
190.9885652495
11
118.6158078149
21
191.1885652495
0
LINE
5
230
100
AcDbEntity
8
0
100
AcDbLine
62
7
6
CONTINUOUS
10
118.6797508956
20
190.9885652495
11
118.6797508956
21
191.1885652495
0
LINE
5
231
100
AcDbEntity
8
0
100
AcDbLine
62
7
6
CONTINUOUS
10
120.1833945202
20
190.9885652495
11
120.1833945202
21
191.1885652495
0
LINE
5
232
100
AcDbEntity
8
0
100
AcDbLine
62
7
6
CONTINUOUS
10
120.8552177600
20
190.9885652495
11
120.8552177600
21
191.1885652495
0
LINE
5
233
100
AcDbEntity
8
0
100
AcDbLine
62
7
6
CONTINUOUS
10
122.0320239566
20
190.9885652495
11
122.0320239566
21
191.1885652495
0
LINE
5
234
100
AcDbEntity
8
DEFAULT_1
100
AcDbLine
62
2
6
CENTER
10
122.5156390829
20
167.9885652495
11
122.5156390829
21
11.9885652495
0
LINE
5
235
100
AcDbEntity
8
0
100
AcDbLine
62
7
6
CONTINUOUS
10
124.5787380064
20
190.9885652495
11
124.5787380064
21
191.1885652495
0
LINE
5
236
100
AcDbEntity
8
0
100
AcDbLine
62
7
6
CONTINUOUS
10
125.2678810037
20
190.9885652495
11
125.2678810037
21
191.1885652495
0
LINE
5
237
100
AcDbEntity
8
0
100
AcDbLine
62
7
6
CONTINUOUS
10
125.4777389431
20
190.9885652495
11
125.4777389431
21
191.1885652495
0
LINE
5
238
100
AcDbEntity
8
0
100
AcDbLine
62
7
6
CONTINUOUS
10
126.6263114815
20
190.9885652495
11
126.6263114815
21
191.1885652495
0
LINE
5
239
100
AcDbEntity
8
0
100
AcDbLine
62
7
6
CONTINUOUS
10
126.7162506104
20
190.9885652495
11
126.7162506104
21
191.1885652495
0
LINE
5
23A
100
AcDbEntity
8
0
100
AcDbLine
62
7
6
CONTINUOUS
10
127.3329420306
20
190.9885652495
11
127.3329420306
21
191.1885652495
0
LINE
5
23B
100
AcDbEntity
8
0
100
AcDbLine
62
7
6
CONTINUOUS
10
131.1886617307
20
190.9885652495
11
131.1886617307
21
191.1885652495
0
LINE
5
23C
100
AcDbEntity
8
0
100
AcDbLine
62
7
6
CONTINUOUS
10
131.5039041361
20
190.9885652495
11
131.5039041361
21
191.1885652495
0
LINE
5
23D
100
AcDbEntity
8
0
100
AcDbLine
62
7
6
CONTINUOUS
10
132.5696606832
20
190.9885652495
11
132.5696606832
21
191.1885652495
0
LINE
5
23E
100
AcDbEntity
8
0
100
AcDbLine
62
7
6
CONTINUOUS
10
132.9730143843
20
190.9885652495
11
132.9730143843
21
191.1885652495
0
LINE
5
23F
100
AcDbEntity
8
0
100
AcDbLine
62
7
6
CONTINUOUS
10
133.3323099640
20
190.9885652495
11
133.3323099640
21
191.1885652495
0
LINE
5
240
100
AcDbEntity
8
0
100
AcDbLine
62
7
6
CONTINUOUS
10
133.4584070852
20
190.9885652495
11
133.4584070852
21
191.1885652495
0
LINE
5
241
100
AcDbEntity
8
0
100
AcDbLine
62
7
6
CONTINUOUS
10
133.6034992834
20
190.9885652495
11
133.6034992834
21
191.1885652495
0
LINE
5
242
100
AcDbEntity
8
0
100
AcDbLine
62
7
6
CONTINUOUS
10
86.0156390829
20
156.4885652495
11
159.0156390829
21
156.4885652495
0
LINE
5
243
100
AcDbEntity
8
0
100
AcDbLine
62
7
6
CONTINUOUS
10
157.5156390829
20
156.9885652495
11
87.5156390829
21
156.9885652495
0
LINE
5
244
100
AcDbEntity
8
0
100
AcDbLine
62
7
6
CONTINUOUS
10
136.6202446503
20
190.9885652495
11
136.6202446503
21
191.1885652495
0
LINE
5
245
100
AcDbEntity
8
0
100
AcDbLine
62
7
6
CONTINUOUS
10
137.0578341476
20
190.9885652495
11
137.0578341476
21
191.1885652495
0
LINE
5
246
100
AcDbEntity
8
0
100
AcDbLine
62
7
6
CONTINUOUS
10
138.4795748752
20
190.9885652495
11
138.4795748752
21
191.1885652495
0
LINE
5
247
100
AcDbEntity
8
0
100
AcDbLine
62
7
6
CONTINUOUS
10
138.6495688491
20
190.9885652495
11
138.6495688491
21
191.1885652495
0
LINE
5
248
100
AcDbEntity
8
0
100
AcDbLine
62
7
6
CONTINUOUS
10
139.1211774001
20
190.9885652495
11
139.1211774001
21
191.1885652495
0
LINE
5
249
100
AcDbEntity
8
0
100
AcDbLine
62
7
6
CONTINUOUS
10
139.8174629439
20
190.9885652495
11
139.8174629439
21
191.1885652495
0
LINE
5
24A
100
AcDbEntity
8
0
100
AcDbLine
62
7
6
CONTINUOUS
10
139.9887754202
20
190.9885652495
11
139.9887754202
21
191.1885652495
0
LINE
5
24B
100
AcDbEntity
8
0
100
AcDbLine
62
7
6
CONTINUOUS
10
140.5640683690
20
190.9885652495
11
140.5640683690
21
191.1885652495
0
LINE
5
24C
100
AcDbEntity
8
0
100
AcDbLine
62
7
6
CONTINUOUS
10
140.6198517938
20
190.9885652495
11
140.6198517938
21
191.1885652495
0
LINE
5
24D
100
AcDbEntity
8
0
100
AcDbLine
62
2
6
CONTINUOUS
10
140.7551390829
20
87.9885652495
11
140.7551390829
21
14.9885652495
0
LINE
5
24E
100
AcDbEntity
8
0
100
AcDbLine
62
7
6
CONTINUOUS
10
140.8585433516
20
190.9885652495
11
140.8585433516
21
191.1885652495
0
LINE
5
24F
100
AcDbEntity
8
0
100
AcDbLine
62
7
6
CONTINUOUS
10
141.2795228315
20
165.4885652495
11
141.2795228315
21
188.0857823315
0
LINE
5
250
100
AcDbEntity
8
0
100
AcDbLine
62
7
6
CONTINUOUS
10
141.4351620165
20
190.9885652495
11
141.4351620165
21
191.1885652495
0
LINE
5
251
100
AcDbEntity
8
0
100
AcDbLine
62
7
6
CONTINUOUS
10
142.1528522034
20
190.9885652495
11
142.1528522034
21
191.1885652495
0
LINE
5
252
100
AcDbEntity
8
0
100
AcDbLine
62
7
6
CONTINUOUS
10
143.0255601321
20
190.9885652495
11
143.0255601321
21
191.1885652495
0
LINE
5
253
100
AcDbEntity
8
0
100
AcDbLine
62
7
6
CONTINUOUS
10
143.5156390829
20
18.9885652495
11
143.5156390829
21
87.9885652495
0
LINE
5
254
100
AcDbEntity
8
0
100
AcDbLine
62
7
6
CONTINUOUS
10
144.2222484429
20
190.9885652495
11
144.2222484429
21
191.1885652495
0
LINE
5
255
100
AcDbEntity
8
0
100
AcDbLine
62
7
6
CONTINUOUS
10
157.5156390829
20
164.9885652495
11
87.5156390829
21
164.9885652495
0
LINE
5
256
100
AcDbEntity
8
0
100
AcDbLine
62
7
6
CONTINUOUS
10
84.9878715855
20
165.4885652495
11
160.0434065802
21
165.4885652495
0
LINE
5
257
100
AcDbEntity
8
0
100
AcDbLine
62
7
6
CONTINUOUS
10
145.4049909800
20
190.9885652495
11
145.4049909800
21
191.1885652495
0
LINE
5
258
100
AcDbEntity
8
0
100
AcDbLine
62
7
6
CONTINUOUS
10
146.5737879801
20
190.9885652495
11
146.5737879801
21
191.1885652495
0
LINE
5
259
100
AcDbEntity
8
0
100
AcDbLine
62
7
6
CONTINUOUS
10
147.3907128390
20
190.9885652495
11
147.3907128390
21
191.1885652495
0
LINE
5
25A
100
AcDbEntity
8
0
100
AcDbLine
62
7
6
CONTINUOUS
10
148.0247284680
20
190.9885652495
11
148.0247284680
21
191.1885652495
0
LINE
5
25B
100
AcDbEntity
8
0
100
AcDbLine
62
7
6
CONTINUOUS
10
148.4618891649
20
190.9885652495
11
148.4618891649
21
191.1885652495
0
LINE
5
25C
100
AcDbEntity
8
0
100
AcDbLine
62
7
6
CONTINUOUS
10
148.5611240611
20
190.9885652495
11
148.5611240611
21
191.1885652495
0
LINE
5
25D
100
AcDbEntity
8
0
100
AcDbLine
62
7
6
CONTINUOUS
10
150.5156390829
20
156.9885652495
11
150.5156390829
21
156.4885652495
0
LINE
5
25E
100
AcDbEntity
8
0
100
AcDbLine
62
7
6
CONTINUOUS
10
150.5156390829
20
96.4885652495
11
150.5156390829
21
95.9885652495
0
LINE
5
25F
100
AcDbEntity
8
0
100
AcDbLine
62
7
6
CONTINUOUS
10
152.4656390829
20
164.9885652495
11
152.4656390829
21
165.4885652495
0
LINE
5
260
100
AcDbEntity
8
0
100
AcDbLine
62
7
6
CONTINUOUS
10
157.5156390829
20
164.9885652495
11
157.5156390829
21
156.9885652495
0
LINE
5
261
100
AcDbEntity
8
0
100
AcDbLine
62
7
6
CONTINUOUS
10
157.5156390829
20
95.9885652495
11
157.5156390829
21
87.9885652495
0
LINE
5
262
100
AcDbEntity
8
0
100
AcDbLine
62
7
6
CONTINUOUS
10
160.0434065802
20
165.4885652495
11
160.0434065802
21
188.0857823315
0
LINE
5
263
100
AcDbEntity
8
0
100
AcDbLine
62
7
6
CONTINUOUS
10
161.0156390829
20
154.4885652495
11
161.0156390829
21
98.4885652495
0
LINE
5
264
100
AcDbEntity
8
0
100
AcDbLine
62
7
6
CONTINUOUS
10
162.5156390829
20
149.6864149049
11
162.5156390829
21
209.7385652495
0
LINE
5
265
100
AcDbEntity
8
0
100
AcDbLine
62
7
6
CONTINUOUS
10
90.0156390829
20
190.9885652495
11
155.0156390829
21
190.9885652495
0
LINE
5
266
100
AcDbEntity
8
0
100
AcDbLine
62
7
6
CONTINUOUS
10
96.2321566266
20
191.1885652495
11
109.1170437110
21
191.1885652495
0
LINE
5
267
100
AcDbEntity
8
0
100
AcDbLine
62
7
6
CONTINUOUS
10
113.5705981098
20
191.1885652495
11
120.8552177600
21
191.1885652495
0
LINE
5
268
100
AcDbEntity
8
0
100
AcDbLine
62
7
6
CONTINUOUS
10
122.0320239566
20
191.1885652495
11
126.7162506104
21
191.1885652495
0
LINE
5
269
100
AcDbEntity
8
0
100
AcDbLine
62
7
6
CONTINUOUS
10
127.3329420306
20
191.1885652495
11
133.6034992834
21
191.1885652495
0
LINE
5
26A
100
AcDbEntity
8
0
100
AcDbLine
62
7
6
CONTINUOUS
10
136.6202446503
20
191.1885652495
11
148.5611240611
21
191.1885652495
0
LINE
5
26B
100
AcDbEntity
8
0
100
AcDbLine
62
7
6
CONTINUOUS
10
160.0434065802
20
188.0857823315
11
155.0156390829
21
190.9885652495
0
LINE
5
26C
100
AcDbEntity
8
0
100
AcDbLine
62
7
6
CONTINUOUS
10
194.9162803526
20
211.0329220772
11
199.8425453582
21
117.0341861454
0
LINE
5
26D
100
AcDbEntity
8
0
100
AcDbLine
62
7
6
CONTINUOUS
10
139.5156390829
20
14.9885652495
11
143.5156390829
21
18.9885652495
0
LINE
5
26E
100
AcDbEntity
8
0
100
AcDbLine
62
7
6
CONTINUOUS
10
318.5993542095
20
14.9885652495
11
282.1203542095
21
14.9885652495
0
LINE
5
26F
100
AcDbEntity
8
0
100
AcDbLine
62
7
6
CONTINUOUS
10
279.3598542095
20
18.9885652495
11
321.3598542095
21
18.9885652495
0
LINE
5
270
100
AcDbEntity
8
0
100
AcDbLine
62
7
6
CONTINUOUS
10
283.3598542095
20
14.9885652495
11
279.3598542095
21
18.9885652495
0
LINE
5
271
100
AcDbEntity
8
0
100
AcDbLine
62
7
6
CONTINUOUS
10
260.8599432406
20
111.3580636554
11
260.8598542772
21
111.3722490434
0
LINE
5
272
100
AcDbEntity
8
0
100
AcDbLine
62
7
6
CONTINUOUS
10
260.8598542095
20
111.5708296062
11
260.8598542095
21
112.4389144163
0
LINE
5
273
100
AcDbEntity
8
0
100
AcDbLine
62
7
6
CONTINUOUS
10
260.8598542095
20
120.2772130436
11
260.8598542095
21
121.1452977234
0
LINE
5
274
100
AcDbEntity
8
0
100
AcDbLine
62
7
6
CONTINUOUS
10
260.8635845909
20
133.7215017006
11
260.8635845909
21
143.7215017006
0
LINE
5
275
100
AcDbEntity
8
0
100
AcDbLine
62
7
6
CONTINUOUS
10
260.8882367347
20
134.9980974421
11
260.8882367347
21
138.1895868703
0
LINE
5
276
100
AcDbEntity
8
0
100
AcDbLine
62
7
6
CONTINUOUS
10
260.8882367347
20
139.4661824628
11
260.8882367347
21
142.4449061081
0
LINE
5
277
100
AcDbEntity
8
0
100
AcDbLine
62
7
6
CONTINUOUS
10
260.9482958367
20
115.6133828932
11
260.9482958367
21
117.1027444177
0
LINE
5
278
100
AcDbEntity
8
0
100
AcDbLine
62
7
6
CONTINUOUS
10
261.0326014292
20
115.4006169611
11
261.0326014292
21
117.3155103498
0
LINE
5
279
100
AcDbEntity
8
0
100
AcDbLine
62
7
6
CONTINUOUS
10
261.2262477080
20
117.3155103498
11
261.2262477080
21
118.1665740782
0
LINE
5
27A
100
AcDbEntity
8
0
100
AcDbLine
62
7
6
CONTINUOUS
10
261.2409188283
20
136.2746931836
11
261.2409188283
21
136.9129909798
0
LINE
5
27B
100
AcDbEntity
8
0
100
AcDbLine
62
7
6
CONTINUOUS
10
261.2409188283
20
140.7427780553
11
261.2409188283
21
141.1683099195
0
LINE
5
27C
100
AcDbEntity
8
0
100
AcDbLine
62
7
6
CONTINUOUS
10
261.3598542095
20
98.4885652495
11
261.3598542095
21
111.3722476222
0
LINE
5
27D
100
AcDbEntity
8
0
100
AcDbLine
62
7
6
CONTINUOUS
10
261.3598542095
20
121.3438796899
11
261.3598542095
21
133.7215017006
0
LINE
5
27E
100
AcDbEntity
8
0
100
AcDbLine
62
7
6
CONTINUOUS
10
261.3598542095
20
143.7215017006
11
261.3598542095
21
154.4885652495
0
LINE
5
27F
100
AcDbEntity
8
0
100
AcDbLine
62
7
6
CONTINUOUS
10
261.3863680247
20
136.0619272515
11
261.3863680247
21
137.1257569119
0
LINE
5
280
100
AcDbEntity
8
0
100
AcDbLine
62
7
6
CONTINUOUS
10
261.3863680247
20
140.5300121233
11
261.3863680247
21
141.3810764476
0
LINE
5
281
100
AcDbEntity
8
0
100
AcDbLine
62
7
6
CONTINUOUS
10
261.4932020230
20
113.0601912611
11
261.4932020230
21
117.3155103498
0
LINE
5
282
100
AcDbEntity
8
0
100
AcDbLine
62
7
6
CONTINUOUS
10
261.4932020230
20
118.1665740782
11
261.4932020230
21
119.8687021309
0
LINE
5
283
100
AcDbEntity
8
0
100
AcDbLine
62
7
6
CONTINUOUS
10
261.6177158692
20
137.1257569119
11
261.6177158692
21
140.3172461912
0
LINE
5
284
100
AcDbEntity
8
0
100
AcDbLine
62
7
6
CONTINUOUS
10
261.6979412122
20
113.4857232743
11
261.6979412122
21
117.3155103498
0
LINE
5
285
100
AcDbEntity
8
0
100
AcDbLine
62
7
6
CONTINUOUS
10
261.6979412122
20
118.1665740782
11
261.6979412122
21
119.8687021309
0
LINE
5
286
100
AcDbEntity
8
0
100
AcDbLine
62
7
6
CONTINUOUS
10
261.8197149258
20
137.1257569119
11
261.8197149258
21
140.3172461912
0
LINE
5
287
100
AcDbEntity
8
0
100
AcDbLine
62
7
6
CONTINUOUS
10
260.8599432406
20
121.3580636554
11
260.8598542772
21
121.3438782687
0
LINE
5
288
100
AcDbEntity
8
0
100
AcDbLine
62
7
6
CONTINUOUS
10
265.3598542095
20
87.9885652495
11
335.3598542095
21
87.9885652495
0
LINE
5
289
100
AcDbEntity
8
0
100
AcDbLine
62
7
6
CONTINUOUS
10
262.1416924025
20
111.3580636554
11
262.1416924025
21
112.2091274583
0
LINE
5
28A
100
AcDbEntity
8
0
100
AcDbLine
62
7
6
CONTINUOUS
10
262.2090693092
20
113.4857232743
11
262.2090693092
21
117.3155103498
0
LINE
5
28B
100
AcDbEntity
8
0
100
AcDbLine
62
7
6
CONTINUOUS
10
262.2090693092
20
118.1665740782
11
262.2090693092
21
119.8687021309
0
LINE
5
28C
100
AcDbEntity
8
0
100
AcDbLine
62
7
6
CONTINUOUS
10
262.2537082489
20
117.3155103498
11
262.2537082489
21
118.1665740782
0
LINE
5
28D
100
AcDbEntity
8
0
100
AcDbLine
62
7
6
CONTINUOUS
10
262.3325015621
20
137.1257569119
11
262.3325015621
21
140.3172461912
0
LINE
5
28E
100
AcDbEntity
8
0
100
AcDbLine
62
7
6
CONTINUOUS
10
262.5766696144
20
137.9768209383
11
262.5766696144
21
139.2534165308
0
LINE
5
28F
100
AcDbEntity
8
0
100
AcDbLine
62
7
6
CONTINUOUS
10
262.6589169888
20
111.3580636554
11
262.6589169888
21
112.2091274583
0
LINE
5
290
100
AcDbEntity
8
0
100
AcDbLine
62
7
6
CONTINUOUS
10
262.7724949882
20
117.3155103498
11
262.7724949882
21
118.1665740782
0
LINE
5
291
100
AcDbEntity
8
0
100
AcDbLine
62
7
6
CONTINUOUS
10
263.0433010183
20
136.2746931836
11
263.0433010183
21
137.9768209383
0
LINE
5
292
100
AcDbEntity
8
0
100
AcDbLine
62
7
6
CONTINUOUS
10
263.3885056350
20
136.0619272515
11
263.3885056350
21
139.2534165308
0
LINE
5
293
100
AcDbEntity
8
0
100
AcDbLine
62
7
6
CONTINUOUS
10
263.9236709559
20
136.0619272515
11
263.9236709559
21
139.2534165308
0
LINE
5
294
100
AcDbEntity
8
0
100
AcDbLine
62
7
6
CONTINUOUS
10
265.3598542095
20
164.9885652495
11
265.3598542095
21
156.9885652495
0
LINE
5
295
100
AcDbEntity
8
0
100
AcDbLine
62
7
6
CONTINUOUS
10
265.3598542095
20
95.9885652495
11
265.3598542095
21
87.9885652495
0
LINE
5
296
100
AcDbEntity
8
0
100
AcDbLine
62
7
6
CONTINUOUS
10
267.8598542095
20
165.4885652495
11
267.8598542095
21
190.9885652497
0
LINE
5
297
100
AcDbEntity
8
0
100
AcDbLine
62
7
6
CONTINUOUS
10
270.4098542095
20
164.9885652495
11
270.4098542095
21
165.4885652495
0
LINE
5
298
100
AcDbEntity
8
0
100
AcDbLine
62
7
6
CONTINUOUS
10
265.3598542095
20
95.9885652495
11
335.3598542095
21
95.9885652495
0
LINE
5
299
100
AcDbEntity
8
0
100
AcDbLine
62
7
6
CONTINUOUS
10
263.3598542125
20
96.4885652495
11
346.3598542095
21
96.4885652495
0
LINE
5
29A
100
AcDbEntity
8
0
100
AcDbLine
62
7
6
CONTINUOUS
10
272.3598542095
20
156.9885652495
11
272.3598542095
21
156.4885652495
0
LINE
5
29B
100
AcDbEntity
8
0
100
AcDbLine
62
7
6
CONTINUOUS
10
272.3598542095
20
96.4885652495
11
272.3598542095
21
95.9885652495
0
LINE
5
29C
100
AcDbEntity
8
0
100
AcDbLine
62
7
6
CONTINUOUS
10
274.2471363851
20
190.9885652495
11
274.2471363851
21
191.1885652495
0
LINE
5
29D
100
AcDbEntity
8
0
100
AcDbLine
62
7
6
CONTINUOUS
10
274.4949027272
20
190.9885652495
11
274.4949027272
21
191.1885652495
0
LINE
5
29E
100
AcDbEntity
8
0
100
AcDbLine
62
7
6
CONTINUOUS
10
275.3207905342
20
190.9885652495
11
275.3207905342
21
191.1885652495
0
LINE
5
29F
100
AcDbEntity
8
0
100
AcDbLine
62
7
6
CONTINUOUS
10
275.5685568763
20
190.9885652495
11
275.5685568763
21
191.1885652495
0
LINE
5
2A0
100
AcDbEntity
8
0
100
AcDbLine
62
7
6
CONTINUOUS
10
279.3598542095
20
18.9885652495
11
279.3598542095
21
87.9885652495
0
LINE
5
2A1
100
AcDbEntity
8
0
100
AcDbLine
62
2
6
CONTINUOUS
10
282.1203542095
20
87.9885652495
11
282.1203542095
21
14.9885652495
0
LINE
5
2A2
100
AcDbEntity
8
0
100
AcDbLine
62
7
6
CONTINUOUS
10
282.7226101043
20
190.9885652495
11
282.7226101043
21
191.1885652495
0
LINE
5
2A3
100
AcDbEntity
8
0
100
AcDbLine
62
7
6
CONTINUOUS
10
282.8580038197
20
190.9885652495
11
282.8580038197
21
191.1885652495
0
LINE
5
2A4
100
AcDbEntity
8
0
100
AcDbLine
62
7
6
CONTINUOUS
10
283.1910465876
20
190.9885652495
11
283.1910465876
21
191.1885652495
0
LINE
5
2A5
100
AcDbEntity
8
0
100
AcDbLine
62
7
6
CONTINUOUS
10
285.3138098199
20
190.9885652495
11
285.3138098199
21
191.1885652495
0
LINE
5
2A6
100
AcDbEntity
8
0
100
AcDbLine
62
7
6
CONTINUOUS
10
288.1193063622
20
190.9885652495
11
288.1193063622
21
191.1885652495
0
LINE
5
2A7
100
AcDbEntity
8
0
100
AcDbLine
62
7
6
CONTINUOUS
10
288.7551027773
20
190.9885652495
11
288.7551027773
21
191.1885652495
0
LINE
5
2A8
100
AcDbEntity
8
0
100
AcDbLine
62
7
6
CONTINUOUS
10
290.8353736968
20
190.9885652495
11
290.8353736968
21
191.1885652495
0
LINE
5
2A9
100
AcDbEntity
8
0
100
AcDbLine
62
7
6
CONTINUOUS
10
260.8599432406
20
111.3580636554
11
261.3599443968
21
111.3580636554
0
LINE
5
2AA
100
AcDbEntity
8
0
100
AcDbLine
62
7
6
CONTINUOUS
10
262.1416924025
20
111.3580636554
11
262.6589169888
21
111.3580636554
0
LINE
5
2AB
100
AcDbEntity
8
0
100
AcDbLine
62
7
6
CONTINUOUS
10
260.8773082636
20
111.5708296062
11
261.3775350431
21
111.5708296062
0
LINE
5
2AC
100
AcDbEntity
8
0
100
AcDbLine
62
7
6
CONTINUOUS
10
260.9224266862
20
112.2091274583
11
261.4232406473
21
112.2091274583
0
LINE
5
2AD
100
AcDbEntity
8
0
100
AcDbLine
62
7
6
CONTINUOUS
10
262.1416924025
20
112.2091274583
11
262.6589169888
21
112.2091274583
0
LINE
5
2AE
100
AcDbEntity
8
0
100
AcDbLine
62
7
6
CONTINUOUS
10
261.8830932234
20
112.4218934649
11
262.3967473576
21
112.4218934649
0
LINE
5
2AF
100
AcDbEntity
8
0
100
AcDbLine
62
7
6
CONTINUOUS
10
260.9629106282
20
112.8474253290
11
261.4642526389
21
112.8474253290
0
LINE
5
2B0
100
AcDbEntity
8
0
100
AcDbLine
62
7
6
CONTINUOUS
10
261.7424369308
20
112.8474253290
11
262.2541697988
21
112.8474253290
0
LINE
5
2B1
100
AcDbEntity
8
0
100
AcDbLine
62
7
6
CONTINUOUS
10
261.6979412122
20
113.4857232743
11
262.2090693092
21
113.4857232743
0
LINE
5
2B2
100
AcDbEntity
8
0
100
AcDbLine
62
7
6
CONTINUOUS
10
260.9955067945
20
113.6984892064
11
261.4972747864
21
113.6984892064
0
LINE
5
2B3
100
AcDbEntity
8
0
100
AcDbLine
62
7
6
CONTINUOUS
10
261.0134910875
20
114.3367870026
11
261.4932020230
21
114.3367870026
0
LINE
5
2B4
100
AcDbEntity
8
0
100
AcDbLine
62
7
6
CONTINUOUS
10
261.0326014292
20
115.4006169611
11
261.4932020230
21
115.4006169611
0
LINE
5
2B5
100
AcDbEntity
8
0
100
AcDbLine
62
7
6
CONTINUOUS
10
261.0326014292
20
117.3155103498
11
261.4932020230
21
117.3155103498
0
LINE
5
2B6
100
AcDbEntity
8
0
100
AcDbLine
62
7
6
CONTINUOUS
10
261.6979412122
20
117.3155103498
11
262.7724949882
21
117.3155103498
0
LINE
5
2B7
100
AcDbEntity
8
0
100
AcDbLine
62
7
6
CONTINUOUS
10
261.2262477080
20
118.1665740782
11
261.4932020230
21
118.1665740782
0
LINE
5
2B8
100
AcDbEntity
8
0
100
AcDbLine
62
7
6
CONTINUOUS
10
261.6979412122
20
118.1665740782
11
262.7724949882
21
118.1665740782
0
LINE
5
2B9
100
AcDbEntity
8
0
100
AcDbLine
62
7
6
CONTINUOUS
10
261.0134910875
20
118.3793400102
11
261.4932020230
21
118.3793400102
0
LINE
5
2BA
100
AcDbEntity
8
0
100
AcDbLine
62
7
6
CONTINUOUS
10
260.9955067945
20
119.0176384025
11
261.4972747864
21
119.0176384025
0
LINE
5
2BB
100
AcDbEntity
8
0
100
AcDbLine
62
7
6
CONTINUOUS
10
291.2097619858
20
190.9885652495
11
291.2097619858
21
191.1885652495
0
LINE
5
2BC
100
AcDbEntity
8
0
100
AcDbLine
62
7
6
CONTINUOUS
10
291.2982884376
20
190.9885652495
11
291.2982884376
21
191.1885652495
0
LINE
5
2BD
100
AcDbEntity
8
0
100
AcDbLine
62
7
6
CONTINUOUS
10
291.9340851559
20
190.9885652495
11
291.9340851559
21
191.1885652495
0
LINE
5
2BE
100
AcDbEntity
8
0
100
AcDbLine
62
7
6
CONTINUOUS
10
294.0143560754
20
190.9885652495
11
294.0143560754
21
191.1885652495
0
LINE
5
2BF
100
AcDbEntity
8
0
100
AcDbLine
62
7
6
CONTINUOUS
10
294.2439173263
20
190.9885652495
11
294.2439173263
21
191.1885652495
0
LINE
5
2C0
100
AcDbEntity
8
0
100
AcDbLine
62
7
6
CONTINUOUS
10
294.3004071516
20
190.9885652495
11
294.3004071516
21
191.1885652495
0
LINE
5
2C1
100
AcDbEntity
8
0
100
AcDbLine
62
7
6
CONTINUOUS
10
294.4206553962
20
190.9885652495
11
294.4206553962
21
191.1885652495
0
LINE
5
2C2
100
AcDbEntity
8
0
100
AcDbLine
62
7
6
CONTINUOUS
10
294.6735473617
20
190.9885652495
11
294.6735473617
21
191.1885652495
0
LINE
5
2C3
100
AcDbEntity
8
0
100
AcDbLine
62
7
6
CONTINUOUS
10
295.2240289569
20
190.9885652495
11
295.2240289569
21
191.1885652495
0
LINE
5
2C4
100
AcDbEntity
8
0
100
AcDbLine
62
7
6
CONTINUOUS
10
295.3784206352
20
190.9885652495
11
295.3784206352
21
191.1885652495
0
LINE
5
2C5
100
AcDbEntity
8
0
100
AcDbLine
62
7
6
CONTINUOUS
10
295.4316067582
20
190.9885652495
11
295.4316067582
21
191.1885652495
0
LINE
5
2C6
100
AcDbEntity
8
0
100
AcDbLine
62
7
6
CONTINUOUS
10
295.6933079202
20
190.9885652495
11
295.6933079202
21
191.1885652495
0
LINE
5
2C7
100
AcDbEntity
8
0
100
AcDbLine
62
7
6
CONTINUOUS
10
296.0899091778
20
190.9885652495
11
296.0899091778
21
191.1885652495
0
LINE
5
2C8
100
AcDbEntity
8
0
100
AcDbLine
62
7
6
CONTINUOUS
10
296.6418393516
20
190.9885652495
11
296.6418393516
21
191.1885652495
0
LINE
5
2C9
100
AcDbEntity
8
0
100
AcDbLine
62
7
6
CONTINUOUS
10
299.3891604286
20
190.9885652495
11
299.3891604286
21
191.1885652495
0
LINE
5
2CA
100
AcDbEntity
8
0
100
AcDbLine
62
7
6
CONTINUOUS
10
300.3492997204
20
190.9885652495
11
300.3492997204
21
191.1885652495
0
LINE
5
2CB
100
AcDbEntity
8
DEFAULT_1
100
AcDbLine
62
2
6
CENTER
10
300.3598542095
20
165.4885652495
11
300.3598542095
21
11.9885652495
0
LINE
5
2CC
100
AcDbEntity
8
0
100
AcDbLine
62
7
6
CONTINUOUS
10
300.3598542095
20
165.4885652495
11
300.3598542095
21
188.0857823315
0
LINE
5
2CD
100
AcDbEntity
8
0
100
AcDbLine
62
7
6
CONTINUOUS
10
260.9629106282
20
119.8687021309
11
261.4642526389
21
119.8687021309
0
LINE
5
2CE
100
AcDbEntity
8
0
100
AcDbLine
62
7
6
CONTINUOUS
10
261.4932020230
20
119.8687021309
11
262.2090693092
21
119.8687021309
0
LINE
5
2CF
100
AcDbEntity
8
0
100
AcDbLine
62
7
6
CONTINUOUS
10
260.9224266862
20
120.5069999271
11
261.4232406473
21
120.5069999271
0
LINE
5
2D0
100
AcDbEntity
8
0
100
AcDbLine
62
7
6
CONTINUOUS
10
260.8773082636
20
121.1452977234
11
261.3775350431
21
121.1452977234
0
LINE
5
2D1
100
AcDbEntity
8
0
100
AcDbLine
62
7
6
CONTINUOUS
10
260.8599432406
20
121.3580636554
11
261.3599443968
21
121.3580636554
0
LINE
5
2D2
100
AcDbEntity
8
DEFAULT_1
100
AcDbLine
62
2
6
CENTER
10
346.3598542095
20
126.4885652495
11
327.5141884222
21
126.4885652495
0
LINE
5
2D3
100
AcDbEntity
8
DEFAULT_1
100
AcDbLine
62
2
6
CENTER
10
346.3598542095
20
126.4885652495
11
362.7922814983
21
126.4885652495
0
LINE
5
2D4
100
AcDbEntity
8
0
100
AcDbLine
62
7
6
CONTINUOUS
10
260.8635845909
20
133.7215017006
11
261.6043807968
21
133.7215017006
0
LINE
5
2D5
100
AcDbEntity
8
0
100
AcDbLine
62
7
6
CONTINUOUS
10
262.2118194915
20
133.7215017006
11
263.1495865072
21
133.7215017006
0
LINE
5
2D6
100
AcDbEntity
8
0
100
AcDbLine
62
7
6
CONTINUOUS
10
261.1977249095
20
133.9342676513
11
261.7021519463
21
133.9342676513
0
LINE
5
2D7
100
AcDbEntity
8
0
100
AcDbLine
62
7
6
CONTINUOUS
10
262.8810236950
20
133.9342676513
11
263.4087375432
21
133.9342676513
0
LINE
5
2D8
100
AcDbEntity
8
0
100
AcDbLine
62
7
6
CONTINUOUS
10
263.0989112215
20
134.3597995713
11
263.6297986014
21
134.3597995713
0
LINE
5
2D9
100
AcDbEntity
8
0
100
AcDbLine
62
7
6
CONTINUOUS
10
261.2867509943
20
134.5725655034
11
261.7923576849
21
134.5725655034
0
LINE
5
2DA
100
AcDbEntity
8
0
100
AcDbLine
62
7
6
CONTINUOUS
10
260.8882367347
20
134.9980974421
11
261.1192172641
21
134.9980974421
0
LINE
5
2DB
100
AcDbEntity
8
0
100
AcDbLine
62
7
6
CONTINUOUS
10
262.2118194915
20
134.9980974421
11
262.6255453697
21
134.9980974421
0
LINE
5
2DC
100
AcDbEntity
8
0
100
AcDbLine
62
7
6
CONTINUOUS
10
262.0465629113
20
135.2108633741
11
262.5624682582
21
135.2108633741
0
LINE
5
2DD
100
AcDbEntity
8
0
100
AcDbLine
62
7
6
CONTINUOUS
10
263.3290352767
20
135.2108633741
11
263.8633164329
21
135.2108633741
0
LINE
5
2DE
100
AcDbEntity
8
0
100
AcDbLine
62
7
6
CONTINUOUS
10
261.3604665699
20
135.4236293062
11
261.6988887226
21
135.4236293062
0
LINE
5
2DF
100
AcDbEntity
8
0
100
AcDbLine
62
7
6
CONTINUOUS
10
261.9300060819
20
135.6363953873
11
262.4443042471
21
135.6363953873
0
LINE
5
2E0
100
AcDbEntity
8
0
100
AcDbLine
62
7
6
CONTINUOUS
10
261.3863680247
20
136.0619272515
11
261.6496739601
21
136.0619272515
0
LINE
5
2E1
100
AcDbEntity
8
0
100
AcDbLine
62
7
6
CONTINUOUS
10
263.3885056350
20
136.0619272515
11
263.9236709559
21
136.0619272515
0
LINE
5
2E2
100
AcDbEntity
8
0
100
AcDbLine
62
7
6
CONTINUOUS
10
261.8557857507
20
136.2746931836
11
262.3690657486
21
136.2746931836
0
LINE
5
2E3
100
AcDbEntity
8
0
100
AcDbLine
62
7
6
CONTINUOUS
10
261.3863680247
20
137.1257569119
11
261.6177158692
21
137.1257569119
0
LINE
5
2E4
100
AcDbEntity
8
0
100
AcDbLine
62
7
6
CONTINUOUS
10
261.8197149258
20
137.1257569119
11
262.3325015621
21
137.1257569119
0
LINE
5
2E5
100
AcDbEntity
8
0
100
AcDbLine
62
7
6
CONTINUOUS
10
261.3604665699
20
137.7640550062
11
261.6177158692
21
137.7640550062
0
LINE
5
2E6
100
AcDbEntity
8
0
100
AcDbLine
62
7
6
CONTINUOUS
10
262.5766696144
20
137.9768209383
11
263.0433010183
21
137.9768209383
0
LINE
5
2E7
100
AcDbEntity
8
0
100
AcDbLine
62
7
6
CONTINUOUS
10
260.8882367347
20
138.1895868703
11
261.1192172641
21
138.1895868703
0
LINE
5
2E8
100
AcDbEntity
8
0
100
AcDbLine
62
7
6
CONTINUOUS
10
261.2867509943
20
138.6151187345
11
261.6177158692
21
138.6151187345
0
LINE
5
2E9
100
AcDbEntity
8
0
100
AcDbLine
62
7
6
CONTINUOUS
10
261.2409188283
20
138.8278846666
11
261.6177158692
21
138.8278846666
0
LINE
5
2EA
100
AcDbEntity
8
0
100
AcDbLine
62
2
6
CONTINUOUS
10
318.5993542095
20
87.9885652495
11
318.5993542095
21
14.9885652495
0
LINE
5
2EB
100
AcDbEntity
8
0
100
AcDbLine
62
7
6
CONTINUOUS
10
261.2867509943
20
139.0406505987
11
261.6177158692
21
139.0406505987
0
LINE
5
2EC
100
AcDbEntity
8
0
100
AcDbLine
62
7
6
CONTINUOUS
10
262.5766696144
20
139.2534165308
11
263.9236709559
21
139.2534165308
0
LINE
5
2ED
100
AcDbEntity
8
0
100
AcDbLine
62
7
6
CONTINUOUS
10
260.8882367347
20
139.4661824628
11
261.1192172641
21
139.4661824628
0
LINE
5
2EE
100
AcDbEntity
8
0
100
AcDbLine
62
7
6
CONTINUOUS
10
261.3604665699
20
139.8917143270
11
261.6177158692
21
139.8917143270
0
LINE
5
2EF
100
AcDbEntity
8
0
100
AcDbLine
62
7
6
CONTINUOUS
10
261.8197149258
20
140.3172461912
11
262.3325015621
21
140.3172461912
0
LINE
5
2F0
100
AcDbEntity
8
0
100
AcDbLine
62
7
6
CONTINUOUS
10
261.3863680247
20
140.5300121233
11
261.6240565018
21
140.5300121233
0
LINE
5
2F1
100
AcDbEntity
8
0
100
AcDbLine
62
7
6
CONTINUOUS
10
261.8557857507
20
141.1683099195
11
262.3690657486
21
141.1683099195
0
LINE
5
2F2
100
AcDbEntity
8
0
100
AcDbLine
62
7
6
CONTINUOUS
10
263.0433010183
20
141.1683099195
11
263.9236709559
21
141.1683099195
0
LINE
5
2F3
100
AcDbEntity
8
0
100
AcDbLine
62
7
6
CONTINUOUS
10
261.3863680247
20
141.3810764476
11
261.6496739601
21
141.3810764476
0
LINE
5
2F4
100
AcDbEntity
8
0
100
AcDbLine
62
7
6
CONTINUOUS
10
261.9300060819
20
141.8066083118
11
262.4443042471
21
141.8066083118
0
LINE
5
2F5
100
AcDbEntity
8
0
100
AcDbLine
62
7
6
CONTINUOUS
10
261.3604665699
20
142.0193742439
11
261.6988887197
21
142.0193742439
0
LINE
5
2F6
100
AcDbEntity
8
0
100
AcDbLine
62
7
6
CONTINUOUS
10
262.0465629113
20
142.2321401760
11
262.5624682582
21
142.2321401760
0
LINE
5
2F7
100
AcDbEntity
8
0
100
AcDbLine
62
7
6
CONTINUOUS
10
263.3290352767
20
142.2321401760
11
263.8633164329
21
142.2321401760
0
LINE
5
2F8
100
AcDbEntity
8
0
100
AcDbLine
62
7
6
CONTINUOUS
10
260.8882367347
20
142.4449061081
11
261.1192172641
21
142.4449061081
0
LINE
5
2F9
100
AcDbEntity
8
0
100
AcDbLine
62
7
6
CONTINUOUS
10
262.2118194915
20
142.4449061081
11
262.6255453697
21
142.4449061081
0
LINE
5
2FA
100
AcDbEntity
8
0
100
AcDbLine
62
7
6
CONTINUOUS
10
261.2867509943
20
142.8704379722
11
261.7923576849
21
142.8704379722
0
LINE
5
2FB
100
AcDbEntity
8
0
100
AcDbLine
62
7
6
CONTINUOUS
10
263.0989112215
20
143.0832039043
11
263.6297986014
21
143.0832039043
0
LINE
5
2FC
100
AcDbEntity
8
0
100
AcDbLine
62
7
6
CONTINUOUS
10
261.1977249095
20
143.5087357685
11
261.7021519463
21
143.5087357685
0
LINE
5
2FD
100
AcDbEntity
8
0
100
AcDbLine
62
7
6
CONTINUOUS
10
262.8810236950
20
143.5087357685
11
263.4087375432
21
143.5087357685
0
LINE
5
2FE
100
AcDbEntity
8
0
100
AcDbLine
62
7
6
CONTINUOUS
10
260.8635845909
20
143.7215017006
11
261.6043807968
21
143.7215017006
0
LINE
5
2FF
100
AcDbEntity
8
0
100
AcDbLine
62
7
6
CONTINUOUS
10
262.2118194915
20
143.7215017006
11
263.1495865072
21
143.7215017006
0
LINE
5
300
100
AcDbEntity
8
0
100
AcDbLine
62
7
6
CONTINUOUS
10
321.3598542095
20
18.9885652495
11
321.3598542095
21
87.9885652495
0
LINE
5
301
100
AcDbEntity
8
0
100
AcDbLine
62
7
6
CONTINUOUS
10
328.3598542095
20
156.9885652495
11
328.3598542095
21
156.4885652495
0
LINE
5
302
100
AcDbEntity
8
0
100
AcDbLine
62
7
6
CONTINUOUS
10
328.3598542095
20
96.4885652495
11
328.3598542095
21
95.9885652495
0
LINE
5
303
100
AcDbEntity
8
0
100
AcDbLine
62
7
6
CONTINUOUS
10
334.1494008323
20
156.4885652495
11
263.3598542125
21
156.4885652495
0
LINE
5
304
100
AcDbEntity
8
0
100
AcDbLine
62
7
6
CONTINUOUS
10
265.3598542095
20
156.9885652495
11
334.1668612171
21
156.9885652495
0
LINE
5
305
100
AcDbEntity
8
0
100
AcDbLine
62
7
6
CONTINUOUS
10
330.3098542095
20
164.9885652495
11
330.3098542095
21
165.4885652495
0
LINE
5
306
100
AcDbEntity
8
0
100
AcDbLine
62
7
6
CONTINUOUS
10
332.8598542095
20
165.4885652495
11
332.8598542095
21
190.9885652497
0
LINE
5
307
100
AcDbEntity
8
0
100
AcDbLine
62
7
6
CONTINUOUS
10
333.1098542095
20
126.4885652495
11
333.1098542095
21
124.9885652495
0
LINE
5
308
100
AcDbEntity
8
0
100
AcDbLine
62
7
6
CONTINUOUS
10
335.3598542095
20
95.9885652495
11
335.3598542095
21
87.9885652495
0
LINE
5
309
100
AcDbEntity
8
0
100
AcDbLine
62
7
6
CONTINUOUS
10
336.3598542095
20
220.4858706264
11
336.3598542095
21
274.7383981044
0
LINE
5
30A
100
AcDbEntity
8
0
100
AcDbLine
62
7
6
CONTINUOUS
10
336.3354872903
20
219.0898907583
11
333.1179257515
21
126.9509835808
0
LINE
5
30B
100
AcDbEntity
8
0
100
AcDbLine
62
7
6
CONTINUOUS
10
265.3598542095
20
164.9885652495
11
334.4462273730
21
164.9885652495
0
LINE
5
30C
100
AcDbEntity
8
0
100
AcDbLine
62
7
6
CONTINUOUS
10
267.8598542095
20
165.4885652495
11
332.8598542095
21
165.4885652495
0
LINE
5
30D
100
AcDbEntity
8
DEFAULT_1
100
AcDbLine
62
2
6
CENTER
10
346.3598542095
20
126.4885652495
11
346.3598542095
21
108.6110244041
0
LINE
5
30E
100
AcDbEntity
8
DEFAULT_1
100
AcDbLine
62
2
6
CENTER
10
346.3598542095
20
126.4885652495
11
346.3598542095
21
135.0373956442
0
LINE
5
30F
100
AcDbEntity
8
0
100
AcDbLine
62
7
6
CONTINUOUS
10
356.3598542095
20
220.4858706264
11
356.3598542095
21
274.7383981044
0
LINE
5
310
100
AcDbEntity
8
0
100
AcDbLine
62
7
6
CONTINUOUS
10
356.3842211288
20
219.0898907583
11
359.6017826675
21
126.9509835808
0
LINE
5
311
100
AcDbEntity
8
0
100
AcDbLine
62
7
6
CONTINUOUS
10
359.6098542095
20
126.4885652495
11
359.6098542095
21
124.9885652495
0
LINE
5
312
100
AcDbEntity
8
0
100
AcDbLine
62
7
6
CONTINUOUS
10
267.8598542095
20
190.9885652495
11
332.8598542096
21
190.9885652495
0
LINE
5
313
100
AcDbEntity
8
0
100
AcDbLine
62
7
6
CONTINUOUS
10
274.2471363851
20
191.1885652495
11
294.3004071516
21
191.1885652495
0
LINE
5
314
100
AcDbEntity
8
0
100
AcDbLine
62
7
6
CONTINUOUS
10
294.4206553962
20
191.1885652495
11
295.2240289569
21
191.1885652495
0
LINE
5
315
100
AcDbEntity
8
0
100
AcDbLine
62
7
6
CONTINUOUS
10
295.3784206352
20
191.1885652495
11
300.3492997204
21
191.1885652495
0
LINE
5
316
100
AcDbEntity
8
0
100
AcDbLine
62
7
6
CONTINUOUS
10
317.3598542095
20
14.9885652495
11
321.3598542095
21
18.9885652495
0
LINE
5
317
100
AcDbEntity
8
DEFAULT_2
100
AcDbLine
62
8
6
HIDDEN
10
352.9855920697
20
250.7879790323
11
346.3598542095
21
249.7385652495
0
LINE
5
318
100
AcDbEntity
8
DEFAULT_2
100
AcDbLine
62
8
6
HIDDEN
10
346.3598542095
20
249.7385652495
11
339.7341163494
21
250.7879790323
0
LINE
5
319
100
AcDbEntity
8
0
100
AcDbLine
62
7
6
CONTINUOUS
10
346.3598542095
20
279.7385652495
11
339.7341163494
21
278.6891514668
0
LINE
5
31A
100
AcDbEntity
8
0
100
AcDbLine
62
7
6
CONTINUOUS
10
352.9855920697
20
278.6891514668
11
346.3598542095
21
279.7385652495
0
LINE
5
31B
100
AcDbEntity
8
0
100
AcDbLine
62
7
6
CONTINUOUS
10
86.0156390829
20
-127.5930677822
11
159.0156390829
21
-127.5930677822
0
LINE
5
31C
100
AcDbEntity
8
0
100
AcDbLine
62
7
6
CONTINUOUS
10
59.5579258081
20
-87.5930677822
11
56.5136247137
21
-85.5645647959
0
LINE
5
31D
100
AcDbEntity
8
0
100
AcDbLine
62
7
6
CONTINUOUS
10
84.0156390829
20
-125.5927273979
11
84.0156390829
21
-107.5930677822
0
LINE
5
31E
100
AcDbEntity
8
0
100
AcDbLine
62
7
6
CONTINUOUS
10
84.0156390829
20
-87.5930677822
11
84.0156390829
21
-51.0930677822
0
LINE
5
31F
100
AcDbEntity
8
0
100
AcDbLine
62
7
6
CONTINUOUS
10
103.7517553342
20
-19.0930677822
11
84.9878715855
21
-51.5930677822
0
LINE
5
320
100
AcDbEntity
8
0
100
AcDbLine
62
7
6
CONTINUOUS
10
102.7063263858
20
-34.4242601603
11
100.9309510067
21
-36.5470233925
0
LINE
5
321
100
AcDbEntity
8
0
100
AcDbLine
62
7
6
CONTINUOUS
10
103.2067636039
20
-34.0912173924
11
102.7063263858
21
-34.4242601603
0
LINE
5
322
100
AcDbEntity
8
0
100
AcDbLine
62
7
6
CONTINUOUS
10
103.4897287775
20
-35.0794596177
11
103.9161914571
21
-34.8348659927
0
LINE
5
323
100
AcDbEntity
8
0
100
AcDbLine
62
7
6
CONTINUOUS
10
193.0846249107
20
-110.8423719273
11
192.9693246142
21
-110.8430807696
0
LINE
5
324
100
AcDbEntity
8
0
100
AcDbLine
62
7
6
CONTINUOUS
10
51.9833418815
20
-110.8430677822
11
84.0156390829
21
-110.8430677822
0
LINE
5
325
100
AcDbEntity
8
0
100
AcDbLine
62
7
6
CONTINUOUS
10
161.0156390829
20
-110.8430677822
11
193.0479362842
21
-110.8430677822
0
LINE
5
326
100
AcDbEntity
8
0
100
AcDbLine
62
7
6
CONTINUOUS
10
56.3285078889
20
-107.5930677822
11
188.7027702769
21
-107.5930677822
0
LINE
5
327
100
AcDbEntity
8
0
100
AcDbLine
62
7
6
CONTINUOUS
10
51.9466532550
20
-110.8423719273
11
52.0247751679
21
-110.8429461301
0
LINE
5
328
100
AcDbEntity
8
0
100
AcDbLine
62
7
6
CONTINUOUS
10
99.2467594383
20
-39.3525199348
11
98.9740086164
21
-39.9883163499
0
LINE
5
329
100
AcDbEntity
8
0
100
AcDbLine
62
7
6
CONTINUOUS
10
97.8830053285
20
-42.5315020103
11
97.6102543765
21
-43.1672987285
0
LINE
5
32A
100
AcDbEntity
8
0
100
AcDbLine
62
7
6
CONTINUOUS
10
96.8024592360
20
-47.3231227505
11
96.5642836758
21
-47.8750529242
0
LINE
5
32B
100
AcDbEntity
8
0
100
AcDbLine
62
7
6
CONTINUOUS
10
97.4230343481
20
-47.8627237875
11
97.6335326409
21
-47.5397371460
0
LINE
5
32C
100
AcDbEntity
8
0
100
AcDbLine
62
7
6
CONTINUOUS
10
102.1581972431
20
-36.6715320419
11
103.4897287775
21
-35.0794596177
0
LINE
5
32D
100
AcDbEntity
8
0
100
AcDbLine
62
7
6
CONTINUOUS
10
97.3647609660
20
-46.9265214929
11
96.8024592360
21
-47.3231227505
0
LINE
5
32E
100
AcDbEntity
8
0
100
AcDbLine
62
7
6
CONTINUOUS
10
130.6486610361
20
-28.0851671293
11
131.0960679556
21
-27.8970871288
0
LINE
5
32F
100
AcDbEntity
8
0
100
AcDbLine
62
7
6
CONTINUOUS
10
47.1302798102
20
-106.6252401074
11
47.0516681412
21
-106.6252401074
0
LINE
5
330
100
AcDbEntity
8
0
100
AcDbLine
62
7
6
CONTINUOUS
10
197.9009983555
20
-106.6252401074
11
197.9796100245
21
-106.6252401074
0
LINE
5
331
100
AcDbEntity
8
0
100
AcDbLine
62
7
6
CONTINUOUS
10
96.5642836758
20
-47.8750529242
11
96.2321566266
21
-50.6223740013
0
LINE
5
332
100
AcDbEntity
8
0
100
AcDbLine
62
7
6
CONTINUOUS
10
97.1601004473
20
-50.0376861977
11
97.4230343481
21
-47.8627237875
0
LINE
5
333
100
AcDbEntity
8
0
100
AcDbLine
62
7
6
CONTINUOUS
10
99.9577709966
20
-48.1691512418
11
99.6948370958
21
-50.3441136519
0
LINE
5
334
100
AcDbEntity
8
0
100
AcDbLine
62
7
6
CONTINUOUS
10
104.9329084931
20
-43.7993032547
11
104.7510745251
21
-44.2231677335
0
LINE
5
335
100
AcDbEntity
8
0
100
AcDbLine
62
7
6
CONTINUOUS
10
105.6896332542
20
-44.6258008071
11
105.8714672222
21
-44.2019363283
0
LINE
5
336
100
AcDbEntity
8
0
100
AcDbLine
62
7
6
CONTINUOUS
10
105.3059145390
20
-45.0885254406
11
105.6896332542
21
-44.6258008071
0
LINE
5
337
100
AcDbEntity
8
0
100
AcDbLine
62
7
6
CONTINUOUS
10
108.0595767023
20
-38.9014569884
11
106.7280451679
21
-40.4935294126
0
LINE
5
338
100
AcDbEntity
8
0
100
AcDbLine
62
7
6
CONTINUOUS
10
107.0676038062
20
-41.6794197546
11
108.8429791854
21
-39.5566565223
0
LINE
5
339
100
AcDbEntity
8
0
100
AcDbLine
62
7
6
CONTINUOUS
10
104.7510745251
20
-44.2231677335
11
104.4128143807
21
-44.5799261016
0
LINE
5
33A
100
AcDbEntity
8
0
100
AcDbLine
62
7
6
CONTINUOUS
10
130.7496951131
20
-27.2092199176
11
130.0690895584
21
-27.6708008985
0
LINE
5
33B
100
AcDbEntity
8
0
100
AcDbLine
62
7
6
CONTINUOUS
10
132.2232902921
20
-30.3623177454
11
127.6481844360
21
-33.1190643171
0
LINE
5
33C
100
AcDbEntity
8
0
100
AcDbLine
62
7
6
CONTINUOUS
10
128.5050126703
20
-33.4607462814
11
132.5696606832
21
-31.0501839791
0
LINE
5
33D
100
AcDbEntity
8
0
100
AcDbLine
62
7
6
CONTINUOUS
10
104.8112276567
20
-45.3781788930
11
105.3059145390
21
-45.0885254406
0
LINE
5
33E
100
AcDbEntity
8
0
100
AcDbLine
62
7
6
CONTINUOUS
10
97.6335326409
20
-47.5397371460
11
97.9991747316
21
-47.3516506001
0
LINE
5
33F
100
AcDbEntity
8
0
100
AcDbLine
62
7
6
CONTINUOUS
10
104.4128143807
20
-44.5799261016
11
103.9635859870
21
-44.7636132533
0
LINE
5
340
100
AcDbEntity
8
0
100
AcDbLine
62
7
6
CONTINUOUS
10
98.0822064939
20
-46.6648203308
11
97.3647609660
21
-46.9265214929
0
LINE
5
341
100
AcDbEntity
8
0
100
AcDbLine
62
7
6
CONTINUOUS
10
199.8493451180
20
-97.5929290596
11
199.8425454342
21
-97.5930677742
0
LINE
5
342
100
AcDbEntity
8
0
100
AcDbLine
62
7
6
CONTINUOUS
10
45.1887327315
20
-97.5930677743
11
45.1819329644
21
-97.5929296013
0
LINE
5
343
100
AcDbEntity
8
0
100
AcDbLine
62
7
6
CONTINUOUS
10
104.9583160246
20
-43.3083332714
11
104.9329084931
21
-43.7993032547
0
LINE
5
344
100
AcDbEntity
8
0
100
AcDbLine
62
7
6
CONTINUOUS
10
105.8714672222
20
-44.2019363283
11
105.9423330368
21
-43.6050006742
0
LINE
5
345
100
AcDbEntity
8
0
100
AcDbLine
62
7
6
CONTINUOUS
10
100.7087315659
20
-50.4666846108
11
100.9439882191
21
-48.5206655691
0
LINE
5
346
100
AcDbEntity
8
0
100
AcDbLine
62
7
6
CONTINUOUS
10
104.1743309221
20
-51.5825132931
11
104.2573626844
21
-50.8956830238
0
LINE
5
347
100
AcDbEntity
8
0
100
AcDbLine
62
7
6
CONTINUOUS
10
104.6033283475
20
-48.0338903444
11
104.7001987633
21
-47.2325881453
0
LINE
5
348
100
AcDbEntity
8
0
100
AcDbLine
62
7
6
CONTINUOUS
10
108.2249052513
20
-38.4384635441
11
108.0595767023
21
-38.9014569884
0
LINE
5
349
100
AcDbEntity
8
0
100
AcDbLine
62
7
6
CONTINUOUS
10
108.8429791854
20
-39.5566565223
11
109.0822822615
21
-39.0052139257
0
LINE
5
34A
100
AcDbEntity
8
0
100
AcDbLine
62
7
6
CONTINUOUS
10
115.5874358526
20
-39.5930677822
11
108.6592326223
21
-51.5930677822
0
LINE
5
34B
100
AcDbEntity
8
0
100
AcDbLine
62
7
6
CONTINUOUS
10
125.2832611022
20
-25.5255191357
11
122.1219630855
21
-29.8597024320
0
LINE
5
34C
100
AcDbEntity
8
0
100
AcDbLine
62
7
6
CONTINUOUS
10
122.9259641253
20
-29.9307832653
11
125.1633422916
21
-26.8819304749
0
LINE
5
34D
100
AcDbEntity
8
0
100
AcDbLine
62
7
6
CONTINUOUS
10
130.2453073351
20
-28.4740618886
11
130.6486610361
21
-28.0851671293
0
LINE
5
34E
100
AcDbEntity
8
0
100
AcDbLine
62
7
6
CONTINUOUS
10
132.5696606832
20
-31.0501839791
11
132.9730143843
21
-30.6612892199
0
LINE
5
34F
100
AcDbEntity
8
0
100
AcDbLine
62
7
6
CONTINUOUS
10
142.0262971195
20
-39.6899964437
11
142.9846068328
21
-39.3185896527
0
LINE
5
350
100
AcDbEntity
8
0
100
AcDbLine
62
7
6
CONTINUOUS
10
142.7172716316
20
-38.8077903502
11
141.9097691936
21
-39.1002696777
0
LINE
5
351
100
AcDbEntity
8
0
100
AcDbLine
62
7
6
CONTINUOUS
10
47.1302798102
20
-88.5608954570
11
47.0516681412
21
-88.5608954570
0
LINE
5
352
100
AcDbEntity
8
0
100
AcDbLine
62
7
6
CONTINUOUS
10
197.9009983555
20
-88.5608954570
11
197.9796100245
21
-88.5608954570
0
LINE
5
353
100
AcDbEntity
8
0
100
AcDbLine
62
7
6
CONTINUOUS
10
84.9878715855
20
-51.5930677822
11
103.7517553342
21
-84.0930677822
0
LINE
5
354
100
AcDbEntity
8
0
100
AcDbLine
62
7
6
CONTINUOUS
10
108.7011273956
20
-14.6217192077
11
108.7011273956
21
-15.1568845285
0
LINE
5
355
100
AcDbEntity
8
0
100
AcDbLine
62
7
6
CONTINUOUS
10
108.8591655961
20
-14.5622488493
11
108.8591655961
21
-15.0965300055
0
LINE
5
356
100
AcDbEntity
8
0
100
AcDbLine
62
7
6
CONTINUOUS
10
109.4913129724
20
-14.3321247941
11
109.4913129724
21
-14.8630121740
0
LINE
5
357
100
AcDbEntity
8
0
100
AcDbLine
62
7
6
CONTINUOUS
10
110.1234603488
20
-14.1142372676
11
110.1234603488
21
-14.6419511159
0
LINE
5
358
100
AcDbEntity
8
0
100
AcDbLine
62
7
6
CONTINUOUS
10
109.0822822615
20
-39.0052139257
11
109.1170437110
21
-38.4330205432
0
LINE
5
359
100
AcDbEntity
8
0
100
AcDbLine
62
7
6
CONTINUOUS
10
130.0690895584
20
-27.6708008985
11
129.7097915272
21
-28.2605113941
0
LINE
5
35A
100
AcDbEntity
8
0
100
AcDbLine
62
7
6
CONTINUOUS
10
132.6896900140
20
-29.8153167622
11
132.2232902921
21
-30.3623177454
0
LINE
5
35B
100
AcDbEntity
8
0
100
AcDbLine
62
7
6
CONTINUOUS
10
141.4562078789
20
-35.2327693860
11
140.4014974460
21
-36.0940587936
0
LINE
5
35C
100
AcDbEntity
8
0
100
AcDbLine
62
7
6
CONTINUOUS
10
141.7619569490
20
-35.8762880925
11
136.6202446503
21
-40.0750730875
0
LINE
5
35D
100
AcDbEntity
8
0
100
AcDbLine
62
7
6
CONTINUOUS
10
137.0578341476
20
-40.6109326999
11
143.2542565099
21
-35.5508585988
0
LINE
5
35E
100
AcDbEntity
8
0
100
AcDbLine
62
7
6
CONTINUOUS
10
140.5525037156
20
-39.8106168491
11
139.8519331889
21
-40.3074122670
0
LINE
5
35F
100
AcDbEntity
8
0
100
AcDbLine
62
7
6
CONTINUOUS
10
140.1192683901
20
-40.8182115695
11
140.9706461922
21
-40.2424886881
0
LINE
5
360
100
AcDbEntity
8
0
100
AcDbLine
62
7
6
CONTINUOUS
10
141.9097691936
20
-39.1002696777
11
140.5525037156
21
-39.8106168491
0
LINE
5
361
100
AcDbEntity
8
0
100
AcDbLine
62
7
6
CONTINUOUS
10
140.9706461922
20
-40.2424886881
11
142.0262971195
21
-39.6899964437
0
LINE
5
362
100
AcDbEntity
8
0
100
AcDbLine
62
7
6
CONTINUOUS
10
143.4164342918
20
-42.3461415932
11
142.3607833645
21
-42.8986338376
0
LINE
5
363
100
AcDbEntity
8
0
100
AcDbLine
62
7
6
CONTINUOUS
10
142.4773112904
20
-43.4883606036
11
143.8345767684
21
-42.7780134322
0
LINE
5
364
100
AcDbEntity
8
0
100
AcDbLine
62
7
6
CONTINUOUS
10
145.4098336459
20
-46.7127772989
11
144.5929092603
21
-47.0446296016
0
LINE
5
365
100
AcDbEntity
8
0
100
AcDbLine
62
7
6
CONTINUOUS
10
142.3607833645
20
-42.8986338376
11
141.4024734400
21
-43.2700407392
0
LINE
5
366
100
AcDbEntity
8
0
100
AcDbLine
62
7
6
CONTINUOUS
10
141.6698086412
20
-43.7808400417
11
142.4773112904
21
-43.4883606036
0
LINE
5
367
100
AcDbEntity
8
0
100
AcDbLine
62
7
6
CONTINUOUS
10
142.2274239494
20
-47.3328424093
11
141.7344797093
21
-47.5090592689
0
LINE
5
368
100
AcDbEntity
8
0
100
AcDbLine
62
7
6
CONTINUOUS
10
145.1555817055
20
-47.4407028159
11
145.6485258273
21
-47.2644859707
0
LINE
5
369
100
AcDbEntity
8
0
100
AcDbLine
62
7
6
CONTINUOUS
10
140.6300854432
20
-45.6538689688
11
139.8174629439
21
-45.9067609343
0
LINE
5
36A
100
AcDbEntity
8
0
100
AcDbLine
62
7
6
CONTINUOUS
10
139.9887754202
20
-46.4572425295
11
140.8013979195
21
-46.2043505640
0
LINE
5
36B
100
AcDbEntity
8
0
100
AcDbLine
62
7
6
CONTINUOUS
10
51.9466532550
20
-84.3437636371
11
52.0619535516
21
-84.3430547948
0
LINE
5
36C
100
AcDbEntity
8
0
100
AcDbLine
62
7
6
CONTINUOUS
10
56.3285078889
20
-87.5930677822
11
188.7027702769
21
-87.5930677822
0
LINE
5
36D
100
AcDbEntity
8
0
100
AcDbLine
62
7
6
CONTINUOUS
10
51.9833418815
20
-84.3430677822
11
84.0156390829
21
-84.3430677822
0
LINE
5
36E
100
AcDbEntity
8
0
100
AcDbLine
62
7
6
CONTINUOUS
10
161.0156390829
20
-84.3430677822
11
193.0479362842
21
-84.3430677822
0
LINE
5
36F
100
AcDbEntity
8
0
100
AcDbLine
62
7
6
CONTINUOUS
10
103.7517553342
20
-84.0930677822
11
141.2795228315
21
-84.0930677822
0
LINE
5
370
100
AcDbEntity
8
0
100
AcDbLine
62
7
6
CONTINUOUS
10
193.0846249107
20
-84.3437636371
11
193.0065029978
21
-84.3431894342
0
LINE
5
371
100
AcDbEntity
8
0
100
AcDbLine
62
7
6
CONTINUOUS
10
99.8303044661
20
-47.8053076140
11
99.9577709966
21
-48.1691512418
0
LINE
5
372
100
AcDbEntity
8
0
100
AcDbLine
62
7
6
CONTINUOUS
10
108.1856929517
20
-37.9547182445
11
108.2249052513
21
-38.4384635441
0
LINE
5
373
100
AcDbEntity
8
0
100
AcDbLine
62
7
6
CONTINUOUS
10
110.9136459256
20
-13.8587589424
11
110.9136459256
21
-14.3828000798
0
LINE
5
374
100
AcDbEntity
8
0
100
AcDbLine
62
7
6
CONTINUOUS
10
112.3359788788
20
-13.4450330642
11
112.3359788788
21
-13.9632345193
0
LINE
5
375
100
AcDbEntity
8
0
100
AcDbLine
62
7
6
CONTINUOUS
10
113.1261644557
20
-13.2402242136
11
113.1261644557
21
-13.7555830487
0
LINE
5
376
100
AcDbEntity
8
0
100
AcDbLine
62
7
6
CONTINUOUS
10
113.7583118320
20
-13.0889993234
11
113.7583118320
21
-13.6022793213
0
LINE
5
377
100
AcDbEntity
8
0
100
AcDbLine
62
7
6
CONTINUOUS
10
114.3904592083
20
-12.9488486657
11
114.3904592083
21
-13.4602170796
0
LINE
5
378
100
AcDbEntity
8
0
100
AcDbLine
62
7
6
CONTINUOUS
10
114.7065338008
20
-12.8828875328
11
114.7065338008
21
-13.3933612224
0
LINE
5
379
100
AcDbEntity
8
0
100
AcDbLine
62
7
6
CONTINUOUS
10
114.8645701927
20
-12.8509294419
11
114.8645701927
21
-13.3609707713
0
LINE
5
37A
100
AcDbEntity
8
0
100
AcDbLine
62
7
6
CONTINUOUS
10
115.5156390829
20
-12.7264155957
11
115.5156390829
21
-13.2347793898
0
LINE
5
37B
100
AcDbEntity
8
0
100
AcDbLine
62
7
6
CONTINUOUS
10
116.1288667540
20
-12.6195815973
11
116.1288667540
21
-13.1265148807
0
LINE
5
37C
100
AcDbEntity
8
0
100
AcDbLine
62
7
6
CONTINUOUS
10
116.2869031459
20
-12.5936801425
11
116.2869031459
21
-13.1002678245
0
LINE
5
37D
100
AcDbEntity
8
0
100
AcDbLine
62
7
6
CONTINUOUS
10
116.7610141303
20
-12.5199645669
11
116.7610141303
21
-13.0255712575
0
LINE
5
37E
100
AcDbEntity
8
0
100
AcDbLine
62
7
6
CONTINUOUS
10
127.6481844360
20
-33.1190643171
11
127.3329420306
21
-33.9095906597
0
LINE
5
37F
100
AcDbEntity
8
0
100
AcDbLine
62
7
6
CONTINUOUS
10
132.9730143843
20
-30.6612892199
11
133.3323099640
21
-30.0715777467
0
LINE
5
380
100
AcDbEntity
8
0
100
AcDbLine
62
7
6
CONTINUOUS
10
139.4529798716
20
-40.6463573239
11
138.9566827872
21
-41.1663832129
0
LINE
5
381
100
AcDbEntity
8
0
100
AcDbLine
62
7
6
CONTINUOUS
10
139.8519331889
20
-40.3074122670
11
139.4529798716
21
-40.6463573239
0
LINE
5
382
100
AcDbEntity
8
0
100
AcDbLine
62
7
6
CONTINUOUS
10
144.5351470838
20
-42.2812181249
11
144.9341008236
21
-41.9422728469
0
LINE
5
383
100
AcDbEntity
8
0
100
AcDbLine
62
7
6
CONTINUOUS
10
143.8345767684
20
-42.7780134322
11
144.5351470838
21
-42.2812181249
0
LINE
5
384
100
AcDbEntity
8
0
100
AcDbLine
62
7
6
CONTINUOUS
10
144.2678118826
20
-41.7704188224
11
143.4164342918
21
-42.3461415932
0
LINE
5
385
100
AcDbEntity
8
0
100
AcDbLine
62
7
6
CONTINUOUS
10
141.7344797093
20
-47.5090592689
11
141.1004640212
21
-47.9347819158
0
LINE
5
386
100
AcDbEntity
8
0
100
AcDbLine
62
7
6
CONTINUOUS
10
144.5929092603
20
-47.0446296016
11
143.9588936314
21
-47.4703522413
0
LINE
5
387
100
AcDbEntity
8
0
100
AcDbLine
62
7
6
CONTINUOUS
10
141.8181542082
20
-48.1958115318
11
142.2971522729
21
-47.9051324687
0
LINE
5
388
100
AcDbEntity
8
0
100
AcDbLine
62
7
6
CONTINUOUS
10
144.6765837592
20
-47.7313818645
11
145.1555817055
21
-47.4407028159
0
LINE
5
389
100
AcDbEntity
8
0
100
AcDbLine
62
7
6
CONTINUOUS
10
146.5737879801
20
-50.6364874039
11
147.3907128390
21
-50.3046350435
0
LINE
5
38A
100
AcDbEntity
8
0
100
AcDbLine
62
7
6
CONTINUOUS
10
146.8280403938
20
-49.9085618293
11
146.3350957987
21
-50.0847787321
0
LINE
5
38B
100
AcDbEntity
8
0
100
AcDbLine
62
7
6
CONTINUOUS
10
100.6890551779
20
-47.7929781498
11
100.4064448496
21
-47.2942344265
0
LINE
5
38C
100
AcDbEntity
8
0
100
AcDbLine
62
7
6
CONTINUOUS
10
104.7818384528
20
-42.8562240080
11
104.9583160246
21
-43.3083332714
0
LINE
5
38D
100
AcDbEntity
8
0
100
AcDbLine
62
7
6
CONTINUOUS
10
105.9423330368
20
-43.6050006742
11
105.8113140906
21
-43.0469251689
0
LINE
5
38E
100
AcDbEntity
8
0
100
AcDbLine
62
7
6
CONTINUOUS
10
117.9374491685
20
-25.7281162998
11
117.9647297187
21
-33.0832493347
0
LINE
5
38F
100
AcDbEntity
8
0
100
AcDbLine
62
7
6
CONTINUOUS
10
117.3931633152
20
-12.4309384822
11
117.3931633152
21
-12.9353655189
0
LINE
5
390
100
AcDbEntity
8
0
100
AcDbLine
62
7
6
CONTINUOUS
10
118.1833470835
20
-12.3344397617
11
118.1833470835
21
-12.8375943695
0
LINE
5
391
100
AcDbEntity
8
0
100
AcDbLine
62
7
6
CONTINUOUS
10
121.9762358629
20
-12.0967981636
11
121.9762358629
21
-12.5968466148
0
LINE
5
392
100
AcDbEntity
8
DEFAULT_1
100
AcDbLine
62
2
6
CENTER
10
122.5156390829
20
-51.5930677822
11
122.5156390829
21
-20.0930677822
0
LINE
5
393
100
AcDbEntity
8
DEFAULT_1
100
AcDbLine
62
2
6
CENTER
10
122.5156390829
20
-51.5930677822
11
122.5156390829
21
-83.0930677822
0
LINE
5
394
100
AcDbEntity
8
0
100
AcDbLine
62
7
6
CONTINUOUS
10
122.5989722175
20
-12.0931568132
11
122.5989722175
21
-12.5931579694
0
LINE
5
395
100
AcDbEntity
8
0
100
AcDbLine
62
7
6
CONTINUOUS
10
123.2405315198
20
-12.0998051468
11
123.2405315198
21
-12.5998926604
0
LINE
5
396
100
AcDbEntity
8
0
100
AcDbLine
62
7
6
CONTINUOUS
10
118.6158078149
20
-33.7995818567
11
118.6797508956
21
-27.2984295003
0
LINE
5
397
100
AcDbEntity
8
0
100
AcDbLine
62
7
6
CONTINUOUS
10
122.1219630855
20
-29.8597024320
11
122.0320239566
21
-30.8770111739
0
LINE
5
398
100
AcDbEntity
8
0
100
AcDbLine
62
7
6
CONTINUOUS
10
125.1633422916
20
-26.8819304749
11
124.8785350747
21
-30.1034078807
0
LINE
5
399
100
AcDbEntity
8
0
100
AcDbLine
62
7
6
CONTINUOUS
10
124.7885959458
20
-31.1207166226
11
124.5787380064
21
-33.4944367038
0
LINE
5
39A
100
AcDbEntity
8
0
100
AcDbLine
62
7
6
CONTINUOUS
10
125.2678810037
20
-33.5553630660
11
125.4777389431
21
-31.1816429848
0
LINE
5
39B
100
AcDbEntity
8
0
100
AcDbLine
62
7
6
CONTINUOUS
10
125.5676780719
20
-30.1643342428
11
125.9724040994
21
-25.5864454978
0
LINE
5
39C
100
AcDbEntity
8
0
100
AcDbLine
62
7
6
CONTINUOUS
10
126.6263114815
20
-31.2831869992
11
126.7162506104
21
-30.2658782573
0
LINE
5
39D
100
AcDbEntity
8
0
100
AcDbLine
62
7
6
CONTINUOUS
10
132.8157871351
20
-29.4991058265
11
132.6896900140
21
-29.8153167622
0
LINE
5
39E
100
AcDbEntity
8
0
100
AcDbLine
62
7
6
CONTINUOUS
10
131.1886617307
20
-35.4471565666
11
131.5039041361
21
-34.6566302240
0
LINE
5
39F
100
AcDbEntity
8
0
100
AcDbLine
62
7
6
CONTINUOUS
10
133.3323099640
20
-30.0715777467
11
133.4584070852
21
-29.7553668110
0
LINE
5
3A0
100
AcDbEntity
8
0
100
AcDbLine
62
7
6
CONTINUOUS
10
139.4282913250
20
-41.7004130418
11
140.1192683901
21
-40.8182115695
0
LINE
5
3A1
100
AcDbEntity
8
0
100
AcDbLine
62
7
6
CONTINUOUS
10
144.9587892647
20
-40.8882171842
11
144.2678118826
21
-41.7704188224
0
LINE
5
3A2
100
AcDbEntity
8
0
100
AcDbLine
62
7
6
CONTINUOUS
10
144.9341008236
20
-41.9422728469
11
145.4303978025
21
-41.4222470131
0
LINE
5
3A3
100
AcDbEntity
8
0
100
AcDbLine
62
7
6
CONTINUOUS
10
147.3907128390
20
-50.3046350435
11
148.0247284680
21
-49.8789124038
0
LINE
5
3A4
100
AcDbEntity
8
0
100
AcDbLine
62
7
6
CONTINUOUS
10
56.5136248077
20
-109.6215707058
11
59.5579258081
21
-107.5930677822
0
LINE
5
3A5
100
AcDbEntity
8
0
100
AcDbLine
62
7
6
CONTINUOUS
10
147.3070383402
20
-49.6178827806
11
146.8280403938
21
-49.9085618293
0
LINE
5
3A6
100
AcDbEntity
8
0
100
AcDbLine
62
7
6
CONTINUOUS
10
105.8113140906
20
-43.0469251689
11
105.3674422575
21
-42.3546386488
0
LINE
5
3A7
100
AcDbEntity
8
0
100
AcDbLine
62
7
6
CONTINUOUS
10
108.6592326223
20
-51.5930677822
11
115.5874358526
21
-63.5930677822
0
LINE
5
3A8
100
AcDbEntity
8
0
100
AcDbLine
62
7
6
CONTINUOUS
10
109.1170437110
20
-38.4330205432
11
108.8906710185
21
-37.6424273320
0
LINE
5
3A9
100
AcDbEntity
8
0
100
AcDbLine
62
7
6
CONTINUOUS
10
127.9816413638
20
-12.4780082967
11
127.9816413638
21
-12.9830583481
0
LINE
5
3AA
100
AcDbEntity
8
0
100
AcDbLine
62
7
6
CONTINUOUS
10
128.9298633326
20
-12.6241488050
11
128.9298633326
21
-13.1311430776
0
LINE
5
3AB
100
AcDbEntity
8
0
100
AcDbLine
62
7
6
CONTINUOUS
10
129.2656390829
20
-12.6816437003
11
129.2656390829
21
-13.1894070091
0
LINE
5
3AC
100
AcDbEntity
8
0
100
AcDbLine
62
7
6
CONTINUOUS
10
133.4584070852
20
-29.7553668110
11
133.6034992834
21
-29.0802363131
0
LINE
5
3AD
100
AcDbEntity
8
0
100
AcDbLine
62
7
6
CONTINUOUS
10
138.9566827872
20
-41.1663832129
11
138.6646615396
21
-41.7096442772
0
LINE
5
3AE
100
AcDbEntity
8
0
100
AcDbLine
62
7
6
CONTINUOUS
10
145.4303978025
20
-41.4222470131
11
145.7224189972
21
-40.8789859765
0
LINE
5
3AF
100
AcDbEntity
8
0
100
AcDbLine
62
7
6
CONTINUOUS
10
129.4438423131
20
-63.5930677822
11
136.3720455434
21
-51.5930677822
0
LINE
5
3B0
100
AcDbEntity
8
0
100
AcDbLine
62
7
6
CONTINUOUS
10
141.1004640212
20
-47.9347819158
11
140.6633032799
21
-48.5688371013
0
LINE
5
3B1
100
AcDbEntity
8
0
100
AcDbLine
62
7
6
CONTINUOUS
10
143.9588936314
20
-47.4703522413
11
143.5217322961
21
-48.1044021819
0
LINE
5
3B2
100
AcDbEntity
8
0
100
AcDbLine
62
7
6
CONTINUOUS
10
141.5220650184
20
-48.5803609173
11
141.8181542082
21
-48.1958115318
0
LINE
5
3B3
100
AcDbEntity
8
0
100
AcDbLine
62
7
6
CONTINUOUS
10
144.3804945694
20
-48.1159312501
11
144.6765837592
21
-47.7313818645
0
LINE
5
3B4
100
AcDbEntity
8
0
100
AcDbLine
62
7
6
CONTINUOUS
10
115.5874358526
20
-63.5930677822
11
129.4438423131
21
-63.5930677822
0
LINE
5
3B5
100
AcDbEntity
8
0
100
AcDbLine
62
7
6
CONTINUOUS
10
185.4733523577
20
-107.5930677822
11
188.5176534520
21
-109.6215707685
0
LINE
5
3B6
100
AcDbEntity
8
0
100
AcDbLine
62
7
6
CONTINUOUS
10
100.4064448496
20
-47.2942344265
11
99.7720310840
21
-46.8691053194
0
LINE
5
3B7
100
AcDbEntity
8
0
100
AcDbLine
62
7
6
CONTINUOUS
10
99.5200169100
20
-47.5355070955
11
99.8303044661
21
-47.8053076140
0
LINE
5
3B8
100
AcDbEntity
8
0
100
AcDbLine
62
7
6
CONTINUOUS
10
104.4034759970
20
-42.4429755584
11
104.7818384528
21
-42.8562240080
0
LINE
5
3B9
100
AcDbEntity
8
0
100
AcDbLine
62
7
6
CONTINUOUS
10
108.8906710185
20
-37.6424273320
11
108.5163508964
21
-37.0287303438
0
LINE
5
3BA
100
AcDbEntity
8
0
100
AcDbLine
62
7
6
CONTINUOUS
10
107.9419399864
20
-37.4502212423
11
108.1856929517
21
-37.9547182445
0
LINE
5
3BB
100
AcDbEntity
8
0
100
AcDbLine
62
7
6
CONTINUOUS
10
113.5705981098
20
-26.8017704489
11
115.4806318416
21
-34.5704106866
0
LINE
5
3BC
100
AcDbEntity
8
0
100
AcDbLine
62
7
6
CONTINUOUS
10
116.1524550814
20
-34.4052331252
11
114.6488114568
21
-28.2894948687
0
LINE
5
3BD
100
AcDbEntity
8
0
100
AcDbLine
62
7
6
CONTINUOUS
10
118.6797508956
20
-27.2984295003
11
120.1833945202
21
-33.4141677569
0
LINE
5
3BE
100
AcDbEntity
8
0
100
AcDbLine
62
7
6
CONTINUOUS
10
120.8552177600
20
-33.2489901955
11
118.9451840282
21
-25.4803499577
0
LINE
5
3BF
100
AcDbEntity
8
0
100
AcDbLine
62
7
6
CONTINUOUS
10
132.7907267190
20
-28.9393700851
11
132.8157871351
21
-29.4991058265
0
LINE
5
3C0
100
AcDbEntity
8
0
100
AcDbLine
62
7
6
CONTINUOUS
10
130.1941594417
20
-12.8564318802
11
130.1941594417
21
-13.3665475994
0
LINE
5
3C1
100
AcDbEntity
8
0
100
AcDbLine
62
7
6
CONTINUOUS
10
131.1423814105
20
-13.0591445450
11
131.1423814105
21
-13.5720161336
0
LINE
5
3C2
100
AcDbEntity
8
0
100
AcDbLine
62
7
6
CONTINUOUS
10
133.3548992623
20
-13.6296130728
11
133.3548992623
21
-14.1504035745
0
LINE
5
3C3
100
AcDbEntity
8
0
100
AcDbLine
62
7
6
CONTINUOUS
10
135.5674171141
20
-14.3418624928
11
135.5674171141
21
-14.8728926001
0
LINE
5
3C4
100
AcDbEntity
8
0
100
AcDbLine
62
7
6
CONTINUOUS
10
138.6646615396
20
-41.7096442772
11
138.4795748752
21
-42.4572259909
0
LINE
5
3C5
100
AcDbEntity
8
0
100
AcDbLine
62
7
6
CONTINUOUS
10
139.2870774055
20
-42.1647466150
11
139.4282913250
21
-41.7004130418
0
LINE
5
3C6
100
AcDbEntity
8
0
100
AcDbLine
62
7
6
CONTINUOUS
10
145.1000031841
20
-40.4238836110
11
144.9587892647
21
-40.8882171842
0
LINE
5
3C7
100
AcDbEntity
8
0
100
AcDbLine
62
7
6
CONTINUOUS
10
141.3949390482
20
-48.9443236758
11
141.5220650184
21
-48.5803609173
0
LINE
5
3C8
100
AcDbEntity
8
0
100
AcDbLine
62
7
6
CONTINUOUS
10
144.2533685992
20
-48.4798940086
11
144.3804945694
21
-48.1159312501
0
LINE
5
3C9
100
AcDbEntity
8
0
100
AcDbLine
62
7
6
CONTINUOUS
10
148.0247284680
20
-49.8789124038
11
148.4618891649
21
-49.2448572238
0
LINE
5
3CA
100
AcDbEntity
8
0
100
AcDbLine
62
7
6
CONTINUOUS
10
147.6031275300
20
-49.2333333951
11
147.3070383402
21
-49.6178827806
0
LINE
5
3CB
100
AcDbEntity
8
0
100
AcDbLine
62
7
6
CONTINUOUS
10
145.4049909800
20
-50.8950507573
11
146.5737879801
21
-50.6364874039
0
LINE
5
3CC
100
AcDbEntity
8
0
100
AcDbLine
62
7
6
CONTINUOUS
10
99.0269082889
20
-47.3597500137
11
99.5200169100
21
-47.5355070955
0
LINE
5
3CD
100
AcDbEntity
8
0
100
AcDbLine
62
7
6
CONTINUOUS
10
103.8232288077
20
-42.0685872694
11
104.4034759970
21
-42.4429755584
0
LINE
5
3CE
100
AcDbEntity
8
0
100
AcDbLine
62
7
6
CONTINUOUS
10
100.9309510067
20
-36.5470233925
11
107.0676038062
21
-41.6794197546
0
LINE
5
3CF
100
AcDbEntity
8
0
100
AcDbLine
62
7
6
CONTINUOUS
10
106.7280451679
20
-40.4935294126
11
102.1581972431
21
-36.6715320419
0
LINE
5
3D0
100
AcDbEntity
8
0
100
AcDbLine
62
7
6
CONTINUOUS
10
105.3674422575
20
-42.3546386488
11
104.8326532556
21
-41.8742846478
0
LINE
5
3D1
100
AcDbEntity
8
0
100
AcDbLine
62
7
6
CONTINUOUS
10
108.5163508964
20
-37.0287303438
11
107.9374892620
21
-36.3942826653
0
LINE
5
3D2
100
AcDbEntity
8
0
100
AcDbLine
62
7
6
CONTINUOUS
10
107.4936454172
20
-36.9249734734
11
107.9419399864
21
-37.4502212423
0
LINE
5
3D3
100
AcDbEntity
8
0
100
AcDbLine
62
7
6
CONTINUOUS
10
114.6488114568
20
-28.2894948687
11
117.7200417867
21
-34.0198190253
0
LINE
5
3D4
100
AcDbEntity
8
0
100
AcDbLine
62
7
6
CONTINUOUS
10
117.9647297187
20
-33.0832493347
11
114.5783329695
21
-26.5540041068
0
LINE
5
3D5
100
AcDbEntity
8
0
100
AcDbLine
62
7
6
CONTINUOUS
10
136.5156390829
20
-14.6925183358
11
136.5156390829
21
-15.2287401013
0
LINE
5
3D6
100
AcDbEntity
8
0
100
AcDbLine
62
7
6
CONTINUOUS
10
140.6633032799
20
-48.5688371013
11
140.5640683690
21
-49.1617137895
0
LINE
5
3D7
100
AcDbEntity
8
0
100
AcDbLine
62
7
6
CONTINUOUS
10
143.5217322961
20
-48.1044021819
11
143.4224978016
21
-48.6972841367
0
LINE
5
3D8
100
AcDbEntity
8
0
100
AcDbLine
62
7
6
CONTINUOUS
10
145.7224189972
20
-40.8789859765
11
145.9075056220
21
-40.1314042835
0
LINE
5
3D9
100
AcDbEntity
8
0
100
AcDbLine
62
7
6
CONTINUOUS
10
147.7302535001
20
-48.8693706366
11
147.6031275300
21
-49.2333333951
0
LINE
5
3DA
100
AcDbEntity
8
0
100
AcDbLine
62
7
6
CONTINUOUS
10
144.2222484429
20
-51.0391571467
11
145.4049909800
21
-50.8950507573
0
LINE
5
3DB
100
AcDbEntity
8
0
100
AcDbLine
62
7
6
CONTINUOUS
10
144.4904459203
20
-50.4256885937
11
144.1525194811
21
-50.4668618478
0
LINE
5
3DC
100
AcDbEntity
8
0
100
AcDbLine
62
7
6
CONTINUOUS
10
146.3350957987
20
-50.0847787321
11
145.9971693596
21
-50.1259519862
0
LINE
5
3DD
100
AcDbEntity
8
0
100
AcDbLine
62
7
6
CONTINUOUS
10
145.6485258273
20
-47.2644859707
11
145.9864522665
21
-47.2233127166
0
LINE
5
3DE
100
AcDbEntity
8
0
100
AcDbLine
62
7
6
CONTINUOUS
10
146.0856865242
20
-46.6304307906
11
145.4098336459
21
-46.7127772989
0
LINE
5
3DF
100
AcDbEntity
8
0
100
AcDbLine
62
7
6
CONTINUOUS
10
143.0255601321
20
-51.0688066010
11
144.2222484429
21
-51.0391571467
0
LINE
5
3E0
100
AcDbEntity
8
0
100
AcDbLine
62
7
6
CONTINUOUS
10
144.1525194811
20
-50.4668618478
11
143.1247943899
21
-50.4759246751
0
LINE
5
3E1
100
AcDbEntity
8
DEFAULT_1
100
AcDbLine
62
2
6
CENTER
10
122.5156390829
20
-51.5930677822
11
91.0156390829
21
-51.5930677822
0
LINE
5
3E2
100
AcDbEntity
8
DEFAULT_1
100
AcDbLine
62
2
6
CENTER
10
122.5156390829
20
-51.5930677822
11
154.0156390829
21
-51.5930677822
0
LINE
5
3E3
100
AcDbEntity
8
0
100
AcDbLine
62
7
6
CONTINUOUS
10
96.2321566266
20
-50.6223740013
11
104.1743309221
21
-51.5825132931
0
LINE
5
3E4
100
AcDbEntity
8
0
100
AcDbLine
62
7
6
CONTINUOUS
10
104.2573626844
20
-50.8956830238
11
100.7087315659
21
-50.4666846108
0
LINE
5
3E5
100
AcDbEntity
8
0
100
AcDbLine
62
7
6
CONTINUOUS
10
99.6948370958
20
-50.3441136519
11
97.1601004473
21
-50.0376861977
0
LINE
5
3E6
100
AcDbEntity
8
0
100
AcDbLine
62
7
6
CONTINUOUS
10
98.5199605804
20
-47.2984644771
11
99.0269082889
21
-47.3597500137
0
LINE
5
3E7
100
AcDbEntity
8
0
100
AcDbLine
62
7
6
CONTINUOUS
10
99.2789224628
20
-46.6933482376
11
98.6029923427
21
-46.6116342078
0
LINE
5
3E8
100
AcDbEntity
8
0
100
AcDbLine
62
7
6
CONTINUOUS
10
103.4033895632
20
-44.7742292826
11
102.7322255199
21
-44.6117729298
0
LINE
5
3E9
100
AcDbEntity
8
0
100
AcDbLine
62
7
6
CONTINUOUS
10
102.4594745679
20
-45.2475696480
11
103.2870653078
21
-45.4771308989
0
LINE
5
3EA
100
AcDbEntity
8
0
100
AcDbLine
62
7
6
CONTINUOUS
10
99.7720310840
20
-46.8691053194
11
99.2789224628
21
-46.6933482376
0
LINE
5
3EB
100
AcDbEntity
8
0
100
AcDbLine
62
7
6
CONTINUOUS
10
97.6102543765
20
-43.1672987285
11
102.4594745679
21
-45.2475696480
0
LINE
5
3EC
100
AcDbEntity
8
0
100
AcDbLine
62
7
6
CONTINUOUS
10
102.7322255199
20
-44.6117729298
11
97.8830053285
21
-42.5315020103
0
LINE
5
3ED
100
AcDbEntity
8
0
100
AcDbLine
62
7
6
CONTINUOUS
10
98.9740086164
20
-39.9883163499
11
103.8232288077
21
-42.0685872694
0
LINE
5
3EE
100
AcDbEntity
8
0
100
AcDbLine
62
7
6
CONTINUOUS
10
104.0959796297
20
-41.4327908543
11
99.2467594383
21
-39.3525199348
0
LINE
5
3EF
100
AcDbEntity
8
0
100
AcDbLine
62
7
6
CONTINUOUS
10
104.8326532556
20
-41.8742846478
11
104.0959796297
21
-41.4327908543
0
LINE
5
3F0
100
AcDbEntity
8
0
100
AcDbLine
62
7
6
CONTINUOUS
10
105.5351392551
20
-35.2869746767
11
107.4936454172
21
-36.9249734734
0
LINE
5
3F1
100
AcDbEntity
8
0
100
AcDbLine
62
7
6
CONTINUOUS
10
107.9374892620
20
-36.3942826653
11
105.9789830999
21
-34.7562838687
0
LINE
5
3F2
100
AcDbEntity
8
0
100
AcDbLine
62
7
6
CONTINUOUS
10
133.6034992834
20
-29.0802363131
11
133.4272790553
21
-28.2769743454
0
LINE
5
3F3
100
AcDbEntity
8
0
100
AcDbLine
62
7
6
CONTINUOUS
10
148.4618891649
20
-49.2448572238
11
148.5611240611
21
-48.6519805373
0
LINE
5
3F4
100
AcDbEntity
8
0
100
AcDbLine
62
7
6
CONTINUOUS
10
141.2795228315
20
-84.0930677822
11
160.0434065802
21
-51.5930677822
0
LINE
5
3F5
100
AcDbEntity
8
0
100
AcDbLine
62
7
6
CONTINUOUS
10
141.1639183064
20
-43.9154597657
11
141.6698086412
21
-43.7808400417
0
LINE
5
3F6
100
AcDbEntity
8
0
100
AcDbLine
62
7
6
CONTINUOUS
10
143.2231623888
20
-38.6731704050
11
142.7172716316
21
-38.8077903502
0
LINE
5
3F7
100
AcDbEntity
8
0
100
AcDbLine
62
7
6
CONTINUOUS
10
140.4537569770
20
-44.0268536952
11
141.1639183064
21
-43.9154597657
0
LINE
5
3F8
100
AcDbEntity
8
0
100
AcDbLine
62
7
6
CONTINUOUS
10
104.7001987633
20
-47.2325881453
11
100.6890551779
21
-47.7929781498
0
LINE
5
3F9
100
AcDbEntity
8
0
100
AcDbLine
62
7
6
CONTINUOUS
10
100.9439882191
20
-48.5206655691
11
104.6033283475
21
-48.0338903444
0
LINE
5
3FA
100
AcDbEntity
8
0
100
AcDbLine
62
7
6
CONTINUOUS
10
97.9991747316
20
-47.3516506001
11
98.5199605804
21
-47.2984644771
0
LINE
5
3FB
100
AcDbEntity
8
0
100
AcDbLine
62
7
6
CONTINUOUS
10
98.6029923427
20
-46.6116342078
11
98.0822064939
21
-46.6648203308
0
LINE
5
3FC
100
AcDbEntity
8
0
100
AcDbLine
62
7
6
CONTINUOUS
10
141.4024734400
20
-43.2700407392
11
140.2837629899
21
-43.3349689393
0
LINE
5
3FD
100
AcDbEntity
8
0
100
AcDbLine
62
7
6
CONTINUOUS
10
103.9635859870
20
-44.7636132533
11
103.4033895632
21
-44.7742292826
0
LINE
5
3FE
100
AcDbEntity
8
0
100
AcDbLine
62
7
6
CONTINUOUS
10
103.2870653078
20
-45.4771308989
11
104.0036881477
21
-45.5336207242
0
LINE
5
3FF
100
AcDbEntity
8
0
100
AcDbLine
62
7
6
CONTINUOUS
10
143.1247943899
20
-50.4759246751
11
142.6039591941
21
-50.4232275923
0
LINE
5
400
100
AcDbEntity
8
0
100
AcDbLine
62
7
6
CONTINUOUS
10
145.9971693596
20
-50.1259519862
11
145.4763341638
21
-50.0732549034
0
LINE
5
401
100
AcDbEntity
8
0
100
AcDbLine
62
7
6
CONTINUOUS
10
145.9864522665
20
-47.2233127166
11
146.5072879356
21
-47.2760097417
0
LINE
5
402
100
AcDbEntity
8
0
100
AcDbLine
62
7
6
CONTINUOUS
10
142.1528522034
20
-50.9428205833
11
143.0255601321
21
-51.0688066010
0
LINE
5
403
100
AcDbEntity
8
0
100
AcDbLine
62
7
6
CONTINUOUS
10
146.9583948079
20
-46.7564167651
11
146.0856865242
21
-46.6304307906
0
LINE
5
404
100
AcDbEntity
8
0
100
AcDbLine
62
7
6
CONTINUOUS
10
142.6039591941
20
-50.4232275923
11
142.0691777046
21
-50.2560683204
0
LINE
5
405
100
AcDbEntity
8
0
100
AcDbLine
62
7
6
CONTINUOUS
10
145.4763341638
20
-50.0732549034
11
144.9415527926
21
-49.9060956171
0
LINE
5
406
100
AcDbEntity
8
0
100
AcDbLine
62
7
6
CONTINUOUS
10
141.4351620165
20
-50.6817909673
11
142.1528522034
21
-50.9428205833
0
LINE
5
407
100
AcDbEntity
8
0
100
AcDbLine
62
7
6
CONTINUOUS
10
104.9388973021
20
-34.9386231690
11
105.5351392551
21
-35.2869746767
0
LINE
5
408
100
AcDbEntity
8
0
100
AcDbLine
62
7
6
CONTINUOUS
10
105.9789830999
20
-34.7562838687
11
105.2521737158
21
-34.2987321455
0
LINE
5
409
100
AcDbEntity
8
0
100
AcDbLine
62
7
6
CONTINUOUS
10
136.3720455434
20
-51.5930677822
11
129.4438423131
21
-39.5930677822
0
LINE
5
40A
100
AcDbEntity
8
0
100
AcDbLine
62
7
6
CONTINUOUS
10
132.5955136885
20
-28.4950291001
11
132.7907267190
21
-28.9393700851
0
LINE
5
40B
100
AcDbEntity
8
0
100
AcDbLine
62
7
6
CONTINUOUS
10
140.6198517938
20
-49.6195521244
11
140.8585433516
21
-50.1712555550
0
LINE
5
40C
100
AcDbEntity
8
0
100
AcDbLine
62
7
6
CONTINUOUS
10
139.8174629439
20
-45.9067609343
11
139.9887754202
21
-46.4572425295
0
LINE
5
40D
100
AcDbEntity
8
0
100
AcDbLine
62
7
6
CONTINUOUS
10
140.8013979195
20
-46.2043505640
11
140.6300854432
21
-45.6538689688
0
LINE
5
40E
100
AcDbEntity
8
0
100
AcDbLine
62
7
6
CONTINUOUS
10
138.4795748752
20
-42.4572259909
11
138.6495688491
21
-43.1491107537
0
LINE
5
40F
100
AcDbEntity
8
0
100
AcDbLine
62
7
6
CONTINUOUS
10
139.4036053314
20
-42.7544733810
11
139.2870774055
21
-42.1647466150
0
LINE
5
410
100
AcDbEntity
8
0
100
AcDbLine
62
7
6
CONTINUOUS
10
140.5640683690
20
-49.1617137895
11
140.6198517938
21
-49.6195521244
0
LINE
5
411
100
AcDbEntity
8
0
100
AcDbLine
62
7
6
CONTINUOUS
10
141.4786135470
20
-49.6310759387
11
141.3949390482
21
-48.9443236758
0
LINE
5
412
100
AcDbEntity
8
0
100
AcDbLine
62
7
6
CONTINUOUS
10
142.2971522729
20
-47.9051324687
11
142.2274239494
21
-47.3328424093
0
LINE
5
413
100
AcDbEntity
8
0
100
AcDbLine
62
7
6
CONTINUOUS
10
143.4224978016
20
-48.6972841367
11
143.4922267634
21
-49.2695794356
0
LINE
5
414
100
AcDbEntity
8
0
100
AcDbLine
62
7
6
CONTINUOUS
10
144.3509886350
20
-49.2811032354
11
144.2533685992
21
-48.4798940086
0
LINE
5
415
100
AcDbEntity
8
0
100
AcDbLine
62
7
6
CONTINUOUS
10
104.0036881477
20
-45.5336207242
11
104.8112276567
21
-45.3781788930
0
LINE
5
416
100
AcDbEntity
8
0
100
AcDbLine
62
7
6
CONTINUOUS
10
140.4014974460
20
-36.0940587936
11
141.7619569490
21
-35.8762880925
0
LINE
5
417
100
AcDbEntity
8
0
100
AcDbLine
62
7
6
CONTINUOUS
10
142.8166670126
20
-35.0149989864
11
141.4562078789
21
-35.2327693860
0
LINE
5
418
100
AcDbEntity
8
0
100
AcDbLine
62
7
6
CONTINUOUS
10
143.9333236126
20
-38.5617765309
11
143.2231623888
21
-38.6731704050
0
LINE
5
419
100
AcDbEntity
8
0
100
AcDbLine
62
7
6
CONTINUOUS
10
142.9846068328
20
-39.3185896527
11
144.1033175997
21
-39.2536612868
0
LINE
5
41A
100
AcDbEntity
8
0
100
AcDbLine
62
7
6
CONTINUOUS
10
129.4438423131
20
-39.5930677822
11
115.5874358526
21
-39.5930677822
0
LINE
5
41B
100
AcDbEntity
8
0
100
AcDbLine
62
7
6
CONTINUOUS
10
139.8409344669
20
-43.9571574671
11
140.4537569770
21
-44.0268536952
0
LINE
5
41C
100
AcDbEntity
8
0
100
AcDbLine
62
7
6
CONTINUOUS
10
104.3992475100
20
-34.7879204078
11
104.9388973021
21
-34.9386231690
0
LINE
5
41D
100
AcDbEntity
8
0
100
AcDbLine
62
7
6
CONTINUOUS
10
146.5072879356
20
-47.2760097417
11
147.0420693067
21
-47.4431690280
0
LINE
5
41E
100
AcDbEntity
8
0
100
AcDbLine
62
7
6
CONTINUOUS
10
140.2837629899
20
-43.3349689393
11
139.8217478080
21
-43.1863452200
0
LINE
5
41F
100
AcDbEntity
8
0
100
AcDbLine
62
7
6
CONTINUOUS
10
147.6760849357
20
-47.0174463883
11
146.9583948079
21
-46.7564167651
0
LINE
5
420
100
AcDbEntity
8
0
100
AcDbLine
62
7
6
CONTINUOUS
10
139.1211774001
20
-43.6831405757
11
139.8409344669
21
-43.9571574671
0
LINE
5
421
100
AcDbEntity
8
0
100
AcDbLine
62
7
6
CONTINUOUS
10
105.2521737158
20
-34.2987321455
11
104.5819572243
21
-34.0388297806
0
LINE
5
422
100
AcDbEntity
8
0
100
AcDbLine
62
7
6
CONTINUOUS
10
142.0691777046
20
-50.2560683204
11
141.6894140160
21
-49.9538654431
0
LINE
5
423
100
AcDbEntity
8
0
100
AcDbLine
62
7
6
CONTINUOUS
10
143.7309185431
20
-49.8212828391
11
144.4904459203
21
-50.4256885937
0
LINE
5
424
100
AcDbEntity
8
0
100
AcDbLine
62
7
6
CONTINUOUS
10
144.9415527926
20
-49.9060956171
11
144.5617891040
21
-49.6038927398
0
LINE
5
425
100
AcDbEntity
8
0
100
AcDbLine
62
7
6
CONTINUOUS
10
147.0420693067
20
-47.4431690280
11
147.4218329953
21
-47.7453719053
0
LINE
5
426
100
AcDbEntity
8
0
100
AcDbLine
62
7
6
CONTINUOUS
10
140.8585433516
20
-50.1712555550
11
141.4351620165
21
-50.6817909673
0
LINE
5
427
100
AcDbEntity
8
0
100
AcDbLine
62
7
6
CONTINUOUS
10
139.8217478080
20
-43.1863452200
11
139.4036053314
21
-42.7544733810
0
LINE
5
428
100
AcDbEntity
8
0
100
AcDbLine
62
7
6
CONTINUOUS
10
138.6495688491
20
-43.1491107537
11
139.1211774001
21
-43.6831405757
0
LINE
5
429
100
AcDbEntity
8
0
100
AcDbLine
62
7
6
CONTINUOUS
10
136.6202446503
20
-40.0750730875
11
137.0578341476
21
-40.6109326999
0
LINE
5
42A
100
AcDbEntity
8
0
100
AcDbLine
62
7
6
CONTINUOUS
10
141.6894140160
20
-49.9538654431
11
141.4786135470
21
-49.6310759387
0
LINE
5
42B
100
AcDbEntity
8
0
100
AcDbLine
62
7
6
CONTINUOUS
10
144.5617891040
20
-49.6038927398
11
144.3509886350
21
-49.2811032354
0
LINE
5
42C
100
AcDbEntity
8
0
100
AcDbLine
62
7
6
CONTINUOUS
10
147.4218329953
20
-47.7453719053
11
147.6326334643
21
-48.0681614097
0
LINE
5
42D
100
AcDbEntity
8
0
100
AcDbLine
62
7
6
CONTINUOUS
10
133.4272790553
20
-28.2769743454
11
133.1249618827
21
-27.7899228705
0
LINE
5
42E
100
AcDbEntity
8
0
100
AcDbLine
62
7
6
CONTINUOUS
10
143.4922267634
20
-49.2695794356
11
143.7309185431
21
-49.8212828391
0
LINE
5
42F
100
AcDbEntity
8
0
100
AcDbLine
62
7
6
CONTINUOUS
10
148.4913950993
20
-48.0796852384
11
148.2527029179
21
-47.5279765666
0
LINE
5
430
100
AcDbEntity
8
0
100
AcDbLine
62
7
6
CONTINUOUS
10
145.9075056220
20
-40.1314042835
11
145.7375116349
21
-39.4395195276
0
LINE
5
431
100
AcDbEntity
8
0
100
AcDbLine
62
7
6
CONTINUOUS
10
144.9834752582
20
-39.8341568450
11
145.1000031841
21
-40.4238836110
0
LINE
5
432
100
AcDbEntity
8
0
100
AcDbLine
62
7
6
CONTINUOUS
10
147.6326334643
20
-48.0681614097
11
147.7302535001
21
-48.8693706366
0
LINE
5
433
100
AcDbEntity
8
0
100
AcDbLine
62
7
6
CONTINUOUS
10
148.5611240611
20
-48.6519805373
11
148.4913950993
21
-48.0796852384
0
LINE
5
434
100
AcDbEntity
8
0
100
AcDbLine
62
7
6
CONTINUOUS
10
161.0156390829
20
-51.0930677822
11
161.0156390829
21
-87.5930677822
0
LINE
5
435
100
AcDbEntity
8
0
100
AcDbLine
62
7
6
CONTINUOUS
10
161.0156390829
20
-107.5930677822
11
161.0156390829
21
-125.5927273979
0
LINE
5
436
100
AcDbEntity
8
0
100
AcDbLine
62
7
6
CONTINUOUS
10
131.3042061748
20
-27.0638504070
11
130.7496951131
21
-27.2092199176
0
LINE
5
437
100
AcDbEntity
8
0
100
AcDbLine
62
7
6
CONTINUOUS
10
115.4806318416
20
-34.5704106866
11
116.1524550814
21
-34.4052331252
0
LINE
5
438
100
AcDbEntity
8
0
100
AcDbLine
62
7
6
CONTINUOUS
10
117.7200417867
20
-34.0198190253
11
118.6158078149
21
-33.7995818567
0
LINE
5
439
100
AcDbEntity
8
0
100
AcDbLine
62
7
6
CONTINUOUS
10
120.1833945202
20
-33.4141677569
11
120.8552177600
21
-33.2489901955
0
LINE
5
43A
100
AcDbEntity
8
0
100
AcDbLine
62
7
6
CONTINUOUS
10
103.7637933488
20
-33.9558236769
11
103.2067636039
21
-34.0912173924
0
LINE
5
43B
100
AcDbEntity
8
0
100
AcDbLine
62
7
6
CONTINUOUS
10
103.9161914571
20
-34.8348659927
11
104.3992475100
21
-34.7879204078
0
LINE
5
43C
100
AcDbEntity
8
0
100
AcDbLine
62
7
6
CONTINUOUS
10
124.5787380064
20
-33.4944367038
11
125.2678810037
21
-33.5553630660
0
LINE
5
43D
100
AcDbEntity
8
0
100
AcDbLine
62
7
6
CONTINUOUS
10
122.0320239566
20
-30.8770111739
11
124.7885959458
21
-31.1207166226
0
LINE
5
43E
100
AcDbEntity
8
0
100
AcDbLine
62
7
6
CONTINUOUS
10
125.4777389431
20
-31.1816429848
11
126.6263114815
21
-31.2831869992
0
LINE
5
43F
100
AcDbEntity
8
0
100
AcDbLine
62
7
6
CONTINUOUS
10
104.5819572243
20
-34.0388297806
11
103.7637933488
21
-33.9558236769
0
LINE
5
440
100
AcDbEntity
8
0
100
AcDbLine
62
7
6
CONTINUOUS
10
144.5461460699
20
-38.6314727866
11
143.9333236126
21
-38.5617765309
0
LINE
5
441
100
AcDbEntity
8
0
100
AcDbLine
62
7
6
CONTINUOUS
10
144.1033175997
20
-39.2536612868
11
144.5653327817
21
-39.4022850060
0
LINE
5
442
100
AcDbEntity
8
0
100
AcDbLine
62
7
6
CONTINUOUS
10
145.2659030971
20
-38.9054896987
11
144.5461460699
21
-38.6314727866
0
LINE
5
443
100
AcDbEntity
8
0
100
AcDbLine
62
7
6
CONTINUOUS
10
127.3329420306
20
-33.9095906597
11
131.1886617307
21
-35.4471565666
0
LINE
5
444
100
AcDbEntity
8
0
100
AcDbLine
62
7
6
CONTINUOUS
10
131.5039041361
20
-34.6566302240
11
128.5050126703
21
-33.4607462814
0
LINE
5
445
100
AcDbEntity
8
0
100
AcDbLine
62
7
6
CONTINUOUS
10
132.1230463529
20
-28.1233733591
11
132.5955136885
21
-28.4950291001
0
LINE
5
446
100
AcDbEntity
8
0
100
AcDbLine
62
7
6
CONTINUOUS
10
148.2527029179
20
-47.5279765666
11
147.6760849357
21
-47.0174463883
0
LINE
5
447
100
AcDbEntity
8
0
100
AcDbLine
62
7
6
CONTINUOUS
10
144.5653327817
20
-39.4022850060
11
144.9834752582
21
-39.8341568450
0
LINE
5
448
100
AcDbEntity
8
0
100
AcDbLine
62
7
6
CONTINUOUS
10
145.7375116349
20
-39.4395195276
11
145.2659030971
21
-38.9054896987
0
LINE
5
449
100
AcDbEntity
8
0
100
AcDbLine
62
7
6
CONTINUOUS
10
143.2542565099
20
-35.5508585988
11
142.8166670126
21
-35.0149989864
0
LINE
5
44A
100
AcDbEntity
8
0
100
AcDbLine
62
7
6
CONTINUOUS
10
118.9451840282
20
-25.4803499577
11
117.9374491685
21
-25.7281162998
0
LINE
5
44B
100
AcDbEntity
8
0
100
AcDbLine
62
7
6
CONTINUOUS
10
114.5783329695
20
-26.5540041068
11
113.5705981098
21
-26.8017704489
0
LINE
5
44C
100
AcDbEntity
8
0
100
AcDbLine
62
7
6
CONTINUOUS
10
126.7162506104
20
-30.2658782573
11
125.5676780719
21
-30.1643342428
0
LINE
5
44D
100
AcDbEntity
8
0
100
AcDbLine
62
7
6
CONTINUOUS
10
124.8785350747
20
-30.1034078807
11
122.9259641253
21
-29.9307832653
0
LINE
5
44E
100
AcDbEntity
8
0
100
AcDbLine
62
7
6
CONTINUOUS
10
125.9724040994
20
-25.5864454978
11
125.2832611022
21
-25.5255191357
0
LINE
5
44F
100
AcDbEntity
8
0
100
AcDbLine
62
7
6
CONTINUOUS
10
131.0960679556
20
-27.8970871288
11
131.6946322358
21
-27.9525323770
0
LINE
5
450
100
AcDbEntity
8
0
100
AcDbLine
62
7
6
CONTINUOUS
10
132.1169787392
20
-27.2047166350
11
131.3042061748
21
-27.0638504070
0
LINE
5
451
100
AcDbEntity
8
0
100
AcDbLine
62
7
6
CONTINUOUS
10
129.7097915272
20
-28.2605113941
11
130.2453073351
21
-28.4740618886
0
LINE
5
452
100
AcDbEntity
8
0
100
AcDbLine
62
7
6
CONTINUOUS
10
131.6946322358
20
-27.9525323770
11
132.1230463529
21
-28.1233733591
0
LINE
5
453
100
AcDbEntity
8
0
100
AcDbLine
62
7
6
CONTINUOUS
10
132.5453904049
20
-27.3755566396
11
132.1169787392
21
-27.2047166350
0
LINE
5
454
100
AcDbEntity
8
0
100
AcDbLine
62
7
6
CONTINUOUS
10
133.1249618827
20
-27.7899228705
11
132.5453904049
21
-27.3755566396
0
LINE
5
455
100
AcDbEntity
8
0
100
AcDbLine
62
7
6
CONTINUOUS
10
160.0434065802
20
-51.5930677822
11
141.2795228315
21
-19.0930677822
0
LINE
5
456
100
AcDbEntity
8
0
100
AcDbLine
62
7
6
CONTINUOUS
10
188.5176533581
20
-85.5645648585
11
185.4733523577
21
-87.5930677822
0
LINE
5
457
100
AcDbEntity
8
0
100
AcDbLine
62
7
6
CONTINUOUS
10
141.2795228315
20
-19.0930677822
11
103.7517553342
21
-19.0930677822
0
ARC
5
458
100
AcDbEntity
8
0
100
AcDbCircle
62
7
6
CONTINUOUS
10
159.0156390829
20
98.4885652495
40
2.0000000000
100
AcDbArc
50
270.0000000000
51
360.0000000000
0
ARC
5
459
100
AcDbEntity
8
0
100
AcDbCircle
62
7
6
CONTINUOUS
10
86.0156390829
20
98.4885652495
40
2.0000000000
100
AcDbArc
50
180.0000000000
51
270.0000000000
0
ARC
5
45A
100
AcDbEntity
8
0
100
AcDbCircle
62
7
6
CONTINUOUS
10
159.0156390829
20
154.4885652495
40
2.0000000000
100
AcDbArc
50
0.0000000000
51
90.0000000000
0
ARC
5
45B
100
AcDbEntity
8
0
100
AcDbCircle
62
7
6
CONTINUOUS
10
86.0156390829
20
154.4885652495
40
2.0000000000
100
AcDbArc
50
90.0000000000
51
180.0000000000
0
ARC
5
45C
100
AcDbEntity
8
0
100
AcDbCircle
62
7
6
CONTINUOUS
10
122.5156390829
20
207.2385652495
40
72.5000000000
100
AcDbArc
50
3.0000000000
51
177.0000000000
0
ARC
5
45D
100
AcDbEntity
8
0
100
AcDbCircle
62
7
6
CONTINUOUS
10
122.5156390829
20
209.7385652495
40
40.0000000000
100
AcDbArc
50
0.0000000000
51
180.0000000000
0
ARC
5
45E
100
AcDbEntity
8
DEFAULT_2
100
AcDbCircle
62
8
6
HIDDEN
10
352.3598542095
20
254.7387323946
40
4.0000000000
100
AcDbArc
50
279.0000000000
51
360.0000000000
0
ARC
5
45F
100
AcDbEntity
8
DEFAULT_2
100
AcDbCircle
62
8
6
HIDDEN
10
340.3598542095
20
254.7387323946
40
4.0000000000
100
AcDbArc
50
180.0000000000
51
261.0000000000
0
ARC
5
460
100
AcDbEntity
8
0
100
AcDbCircle
62
7
6
CONTINUOUS
10
352.3598542095
20
274.7383981044
40
4.0000000000
100
AcDbArc
50
0.0000000000
51
81.0000000000
0
ARC
5
461
100
AcDbEntity
8
0
100
AcDbCircle
62
7
6
CONTINUOUS
10
346.3598542095
20
126.4885652495
40
13.2500000000
100
AcDbArc
50
178.0000000000
51
180.0000000000
0
ARC
5
462
100
AcDbEntity
8
0
100
AcDbCircle
62
7
6
CONTINUOUS
10
296.3598542095
20
220.4858706264
40
40.0000000000
100
AcDbArc
50
358.0000000000
51
360.0000000000
0
ARC
5
463
100
AcDbEntity
8
0
100
AcDbCircle
62
7
6
CONTINUOUS
10
340.3598542095
20
274.7383981044
40
4.0000000000
100
AcDbArc
50
99.0000000000
51
180.0000000000
0
ARC
5
464
100
AcDbEntity
8
0
100
AcDbCircle
62
7
6
CONTINUOUS
10
346.3598542095
20
124.9885652495
40
13.2500000000
100
AcDbArc
50
180.0000000000
51
360.0000000000
0
ARC
5
465
100
AcDbEntity
8
0
100
AcDbCircle
62
7
6
CONTINUOUS
10
346.3598542095
20
126.4885652495
40
13.2500000000
100
AcDbArc
50
0.0000000000
51
2.0000000000
0
ARC
5
466
100
AcDbEntity
8
0
100
AcDbCircle
62
7
6
CONTINUOUS
10
396.3598542095
20
220.4858706264
40
40.0000000000
100
AcDbArc
50
180.0000000000
51
182.0000000000
0
ARC
5
467
100
AcDbEntity
8
0
100
AcDbCircle
62
7
6
CONTINUOUS
10
263.3598542095
20
154.4885652495
40
2.0000000000
100
AcDbArc
50
90.0000000000
51
180.0000000000
0
ARC
5
468
100
AcDbEntity
8
0
100
AcDbCircle
62
7
6
CONTINUOUS
10
346.3598542095
20
126.4885652495
40
30.0000000000
100
AcDbArc
50
270.0000000000
51
65.7852177956
0
ARC
5
469
100
AcDbEntity
8
0
100
AcDbCircle
62
7
6
CONTINUOUS
10
263.3598542095
20
98.4885652495
40
2.0000000000
100
AcDbArc
50
180.0000000000
51
270.0000000000
0
ARC
5
46A
100
AcDbEntity
8
0
100
AcDbCircle
62
7
6
CONTINUOUS
10
346.3598542095
20
126.4885652495
40
14.5000000000
100
AcDbArc
50
154.0874000062
51
237.9104424012
0
ARC
5
46B
100
AcDbEntity
8
0
100
AcDbCircle
62
7
6
CONTINUOUS
10
346.3598542095
20
126.4885652495
40
14.5000000000
100
AcDbArc
50
302.0895575988
51
25.9125999938
0
ARC
5
46C
100
AcDbEntity
8
0
100
AcDbCircle
62
7
6
CONTINUOUS
10
122.5156390829
20
-51.5930677822
40
35.0000000000
100
AcDbArc
50
308.3010847788
51
351.7838110773
0
ARC
5
46D
100
AcDbEntity
8
0
100
AcDbCircle
62
7
6
CONTINUOUS
10
122.5156390829
20
-51.5930677822
40
35.0000000000
100
AcDbArc
50
248.2897934014
51
291.7102065986
0
ARC
5
46E
100
AcDbEntity
8
0
100
AcDbCircle
62
7
6
CONTINUOUS
10
122.5156390829
20
-51.5930677822
40
35.0000000000
100
AcDbArc
50
188.2161889227
51
231.6989152212
0
ARC
5
46F
100
AcDbEntity
8
0
100
AcDbCircle
62
7
6
CONTINUOUS
10
122.5156390829
20
-51.5930677822
40
35.0000000000
100
AcDbArc
50
8.2161889227
51
51.6989152212
0
ARC
5
470
100
AcDbEntity
8
0
100
AcDbCircle
62
7
6
CONTINUOUS
10
122.5156390829
20
-51.5930677822
40
35.0000000000
100
AcDbArc
50
68.2897934014
51
111.7102065986
0
ARC
5
471
100
AcDbEntity
8
0
100
AcDbCircle
62
7
6
CONTINUOUS
10
122.5156390829
20
-51.5930677822
40
35.0000000000
100
AcDbArc
50
128.3010847788
51
171.7838110773
0
CIRCLE
5
472
100
AcDbEntity
8
0
100
AcDbCircle
62
7
6
CONTINUOUS
10
122.5156390829
20
-51.5930677822
40
32.5000000000
0
ARC
5
473
100
AcDbEntity
8
0
100
AcDbCircle
62
7
6
CONTINUOUS
10
86.0156390829
20
-125.5930677822
40
2.0000000000
100
AcDbArc
50
180.0000000000
51
270.0000000000
0
ARC
5
474
100
AcDbEntity
8
0
100
AcDbCircle
62
7
6
CONTINUOUS
10
159.0156390829
20
-125.5930677822
40
2.0000000000
100
AcDbArc
50
270.0000000000
51
360.0000000000
0
ARC
5
475
100
AcDbEntity
8
0
100
AcDbCircle
62
7
6
CONTINUOUS
10
122.5156390829
20
-51.0930677822
40
38.5000000000
100
AcDbArc
50
0.0000000000
51
180.0000000000
0
ARC
5
476
100
AcDbEntity
8
0
100
AcDbCircle
62
7
6
CONTINUOUS
10
122.5156390829
20
-51.0930677822
40
39.0000000000
100
AcDbArc
50
80.5337104215
51
88.9349828443
0
ARC
5
477
100
AcDbEntity
8
0
100
AcDbCircle
62
7
6
CONTINUOUS
10
122.5156390829
20
-51.0930677822
40
39.0000000000
100
AcDbArc
50
68.9627787440
51
80.4981439739
0
ARC
5
478
100
AcDbEntity
8
0
100
AcDbCircle
62
7
6
CONTINUOUS
10
122.5156390829
20
-51.0930677822
40
39.0000000000
100
AcDbArc
50
88.9591767132
51
110.7455402431
0
SPLINE
5
479
100
AcDbEntity
8
0
100
AcDbSpline
62
7
6
CONTINUOUS
70
0
71
3
72
12
73
8
74
6
42
0.0000001000
43
0.0000001000
44
0.0000000001
40
0.0000000000
40
0.0000000000
40
0.0000000000
40
0.0000000000
40
0.1856877156
40
0.3745052358
40
0.5699775748
40
0.7763940122
40
1.0000000000
40
1.0000000000
40
1.0000000000
40
1.0000000000
10
94.3698134600
20
190.9885652496
30
0.0000000000
10
94.9845841978
20
190.9885652495
30
0.0000000000
10
96.2259353195
20
190.9064615854
30
0.0000000000
10
98.0821438487
20
190.5429087478
30
0.0000000000
10
99.9493144385
20
189.9485221709
30
0.0000000000
10
101.8533985723
20
189.1273958121
30
0.0000000000
10
103.1106283222
20
188.4559371845
30
0.0000000000
10
103.7517553342
20
188.0857823315
30
0.0000000000
11
94.3698134600
21
190.9885652496
31
0.0000000000
11
96.2102204035
21
190.8686076616
31
0.0000000000
11
98.0515910029
21
190.5129761753
31
0.0000000000
11
99.9036176118
21
189.9303909688
31
0.0000000000
11
101.7891332512
21
189.1253210299
31
0.0000000000
11
103.7517553342
21
188.0857823315
31
0.0000000000
0
SPLINE
5
47A
100
AcDbEntity
8
0
100
AcDbSpline
62
7
6
CONTINUOUS
70
0
71
3
72
12
73
8
74
6
42
0.0000001000
43
0.0000001000
44
0.0000000001
40
0.0000000000
40
0.0000000000
40
0.0000000000
40
0.0000000000
40
0.2119285342
40
0.4139998802
40
0.6110430241
40
0.8058712205
40
1.0000000000
40
1.0000000000
40
1.0000000000
40
1.0000000000
10
103.7517553342
20
188.0857823315
30
0.0000000000
10
105.0446249970
20
188.4590016554
30
0.0000000000
10
107.5857406157
20
189.1361274341
30
0.0000000000
10
111.3803464452
20
189.9528623457
30
0.0000000000
10
115.1070151152
20
190.5449560421
30
0.0000000000
10
118.8125303943
20
190.9070321200
30
0.0000000000
10
121.2829989955
20
190.9885652496
30
0.0000000000
10
122.5156390829
20
190.9885652497
30
0.0000000000
11
103.7517553342
21
188.0857823315
31
0.0000000000
11
107.6540639328
21
189.1198177559
31
0.0000000000
11
111.4181616634
21
189.9248251275
31
0.0000000000
11
115.1257621280
21
190.5096123968
31
0.0000000000
11
118.8196970950
21
190.8676227509
31
0.0000000000
11
122.5156390829
21
190.9885652497
31
0.0000000000
0
SPLINE
5
47B
100
AcDbEntity
8
0
100
AcDbSpline
62
7
6
CONTINUOUS
70
0
71
3
72
12
73
8
74
6
42
0.0000001000
43
0.0000001000
44
0.0000000001
40
0.0000000000
40
0.0000000000
40
0.0000000000
40
0.0000000000
40
0.1951318849
40
0.3907034347
40
0.5879968532
40
0.7895832323
40
1.0000000000
40
1.0000000000
40
1.0000000000
40
1.0000000000
10
122.5156390829
20
190.9885652497
30
0.0000000000
10
123.7546481494
20
190.9885652496
30
0.0000000000
10
126.2362166370
20
190.9062383407
30
0.0000000000
10
129.9542092269
20
190.5412670405
30
0.0000000000
10
133.6837440274
20
189.9466268055
30
0.0000000000
10
137.4671325807
20
189.1305652495
30
0.0000000000
10
139.9958760488
20
188.4563392393
30
0.0000000000
10
141.2795228315
20
188.0857823315
30
0.0000000000
11
122.5156390829
21
190.9885652497
31
0.0000000000
11
126.2306573563
21
190.8663751096
31
0.0000000000
11
129.9385277663
21
190.5053775638
31
0.0000000000
11
133.6505186729
21
189.9178366292
31
0.0000000000
11
137.4052232503
21
189.1130876008
31
0.0000000000
11
141.2795228315
21
188.0857823315
31
0.0000000000
0
SPLINE
5
47C
100
AcDbEntity
8
0
100
AcDbSpline
62
7
6
CONTINUOUS
70
0
71
3
72
12
73
8
74
6
42
0.0000001000
43
0.0000001000
44
0.0000000001
40
0.0000000000
40
0.0000000000
40
0.0000000000
40
0.0000000000
40
0.2236101576
40
0.4300770875
40
0.6255530448
40
0.8143503317
40
1.0000000000
40
1.0000000000
40
1.0000000000
40
1.0000000000
10
141.2795228315
20
188.0857823315
30
0.0000000000
10
141.9206618197
20
188.4559440990
30
0.0000000000
10
143.1780517124
20
189.1274872710
30
0.0000000000
10
145.0823244710
20
189.9486688480
30
0.0000000000
10
146.9496210206
20
190.5430322798
30
0.0000000000
10
148.8056625393
20
190.9064915631
30
0.0000000000
10
150.0468199144
20
190.9885652495
30
0.0000000000
10
150.6614647060
20
190.9885652496
30
0.0000000000
11
141.2795228315
21
188.0857823315
31
0.0000000000
11
143.2421823518
21
189.1253389841
31
0.0000000000
11
145.1281700647
21
189.9305806172
31
0.0000000000
11
146.9802489788
21
190.5131195148
31
0.0000000000
11
148.8214332234
21
190.8686564463
31
0.0000000000
11
150.6614647060
21
190.9885652496
31
0.0000000000
0
SPLINE
5
47D
100
AcDbEntity
8
0
100
AcDbSpline
62
7
6
CONTINUOUS
70
0
71
3
72
12
73
8
74
6
42
0.0000001000
43
0.0000001000
44
0.0000000001
40
0.0000000000
40
0.0000000000
40
0.0000000000
40
0.0000000000
40
0.1856877156
40
0.3745052358
40
0.5699775748
40
0.7763940122
40
1.0000000000
40
1.0000000000
40
1.0000000000
40
1.0000000000
10
150.6614647060
20
190.9885652496
30
0.0000000000
10
151.2762354438
20
190.9885652495
30
0.0000000000
10
152.5175865655
20
190.9064615854
30
0.0000000000
10
154.3737950947
20
190.5429087478
30
0.0000000000
10
156.2409656845
20
189.9485221709
30
0.0000000000
10
158.1450498183
20
189.1273958121
30
0.0000000000
10
159.4022795682
20
188.4559371845
30
0.0000000000
10
160.0434065802
20
188.0857823315
30
0.0000000000
11
150.6614647060
21
190.9885652496
31
0.0000000000
11
152.5018716495
21
190.8686076616
31
0.0000000000
11
154.3432422489
21
190.5129761753
31
0.0000000000
11
156.1952688578
21
189.9303909688
31
0.0000000000
11
158.0807844972
21
189.1253210299
31
0.0000000000
11
160.0434065802
21
188.0857823315
31
0.0000000000
0
SPLINE
5
47E
100
AcDbEntity
8
0
100
AcDbSpline
62
7
6
CONTINUOUS
70
0
71
3
72
12
73
8
74
6
42
0.0000001000
43
0.0000001000
44
0.0000000001
40
0.0000000000
40
0.0000000000
40
0.0000000000
40
0.0000000000
40
0.2236101576
40
0.4300770875
40
0.6255530448
40
0.8143503317
40
1.0000000000
40
1.0000000000
40
1.0000000000
40
1.0000000000
10
84.9878715855
20
188.0857823315
30
0.0000000000
10
85.6290105737
20
188.4559440990
30
0.0000000000
10
86.8864004664
20
189.1274872710
30
0.0000000000
10
88.7906732249
20
189.9486688479
30
0.0000000000
10
90.6579697744
20
190.5430322797
30
0.0000000000
10
92.5140112932
20
190.9064915631
30
0.0000000000
10
93.7551686684
20
190.9885652494
30
0.0000000000
10
94.3698134600
20
190.9885652496
30
0.0000000000
11
84.9878715855
21
188.0857823315
31
0.0000000000
11
86.9505311058
21
189.1253389841
31
0.0000000000
11
88.8365188186
21
189.9305806171
31
0.0000000000
11
90.6885977326
21
190.5131195147
31
0.0000000000
11
92.5297819772
21
190.8686564463
31
0.0000000000
11
94.3698134600
21
190.9885652496
31
0.0000000000
0
SPLINE
5
47F
100
AcDbEntity
8
0
100
AcDbSpline
62
7
6
CONTINUOUS
70
0
71
3
72
12
73
8
74
6
42
0.0000001000
43
0.0000001000
44
0.0000000001
40
0.0000000000
40
0.0000000000
40
0.0000000000
40
0.0000000000
40
0.0551305652
40
0.2915110586
40
0.5277355210
40
0.7639248813
40
1.0000000000
40
1.0000000000
40
1.0000000000
40
1.0000000000
10
84.0110968120
20
144.4589267955
30
0.0000000000
10
83.9575056247
20
144.5447898042
30
0.0000000000
10
83.6811257024
20
145.0031655077
30
0.0000000000
10
83.2491067599
20
145.8727505066
30
0.0000000000
10
82.8277859053
20
147.1069959605
30
0.0000000000
10
82.5726148149
20
148.3851312487
30
0.0000000000
10
82.5155762880
20
149.2526188342
30
0.0000000000
10
82.5156575255
20
149.6857180952
30
0.0000000000
11
84.0110968120
21
144.4589267955
31
0.0000000000
11
83.8543175487
21
144.7189514729
31
0.0000000000
11
83.2754870573
21
145.8840696418
31
0.0000000000
11
82.8554356710
21
147.1144631614
31
0.0000000000
11
82.6008506924
21
148.3892162971
31
0.0000000000
11
82.5156575255
21
149.6857180952
31
0.0000000000
0
SPLINE
5
480
100
AcDbEntity
8
0
100
AcDbSpline
62
7
6
CONTINUOUS
70
0
71
3
72
12
73
8
74
6
42
0.0000001000
43
0.0000001000
44
0.0000000001
40
0.0000000000
40
0.0000000000
40
0.0000000000
40
0.0000000000
40
0.2239405515
40
0.4478807359
40
0.6719207342
40
0.8962275327
40
1.0000000000
40
1.0000000000
40
1.0000000000
40
1.0000000000
10
82.8965108489
20
112.4911587217
30
0.0000000000
10
82.9596070765
20
112.5688329336
30
0.0000000000
10
83.0976929427
20
112.7149355935
30
0.0000000000
10
83.3350056847
20
112.9006165047
30
0.0000000000
10
83.5973609978
20
113.0492533570
30
0.0000000000
10
83.8284457489
20
113.1382478432
30
0.0000000000
10
83.9703202768
20
113.1759889660
30
0.0000000000
10
84.0155518038
20
113.1863905294
30
0.0000000000
11
82.8965108489
21
112.4911587217
31
0.0000000000
11
83.1027178566
21
112.7093522689
31
0.0000000000
11
83.3391188296
21
112.8944037172
31
0.0000000000
11
83.6004249733
21
113.0424878829
31
0.0000000000
11
83.8810257849
21
113.1505988806
31
0.0000000000
11
84.0155518038
21
113.1863905294
31
0.0000000000
0
SPLINE
5
481
100
AcDbEntity
8
0
100
AcDbSpline
62
7
6
CONTINUOUS
70
0
71
3
72
14
73
10
74
8
42
0.0000001000
43
0.0000001000
44
0.0000000001
40
0.0000000000
40
0.0000000000
40
0.0000000000
40
0.0000000000
40
0.1431611324
40
0.2862897492
40
0.4292502786
40
0.5720551521
40
0.7147411205
40
0.8573775904
40
1.0000000000
40
1.0000000000
40
1.0000000000
40
1.0000000000
10
81.3094064622
20
111.7385908772
30
0.0000000000
10
81.3959857313
20
111.7385907339
30
0.0000000000
10
81.5693237795
20
111.7495478316
30
0.0000000000
10
81.8249188342
20
111.7985809277
30
0.0000000000
10
82.0721292301
20
111.8793904200
30
0.0000000000
10
82.3069072305
20
111.9906428228
30
0.0000000000
10
82.5255709517
20
112.1306098752
30
0.0000000000
10
82.7245966190
20
112.2970933702
30
0.0000000000
10
82.8420921143
20
112.4241736837
30
0.0000000000
10
82.8964741112
20
112.4911233584
30
0.0000000000
11
81.3094064622
21
111.7385908772
31
0.0000000000
11
81.5686262620
21
111.7549867289
31
0.0000000000
11
81.8236544702
21
111.8039121770
31
0.0000000000
11
82.0701862613
21
111.8845153490
31
0.0000000000
11
82.3043133799
21
111.9954787187
31
0.0000000000
11
82.5223373300
21
112.1350573456
31
0.0000000000
11
82.7208100951
21
112.3011257314
31
0.0000000000
11
82.8964741112
21
112.4911233584
31
0.0000000000
0
SPLINE
5
482
100
AcDbEntity
8
0
100
AcDbSpline
62
7
6
CONTINUOUS
70
0
71
3
72
18
73
14
74
12
42
0.0000001000
43
0.0000001000
44
0.0000000001
40
0.0000000000
40
0.0000000000
40
0.0000000000
40
0.0000000000
40
0.0906006449
40
0.1813559952
40
0.2721982567
40
0.3628825649
40
0.4537637247
40
0.5445353026
40
0.6356330248
40
0.7266056893
40
0.8177928823
40
0.9089174413
40
1.0000000000
40
1.0000000000
40
1.0000000000
40
1.0000000000
10
45.1887327315
20
117.0341813647
30
0.0000000000
10
45.1758411408
20
116.7874440477
30
0.0000000000
10
45.1867870907
20
116.2908370909
30
0.0000000000
10
45.3135048921
20
115.5567837724
30
0.0000000000
10
45.5473815689
20
114.8491446810
30
0.0000000000
10
45.8830995533
20
114.1834433274
30
0.0000000000
10
46.3129064613
20
113.5744585289
30
0.0000000000
10
46.8281924131
20
113.0343398978
30
0.0000000000
10
47.4173410766
20
112.5754768168
30
0.0000000000
10
48.0683696280
20
112.2074151351
30
0.0000000000
10
48.7664343926
20
111.9387104585
30
0.0000000000
10
49.4964621208
20
111.7751515235
30
0.0000000000
10
49.9941248307
20
111.7385654152
30
0.0000000000
10
50.2425129099
20
111.7385654005
30
0.0000000000
11
45.1887327315
21
117.0341813647
31
0.0000000000
11
45.2051168259
21
116.2931408585
31
0.0000000000
11
45.3313081687
21
115.5614557416
31
0.0000000000
11
45.5644949539
21
114.8557875016
31
0.0000000000
11
45.8985195824
21
114.1933283186
31
0.0000000000
11
46.3272201498
21
113.5858477099
31
0.0000000000
11
46.8398121794
21
113.0485080225
31
0.0000000000
11
47.4277831615
21
112.5905290207
31
0.0000000000
11
48.0756675280
21
112.2242279235
31
0.0000000000
11
48.7718798034
21
111.9562079364
31
0.0000000000
11
49.4993571643
21
111.7932397007
31
0.0000000000
11
50.2425129099
21
111.7385654005
31
0.0000000000
0
SPLINE
5
483
100
AcDbEntity
8
0
100
AcDbSpline
62
7
6
CONTINUOUS
70
0
71
3
72
12
73
8
74
6
42
0.0000001000
43
0.0000001000
44
0.0000000001
40
0.0000000000
40
0.0000000000
40
0.0000000000
40
0.0000000000
40
0.2361483630
40
0.4723331452
40
0.7085464687
40
0.9449219314
40
1.0000000000
40
1.0000000000
40
1.0000000000
40
1.0000000000
10
162.5156206402
20
149.6857180952
30
0.0000000000
10
162.5157015644
20
149.2524844658
30
0.0000000000
10
162.4586374215
20
148.3848698781
30
0.0000000000
10
162.2033947591
20
147.1066413848
30
0.0000000000
10
161.7820428326
20
145.8724472252
30
0.0000000000
10
161.3500533808
20
145.0029888231
30
0.0000000000
10
161.0737213239
20
144.5447077287
30
0.0000000000
10
161.0201811613
20
144.4589264803
30
0.0000000000
11
162.5156206402
21
149.6857180952
31
0.0000000000
11
162.4303745799
21
148.3888157984
31
0.0000000000
11
162.1757440281
21
147.1140974728
31
0.0000000000
11
161.7556690182
21
145.8837768129
31
0.0000000000
11
161.1768149719
21
144.7187012775
31
0.0000000000
11
161.0201811613
21
144.4589264803
31
0.0000000000
0
SPLINE
5
484
100
AcDbEntity
8
0
100
AcDbSpline
62
7
6
CONTINUOUS
70
0
71
3
72
12
73
8
74
6
42
0.0000001000
43
0.0000001000
44
0.0000000001
40
0.0000000000
40
0.0000000000
40
0.0000000000
40
0.0000000000
40
0.1039520190
40
0.3282736006
40
0.5524032130
40
0.7763266868
40
1.0000000000
40
1.0000000000
40
1.0000000000
40
1.0000000000
10
161.0157248197
20
113.1863908887
30
0.0000000000
10
161.0610347043
20
113.1759713402
30
0.0000000000
10
161.2029915685
20
113.1381994819
30
0.0000000000
10
161.4341846904
20
113.0491307854
30
0.0000000000
10
161.6965520640
20
112.9004324966
30
0.0000000000
10
161.9337623392
20
112.7147612385
30
0.0000000000
10
162.0717465274
20
112.5687405528
30
0.0000000000
10
162.1347673169
20
112.4911587217
30
0.0000000000
11
161.0157248197
21
113.1863908887
31
0.0000000000
11
161.1504816465
21
113.1505294363
31
0.0000000000
11
161.4310881417
21
113.0423768021
31
0.0000000000
11
161.6924758069
21
112.8941919029
31
0.0000000000
11
161.9288255628
21
112.7091106377
31
0.0000000000
11
162.1347673169
21
112.4911587217
31
0.0000000000
0
SPLINE
5
485
100
AcDbEntity
8
0
100
AcDbSpline
62
7
6
CONTINUOUS
70
0
71
3
72
14
73
10
74
8
42
0.0000001000
43
0.0000001000
44
0.0000000001
40
0.0000000000
40
0.0000000000
40
0.0000000000
40
0.0000000000
40
0.1426825702
40
0.2855292216
40
0.4283635088
40
0.5711789729
40
0.7140057935
40
0.8569261050
40
1.0000000000
40
1.0000000000
40
1.0000000000
40
1.0000000000
10
162.1348040546
20
112.4911233584
30
0.0000000000
10
162.1892089080
20
112.4241453770
30
0.0000000000
10
162.3068195329
20
112.2969476497
30
0.0000000000
10
162.5060662313
20
112.1303293466
30
0.0000000000
10
162.7249627474
20
111.9903081339
30
0.0000000000
10
162.9597965368
20
111.8791376129
30
0.0000000000
10
163.2068405601
20
111.7984703050
30
0.0000000000
10
163.4621862218
20
111.7495298426
30
0.0000000000
10
163.6353451936
20
111.7385907340
30
0.0000000000
10
163.7218717035
20
111.7385908772
30
0.0000000000
11
162.1348040546
21
112.4911233584
31
0.0000000000
11
162.3105473068
21
112.3010503410
31
0.0000000000
11
162.5093371228
21
112.1347666446
31
0.0000000000
11
162.7276306020
21
111.9951099634
31
0.0000000000
11
162.9618168636
21
111.8842265665
31
0.0000000000
11
163.2081439219
21
111.8037778801
31
0.0000000000
11
163.4628092342
21
111.7549667511
31
0.0000000000
11
163.7218717035
21
111.7385908772
31
0.0000000000
0
SPLINE
5
486
100
AcDbEntity
8
0
100
AcDbSpline
62
7
6
CONTINUOUS
70
0
71
3
72
18
73
14
74
12
42
0.0000001000
43
0.0000001000
44
0.0000000001
40
0.0000000000
40
0.0000000000
40
0.0000000000
40
0.0000000000
40
0.0910507283
40
0.1821729767
40
0.2733436745
40
0.3643448106
40
0.4554869915
40
0.5463340609
40
0.6372885403
40
0.7279639649
40
0.8187503631
40
0.9094111583
40
1.0000000000
40
1.0000000000
40
1.0000000000
40
1.0000000000
10
194.7887652556
20
111.7385654005
30
0.0000000000
10
195.0370665323
20
111.7385654152
30
0.0000000000
10
195.5346352811
20
111.7751317356
30
0.0000000000
10
196.2645367474
20
111.9386215042
30
0.0000000000
10
196.9626433651
20
112.2072873442
30
0.0000000000
10
197.6138297691
20
112.5753875358
30
0.0000000000
10
198.2033008818
20
113.0345018154
30
0.0000000000
10
198.7189025267
20
113.5750566386
30
0.0000000000
10
199.1487997298
20
114.1844522477
30
0.0000000000
10
199.4843469817
20
114.8502651060
30
0.0000000000
10
199.7179304468
20
115.5575385197
30
0.0000000000
10
199.8445006126
20
116.2911604751
30
0.0000000000
10
199.8554351918
20
116.7874761829
30
0.0000000000
10
199.8425454342
20
117.0341813647
30
0.0000000000
11
194.7887652556
21
111.7385654005
31
0.0000000000
11
195.5316627004
21
111.7932014923
31
0.0000000000
11
196.2591303039
21
111.9561268156
31
0.0000000000
11
196.9552350090
21
112.2240506020
31
0.0000000000
11
197.6033437316
21
112.5904281587
31
0.0000000000
11
198.1916016117
21
113.0486307387
31
0.0000000000
11
198.7045675265
21
113.5864673170
31
0.0000000000
11
199.1334810079
21
114.1945318205
31
0.0000000000
11
199.4672929642
21
114.8570168137
31
0.0000000000
11
199.7001815732
21
115.5623022349
31
0.0000000000
11
199.8261706659
21
116.2932372371
31
0.0000000000
11
199.8425454342
21
117.0341813647
31
0.0000000000
0
SPLINE
5
487
100
AcDbEntity
8
0
100
AcDbSpline
62
7
6
CONTINUOUS
70
0
71
3
72
9
73
5
74
3
42
0.0000001000
43
0.0000001000
44
0.0000000001
40
0.0000000000
40
0.0000000000
40
0.0000000000
40
0.0000000000
40
0.4556872898
40
1.0000000000
40
1.0000000000
40
1.0000000000
40
1.0000000000
10
260.8598543090
20
120.2772119230
30
0.0000000000
10
260.8598546067
20
120.2474109327
30
0.0000000000
10
260.8616525148
20
120.1820006558
30
0.0000000000
10
260.8673776708
20
120.1168071914
30
0.0000000000
10
260.8716303772
20
120.0814680629
30
0.0000000000
11
260.8598543090
21
120.2772119230
31
0.0000000000
11
260.8623086710
21
120.1878426904
31
0.0000000000
11
260.8716303772
21
120.0814680629
31
0.0000000000
0
SPLINE
5
488
100
AcDbEntity
8
0
100
AcDbSpline
62
7
6
CONTINUOUS
70
0
71
3
72
9
73
5
74
3
42
0.0000001000
43
0.0000001000
44
0.0000000001
40
0.0000000000
40
0.0000000000
40
0.0000000000
40
0.0000000000
40
0.4556872898
40
1.0000000000
40
1.0000000000
40
1.0000000000
40
1.0000000000
10
260.8598543090
20
112.4389155369
30
0.0000000000
10
260.8598546067
20
112.4687165272
30
0.0000000000
10
260.8616525148
20
112.5341268041
30
0.0000000000
10
260.8673776708
20
112.5993202686
30
0.0000000000
10
260.8716303772
20
112.6346593970
30
0.0000000000
11
260.8598543090
21
112.4389155369
31
0.0000000000
11
260.8623086710
21
112.5282847695
31
0.0000000000
11
260.8716303772
21
112.6346593970
31
0.0000000000
0
SPLINE
5
489
100
AcDbEntity
8
0
100
AcDbSpline
62
7
6
CONTINUOUS
70
0
71
3
72
9
73
5
74
3
42
0.0000001000
43
0.0000001000
44
0.0000000001
40
0.0000000000
40
0.0000000000
40
0.0000000000
40
0.0000000000
40
0.4890098315
40
1.0000000000
40
1.0000000000
40
1.0000000000
40
1.0000000000
10
261.8350084403
20
111.5708296062
30
0.0000000000
10
261.8837642103
20
111.5344185293
30
0.0000000000
10
261.9848607585
20
111.4618130838
30
0.0000000000
10
262.0883154706
20
111.3926202187
30
0.0000000000
10
262.1416924025
20
111.3580636554
30
0.0000000000
11
261.8350084403
21
111.5708296062
31
0.0000000000
11
261.9832025315
21
111.4642250284
31
0.0000000000
11
262.1416924025
21
111.3580636554
31
0.0000000000
0
SPLINE
5
48A
100
AcDbEntity
8
0
100
AcDbSpline
62
7
6
CONTINUOUS
70
0
71
3
72
9
73
5
74
3
42
0.0000001000
43
0.0000001000
44
0.0000000001
40
0.0000000000
40
0.0000000000
40
0.0000000000
40
0.0000000000
40
0.4976294726
40
1.0000000000
40
1.0000000000
40
1.0000000000
40
1.0000000000
10
261.6979412122
20
111.7835955569
30
0.0000000000
10
261.7200386147
20
111.7478972656
30
0.0000000000
10
261.7651006529
20
111.6765651431
30
0.0000000000
10
261.8114284983
20
111.6060488664
30
0.0000000000
10
261.8350084403
20
111.5708296062
30
0.0000000000
11
261.6979412122
21
111.7835955569
31
0.0000000000
11
261.7652004696
21
111.6771053647
31
0.0000000000
11
261.8350084403
21
111.5708296062
31
0.0000000000
0
SPLINE
5
48B
100
AcDbEntity
8
0
100
AcDbSpline
62
7
6
CONTINUOUS
70
0
71
3
72
9
73
5
74
3
42
0.0000001000
43
0.0000001000
44
0.0000000001
40
0.0000000000
40
0.0000000000
40
0.0000000000
40
0.0000000000
40
0.4997174788
40
1.0000000000
40
1.0000000000
40
1.0000000000
40
1.0000000000
10
261.5715653806
20
112.2091274583
30
0.0000000000
10
261.5917995759
20
112.1380068825
30
0.0000000000
10
261.6331122754
20
111.9959177489
30
0.0000000000
10
261.6760541568
20
111.8543125092
30
0.0000000000
10
261.6979412122
20
111.7835955569
30
0.0000000000
11
261.5715653806
21
112.2091274583
31
0.0000000000
11
261.6334957673
21
111.9961188721
31
0.0000000000
11
261.6979412122
21
111.7835955569
31
0.0000000000
0
SPLINE
5
48C
100
AcDbEntity
8
0
100
AcDbSpline
62
7
6
CONTINUOUS
70
0
71
3
72
9
73
5
74
3
42
0.0000001000
43
0.0000001000
44
0.0000000001
40
0.0000000000
40
0.0000000000
40
0.0000000000
40
0.0000000000
40
0.5002946656
40
1.0000000000
40
1.0000000000
40
1.0000000000
40
1.0000000000
10
261.4932020230
20
113.0601912611
30
0.0000000000
10
261.5058827759
20
112.9182284206
30
0.0000000000
10
261.5316163294
20
112.6345044007
30
0.0000000000
10
261.5581249468
20
112.3508517450
30
0.0000000000
10
261.5715653806
20
112.2091274583
30
0.0000000000
11
261.4932020230
21
113.0601912611
31
0.0000000000
11
261.5318254894
21
112.6343550553
31
0.0000000000
11
261.5715653806
21
112.2091274583
31
0.0000000000
0
SPLINE
5
48D
100
AcDbEntity
8
0
100
AcDbSpline
62
7
6
CONTINUOUS
70
0
71
3
72
9
73
5
74
3
42
0.0000001000
43
0.0000001000
44
0.0000000001
40
0.0000000000
40
0.0000000000
40
0.0000000000
40
0.0000000000
40
0.4993477125
40
1.0000000000
40
1.0000000000
40
1.0000000000
40
1.0000000000
10
261.1192172641
20
142.4449061081
30
0.0000000000
10
261.1283957543
20
142.4093690087
30
0.0000000000
10
261.1472388711
20
142.3383205477
30
0.0000000000
10
261.1669965300
20
142.2675209950
30
0.0000000000
10
261.1771146260
20
142.2321401760
30
0.0000000000
11
261.1192172641
21
142.4449061081
31
0.0000000000
11
261.1474423282
21
142.3384753006
31
0.0000000000
11
261.1771146260
21
142.2321401760
31
0.0000000000
0
SPLINE
5
48E
100
AcDbEntity
8
0
100
AcDbSpline
62
7
6
CONTINUOUS
70
0
71
3
72
9
73
5
74
3
42
0.0000001000
43
0.0000001000
44
0.0000000001
40
0.0000000000
40
0.0000000000
40
0.0000000000
40
0.0000000000
40
0.5001031782
40
1.0000000000
40
1.0000000000
40
1.0000000000
40
1.0000000000
10
261.1771146260
20
142.2321401760
30
0.0000000000
10
261.1838787279
20
142.1611824560
30
0.0000000000
10
261.1976211160
20
142.0193168946
30
0.0000000000
10
261.2117975296
20
141.8774940470
30
0.0000000000
10
261.2189927772
20
141.8066083118
30
0.0000000000
11
261.1771146260
21
142.2321401760
31
0.0000000000
11
261.1977325030
21
142.0192983026
31
0.0000000000
11
261.2189927772
21
141.8066083118
31
0.0000000000
0
SPLINE
5
48F
100
AcDbEntity
8
0
100
AcDbSpline
62
7
6
CONTINUOUS
70
0
71
3
72
9
73
5
74
3
42
0.0000001000
43
0.0000001000
44
0.0000000001
40
0.0000000000
40
0.0000000000
40
0.0000000000
40
0.0000000000
40
0.5000998712
40
1.0000000000
40
1.0000000000
40
1.0000000000
40
1.0000000000
10
261.2189927772
20
141.8066083118
30
0.0000000000
10
261.2225930022
20
141.7002021238
30
0.0000000000
10
261.2298468326
20
141.4874340982
30
0.0000000000
10
261.2372103630
20
141.2746698408
30
0.0000000000
10
261.2409188283
20
141.1683099195
30
0.0000000000
11
261.2189927772
21
141.8066083118
31
0.0000000000
11
261.2298757175
21
141.4873925418
31
0.0000000000
11
261.2409188283
21
141.1683099195
31
0.0000000000
0
SPLINE
5
490
100
AcDbEntity
8
0
100
AcDbSpline
62
7
6
CONTINUOUS
70
0
71
3
72
9
73
5
74
3
42
0.0000001000
43
0.0000001000
44
0.0000000001
40
0.0000000000
40
0.0000000000
40
0.0000000000
40
0.0000000000
40
0.5000998712
40
1.0000000000
40
1.0000000000
40
1.0000000000
40
1.0000000000
10
261.2189927772
20
140.1044802591
30
0.0000000000
10
261.2225930022
20
140.2108863477
30
0.0000000000
10
261.2298468326
20
140.4236541747
30
0.0000000000
10
261.2372103630
20
140.6364182334
30
0.0000000000
10
261.2409188283
20
140.7427780553
30
0.0000000000
11
261.2189927772
21
140.1044802591
31
0.0000000000
11
261.2298757175
21
140.4236957310
31
0.0000000000
11
261.2409188283
21
140.7427780553
31
0.0000000000
0
SPLINE
5
491
100
AcDbEntity
8
0
100
AcDbSpline
62
7
6
CONTINUOUS
70
0
71
3
72
9
73
5
74
3
42
0.0000001000
43
0.0000001000
44
0.0000000001
40
0.0000000000
40
0.0000000000
40
0.0000000000
40
0.0000000000
40
0.5001031782
40
1.0000000000
40
1.0000000000
40
1.0000000000
40
1.0000000000
10
261.1771146260
20
139.6789483949
30
0.0000000000
10
261.1838787279
20
139.7499061149
30
0.0000000000
10
261.1976211160
20
139.8917716763
30
0.0000000000
10
261.2117975296
20
140.0335945239
30
0.0000000000
10
261.2189927772
20
140.1044802591
30
0.0000000000
11
261.1771146260
21
139.6789483949
31
0.0000000000
11
261.1977325030
21
139.8917902683
31
0.0000000000
11
261.2189927772
21
140.1044802591
31
0.0000000000
0
SPLINE
5
492
100
AcDbEntity
8
0
100
AcDbSpline
62
7
6
CONTINUOUS
70
0
71
3
72
9
73
5
74
3
42
0.0000001000
43
0.0000001000
44
0.0000000001
40
0.0000000000
40
0.0000000000
40
0.0000000000
40
0.0000000000
40
0.4993477125
40
1.0000000000
40
1.0000000000
40
1.0000000000
40
1.0000000000
10
261.1192172641
20
139.4661824628
30
0.0000000000
10
261.1283957543
20
139.5017195622
30
0.0000000000
10
261.1472388711
20
139.5727680232
30
0.0000000000
10
261.1669965300
20
139.6435675759
30
0.0000000000
10
261.1771146260
20
139.6789483949
30
0.0000000000
11
261.1192172641
21
139.4661824628
31
0.0000000000
11
261.1474423282
21
139.5726132703
31
0.0000000000
11
261.1771146260
21
139.6789483949
31
0.0000000000
0
SPLINE
5
493
100
AcDbEntity
8
0
100
AcDbSpline
62
7
6
CONTINUOUS
70
0
71
3
72
9
73
5
74
3
42
0.0000001000
43
0.0000001000
44
0.0000000001
40
0.0000000000
40
0.0000000000
40
0.0000000000
40
0.0000000000
40
0.4999500544
40
1.0000000000
40
1.0000000000
40
1.0000000000
40
1.0000000000
10
260.8716303772
20
112.6346593970
30
0.0000000000
10
260.8741918543
20
112.7056105580
30
0.0000000000
10
260.8801505028
20
112.8474981328
30
0.0000000000
10
260.8877774715
20
112.9893058081
30
0.0000000000
10
260.8920077694
20
113.0601912611
30
0.0000000000
11
260.8716303772
21
112.6346593970
31
0.0000000000
11
260.8805669043
21
112.8474639886
31
0.0000000000
11
260.8920077694
21
113.0601912611
31
0.0000000000
0
SPLINE
5
494
100
AcDbEntity
8
0
100
AcDbSpline
62
7
6
CONTINUOUS
70
0
71
3
72
9
73
5
74
3
42
0.0000001000
43
0.0000001000
44
0.0000000001
40
0.0000000000
40
0.0000000000
40
0.0000000000
40
0.0000000000
40
0.5001264902
40
1.0000000000
40
1.0000000000
40
1.0000000000
40
1.0000000000
10
260.8920077694
20
113.0601912611
30
0.0000000000
10
260.8976537186
20
113.2730570240
30
0.0000000000
10
260.9104302843
20
113.6986427242
30
0.0000000000
10
260.9261829865
20
114.1241286641
30
0.0000000000
10
260.9348015552
20
114.3367870026
30
0.0000000000
11
260.8920077694
21
113.0601912611
31
0.0000000000
11
260.9111779271
21
113.6987254363
31
0.0000000000
11
260.9348015552
21
114.3367870026
31
0.0000000000
0
SPLINE
5
495
100
AcDbEntity
8
0
100
AcDbSpline
62
7
6
CONTINUOUS
70
0
71
3
72
9
73
5
74
3
42
0.0000001000
43
0.0000001000
44
0.0000000001
40
0.0000000000
40
0.0000000000
40
0.0000000000
40
0.0000000000
40
0.5000632782
40
1.0000000000
40
1.0000000000
40
1.0000000000
40
1.0000000000
10
260.9348015552
20
114.3367870026
30
0.0000000000
10
260.9369575750
20
114.5495808823
30
0.0000000000
10
260.9413623501
20
114.9751138476
30
0.0000000000
10
260.9459537552
20
115.4006448401
30
0.0000000000
10
260.9482958367
20
115.6133828932
30
0.0000000000
11
260.9348015552
21
114.3367870026
31
0.0000000000
11
260.9414095769
21
114.9751672082
31
0.0000000000
11
260.9482958367
21
115.6133828932
31
0.0000000000
0
SPLINE
5
496
100
AcDbEntity
8
0
100
AcDbSpline
62
7
6
CONTINUOUS
70
0
71
3
72
9
73
5
74
3
42
0.0000001000
43
0.0000001000
44
0.0000000001
40
0.0000000000
40
0.0000000000
40
0.0000000000
40
0.0000000000
40
0.5000632782
40
1.0000000000
40
1.0000000000
40
1.0000000000
40
1.0000000000
10
260.9348015552
20
118.3793400102
30
0.0000000000
10
260.9369575750
20
118.1665461802
30
0.0000000000
10
260.9413623501
20
117.7410133143
30
0.0000000000
10
260.9459537552
20
117.3154824211
30
0.0000000000
10
260.9482958367
20
117.1027444177
30
0.0000000000
11
260.9348015552
21
118.3793400102
31
0.0000000000
11
260.9414095769
21
117.7409599537
31
0.0000000000
11
260.9482958367
21
117.1027444177
31
0.0000000000
0
SPLINE
5
497
100
AcDbEntity
8
0
100
AcDbSpline
62
7
6
CONTINUOUS
70
0
71
3
72
9
73
5
74
3
42
0.0000001000
43
0.0000001000
44
0.0000000001
40
0.0000000000
40
0.0000000000
40
0.0000000000
40
0.0000000000
40
0.5000998712
40
1.0000000000
40
1.0000000000
40
1.0000000000
40
1.0000000000
10
261.2189927772
20
135.6363953873
30
0.0000000000
10
261.2225930022
20
135.7428014760
30
0.0000000000
10
261.2298468326
20
135.9555693029
30
0.0000000000
10
261.2372103630
20
136.1683333616
30
0.0000000000
10
261.2409188283
20
136.2746931836
30
0.0000000000
11
261.2189927772
21
135.6363953873
31
0.0000000000
11
261.2298757175
21
135.9556108592
31
0.0000000000
11
261.2409188283
21
136.2746931836
31
0.0000000000
0
SPLINE
5
498
100
AcDbEntity
8
0
100
AcDbSpline
62
7
6
CONTINUOUS
70
0
71
3
72
9
73
5
74
3
42
0.0000001000
43
0.0000001000
44
0.0000000001
40
0.0000000000
40
0.0000000000
40
0.0000000000
40
0.0000000000
40
0.5001264903
40
1.0000000000
40
1.0000000000
40
1.0000000000
40
1.0000000000
10
260.8920077694
20
119.6559361988
30
0.0000000000
10
260.8976537186
20
119.4430703613
30
0.0000000000
10
260.9104302843
20
119.0174845122
30
0.0000000000
10
260.9261829865
20
118.5919984233
30
0.0000000000
10
260.9348015552
20
118.3793400102
30
0.0000000000
11
260.8920077694
21
119.6559361988
31
0.0000000000
11
260.9111779271
21
119.0174017999
31
0.0000000000
11
260.9348015552
21
118.3793400102
31
0.0000000000
0
SPLINE
5
499
100
AcDbEntity
8
0
100
AcDbSpline
62
7
6
CONTINUOUS
70
0
71
3
72
9
73
5
74
3
42
0.0000001000
43
0.0000001000
44
0.0000000001
40
0.0000000000
40
0.0000000000
40
0.0000000000
40
0.0000000000
40
0.4999500544
40
1.0000000000
40
1.0000000000
40
1.0000000000
40
1.0000000000
10
260.8716303772
20
120.0814680629
30
0.0000000000
10
260.8741918543
20
120.0105169019
30
0.0000000000
10
260.8801505028
20
119.8686293271
30
0.0000000000
10
260.8877774715
20
119.7268216518
30
0.0000000000
10
260.8920077694
20
119.6559361988
30
0.0000000000
11
260.8716303772
21
120.0814680629
31
0.0000000000
11
260.8805669043
21
119.8686634713
31
0.0000000000
11
260.8920077694
21
119.6559361988
31
0.0000000000
0
SPLINE
5
49A
100
AcDbEntity
8
0
100
AcDbSpline
62
7
6
CONTINUOUS
70
0
71
3
72
9
73
5
74
3
42
0.0000001000
43
0.0000001000
44
0.0000000001
40
0.0000000000
40
0.0000000000
40
0.0000000000
40
0.0000000000
40
0.5001031783
40
1.0000000000
40
1.0000000000
40
1.0000000000
40
1.0000000000
10
261.1771146260
20
135.2108633741
30
0.0000000000
10
261.1838787279
20
135.2818211190
30
0.0000000000
10
261.1976211160
20
135.4236867300
30
0.0000000000
10
261.2117975296
20
135.5655096273
30
0.0000000000
10
261.2189927772
20
135.6363953873
30
0.0000000000
11
261.1771146260
21
135.2108633741
31
0.0000000000
11
261.1977325030
21
135.4237053221
31
0.0000000000
11
261.2189927772
21
135.6363953873
31
0.0000000000
0
SPLINE
5
49B
100
AcDbEntity
8
0
100
AcDbSpline
62
7
6
CONTINUOUS
70
0
71
3
72
9
73
5
74
3
42
0.0000001000
43
0.0000001000
44
0.0000000001
40
0.0000000000
40
0.0000000000
40
0.0000000000
40
0.0000000000
40
0.4993477125
40
1.0000000000
40
1.0000000000
40
1.0000000000
40
1.0000000000
10
261.1192172641
20
134.9980974421
30
0.0000000000
10
261.1283957543
20
135.0336345414
30
0.0000000000
10
261.1472388711
20
135.1046830024
30
0.0000000000
10
261.1669965300
20
135.1754825551
30
0.0000000000
10
261.1771146260
20
135.2108633741
30
0.0000000000
11
261.1192172641
21
134.9980974421
31
0.0000000000
11
261.1474423282
21
135.1045282495
31
0.0000000000
11
261.1771146260
21
135.2108633741
31
0.0000000000
0
SPLINE
5
49C
100
AcDbEntity
8
0
100
AcDbSpline
62
7
6
CONTINUOUS
70
0
71
3
72
9
73
5
74
3
42
0.0000001000
43
0.0000001000
44
0.0000000001
40
0.0000000000
40
0.0000000000
40
0.0000000000
40
0.0000000000
40
0.4993477125
40
1.0000000000
40
1.0000000000
40
1.0000000000
40
1.0000000000
10
261.1192172641
20
138.1895868703
30
0.0000000000
10
261.1283957543
20
138.1540497710
30
0.0000000000
10
261.1472388711
20
138.0830013100
30
0.0000000000
10
261.1669965300
20
138.0122017573
30
0.0000000000
10
261.1771146260
20
137.9768209383
30
0.0000000000
11
261.1192172641
21
138.1895868703
31
0.0000000000
11
261.1474423282
21
138.0831560629
31
0.0000000000
11
261.1771146260
21
137.9768209383
31
0.0000000000
0
SPLINE
5
49D
100
AcDbEntity
8
0
100
AcDbSpline
62
7
6
CONTINUOUS
70
0
71
3
72
9
73
5
74
3
42
0.0000001000
43
0.0000001000
44
0.0000000001
40
0.0000000000
40
0.0000000000
40
0.0000000000
40
0.0000000000
40
0.5001031782
40
1.0000000000
40
1.0000000000
40
1.0000000000
40
1.0000000000
10
261.1771146260
20
137.9768209383
30
0.0000000000
10
261.1838787279
20
137.9058632183
30
0.0000000000
10
261.1976211160
20
137.7639976569
30
0.0000000000
10
261.2117975296
20
137.6221748093
30
0.0000000000
10
261.2189927772
20
137.5512890741
30
0.0000000000
11
261.1771146260
21
137.9768209383
31
0.0000000000
11
261.1977325030
21
137.7639790649
31
0.0000000000
11
261.2189927772
21
137.5512890741
31
0.0000000000
0
SPLINE
5
49E
100
AcDbEntity
8
0
100
AcDbSpline
62
7
6
CONTINUOUS
70
0
71
3
72
9
73
5
74
3
42
0.0000001000
43
0.0000001000
44
0.0000000001
40
0.0000000000
40
0.0000000000
40
0.0000000000
40
0.0000000000
40
0.5000998712
40
1.0000000000
40
1.0000000000
40
1.0000000000
40
1.0000000000
10
261.2189927772
20
137.5512890741
30
0.0000000000
10
261.2225930022
20
137.4448829358
30
0.0000000000
10
261.2298468326
20
137.2321150095
30
0.0000000000
10
261.2372103630
20
137.0193508515
30
0.0000000000
10
261.2409188283
20
136.9129909798
30
0.0000000000
11
261.2189927772
21
137.5512890741
31
0.0000000000
11
261.2298757175
21
137.2320734531
31
0.0000000000
11
261.2409188283
21
136.9129909798
31
0.0000000000
0
SPLINE
5
49F
100
AcDbEntity
8
0
100
AcDbSpline
62
7
6
CONTINUOUS
70
0
71
3
72
9
73
5
74
3
42
0.0000001000
43
0.0000001000
44
0.0000000001
40
0.0000000000
40
0.0000000000
40
0.0000000000
40
0.0000000000
40
0.5002603672
40
1.0000000000
40
1.0000000000
40
1.0000000000
40
1.0000000000
10
262.9884514242
20
135.6363953873
30
0.0000000000
10
262.9975349620
20
135.7428391349
30
0.0000000000
10
263.0157553194
20
135.9556104810
30
0.0000000000
10
263.0341013388
20
136.1683710288
30
0.0000000000
10
263.0433010183
20
136.2746931836
30
0.0000000000
11
262.9884514242
21
135.6363953873
31
0.0000000000
11
263.0157962556
21
135.9557185760
31
0.0000000000
11
263.0433010183
21
136.2746931836
31
0.0000000000
0
SPLINE
5
4A0
100
AcDbEntity
8
0
100
AcDbSpline
62
7
6
CONTINUOUS
70
0
71
3
72
9
73
5
74
3
42
0.0000001000
43
0.0000001000
44
0.0000000001
40
0.0000000000
40
0.0000000000
40
0.0000000000
40
0.0000000000
40
0.5001666689
40
1.0000000000
40
1.0000000000
40
1.0000000000
40
1.0000000000
10
262.8284377445
20
135.2108633741
30
0.0000000000
10
262.8546199913
20
135.2819938956
30
0.0000000000
10
262.9074640424
20
135.4240250830
30
0.0000000000
10
262.9612975338
20
135.5656841981
30
0.0000000000
10
262.9884514242
20
135.6363953873
30
0.0000000000
11
262.8284377445
21
135.2108633741
31
0.0000000000
11
262.9077291824
21
135.4239793473
31
0.0000000000
11
262.9884514242
21
135.6363953873
31
0.0000000000
0
SPLINE
5
4A1
100
AcDbEntity
8
0
100
AcDbSpline
62
7
6
CONTINUOUS
70
0
71
3
72
9
73
5
74
3
42
0.0000001000
43
0.0000001000
44
0.0000000001
40
0.0000000000
40
0.0000000000
40
0.0000000000
40
0.0000000000
40
0.4972769102
40
1.0000000000
40
1.0000000000
40
1.0000000000
40
1.0000000000
10
262.6255453697
20
134.9980974421
30
0.0000000000
10
262.6586527792
20
135.0338592645
30
0.0000000000
10
262.7257713126
20
135.1052753543
30
0.0000000000
10
262.7939257360
20
135.1757032140
30
0.0000000000
10
262.8284377445
20
135.2108633741
30
0.0000000000
11
262.6255453697
21
134.9980974421
31
0.0000000000
11
262.7256619324
21
135.1046420356
31
0.0000000000
11
262.8284377445
21
135.2108633741
31
0.0000000000
0
SPLINE
5
4A2
100
AcDbEntity
8
0
100
AcDbSpline
62
7
6
CONTINUOUS
70
0
71
3
72
9
73
5
74
3
42
0.0000001000
43
0.0000001000
44
0.0000000001
40
0.0000000000
40
0.0000000000
40
0.0000000000
40
0.0000000000
40
0.4972769102
40
1.0000000000
40
1.0000000000
40
1.0000000000
40
1.0000000000
10
262.6255453697
20
142.4449061081
30
0.0000000000
10
262.6586527792
20
142.4091442856
30
0.0000000000
10
262.7257713126
20
142.3377281958
30
0.0000000000
10
262.7939257360
20
142.2673003361
30
0.0000000000
10
262.8284377445
20
142.2321401760
30
0.0000000000
11
262.6255453697
21
142.4449061081
31
0.0000000000
11
262.7256619324
21
142.3383615145
31
0.0000000000
11
262.8284377445
21
142.2321401760
31
0.0000000000
0
SPLINE
5
4A3
100
AcDbEntity
8
0
100
AcDbSpline
62
7
6
CONTINUOUS
70
0
71
3
72
9
73
5
74
3
42
0.0000001000
43
0.0000001000
44
0.0000000001
40
0.0000000000
40
0.0000000000
40
0.0000000000
40
0.0000000000
40
0.5001666684
40
1.0000000000
40
1.0000000000
40
1.0000000000
40
1.0000000000
10
262.8284377445
20
142.2321401760
30
0.0000000000
10
262.8546199913
20
142.1610096794
30
0.0000000000
10
262.9074640425
20
142.0189785416
30
0.0000000000
10
262.9612975338
20
141.8773194762
30
0.0000000000
10
262.9884514242
20
141.8066083118
30
0.0000000000
11
262.8284377445
21
142.2321401760
31
0.0000000000
11
262.9077291823
21
142.0190242775
31
0.0000000000
11
262.9884514242
21
141.8066083118
31
0.0000000000
0
SPLINE
5
4A4
100
AcDbEntity
8
0
100
AcDbSpline
62
7
6
CONTINUOUS
70
0
71
3
72
9
73
5
74
3
42
0.0000001000
43
0.0000001000
44
0.0000000001
40
0.0000000000
40
0.0000000000
40
0.0000000000
40
0.0000000000
40
0.5002603672
40
1.0000000000
40
1.0000000000
40
1.0000000000
40
1.0000000000
10
262.9884514242
20
141.8066083118
30
0.0000000000
10
262.9975349620
20
141.7001644648
30
0.0000000000
10
263.0157553194
20
141.4873929201
30
0.0000000000
10
263.0341013388
20
141.2746321736
30
0.0000000000
10
263.0433010183
20
141.1683099195
30
0.0000000000
11
262.9884514242
21
141.8066083118
31
0.0000000000
11
263.0157962556
21
141.4872848250
31
0.0000000000
11
263.0433010183
21
141.1683099195
31
0.0000000000
0
SPLINE
5
4A5
100
AcDbEntity
8
0
100
AcDbSpline
62
7
6
CONTINUOUS
70
0
71
3
72
9
73
5
74
3
42
0.0000001000
43
0.0000001000
44
0.0000000001
40
0.0000000000
40
0.0000000000
40
0.0000000000
40
0.0000000000
40
0.4955487247
40
1.0000000000
40
1.0000000000
40
1.0000000000
40
1.0000000000
10
262.0070106410
20
143.5087357685
30
0.0000000000
10
262.0400649664
20
143.5446162702
30
0.0000000000
10
262.1075844542
20
143.6162729229
30
0.0000000000
10
262.1766299731
20
143.6864591794
30
0.0000000000
10
262.2118194915
20
143.7215017006
30
0.0000000000
11
262.0070106410
21
143.5087357685
31
0.0000000000
11
262.1073581038
21
143.6152739129
31
0.0000000000
11
262.2118194915
21
143.7215017006
31
0.0000000000
0
SPLINE
5
4A6
100
AcDbEntity
8
0
100
AcDbSpline
62
7
6
CONTINUOUS
70
0
71
3
72
9
73
5
74
3
42
0.0000001000
43
0.0000001000
44
0.0000000001
40
0.0000000000
40
0.0000000000
40
0.0000000000
40
0.0000000000
40
0.4996501991
40
1.0000000000
40
1.0000000000
40
1.0000000000
40
1.0000000000
10
261.8557857507
20
143.0832039043
30
0.0000000000
10
261.8801456873
20
143.1543659481
30
0.0000000000
10
261.9297322691
20
143.2965060021
30
0.0000000000
10
261.9809672005
20
143.4380601985
30
0.0000000000
10
262.0070106410
20
143.5087357685
30
0.0000000000
11
261.8557857507
21
143.0832039043
31
0.0000000000
11
261.9301090892
21
143.2962603011
31
0.0000000000
11
262.0070106410
21
143.5087357685
31
0.0000000000
0
SPLINE
5
4A7
100
AcDbEntity
8
0
100
AcDbSpline
62
7
6
CONTINUOUS
70
0
71
3
72
9
73
5
74
3
42
0.0000001000
43
0.0000001000
44
0.0000000001
40
0.0000000000
40
0.0000000000
40
0.0000000000
40
0.0000000000
40
0.5003453116
40
1.0000000000
40
1.0000000000
40
1.0000000000
40
1.0000000000
10
261.7156350931
20
142.2321401760
30
0.0000000000
10
261.7381160393
20
142.3742270874
30
0.0000000000
10
261.7839397958
20
142.6580642387
30
0.0000000000
10
261.8315503048
20
142.9416071595
30
0.0000000000
10
261.8557857507
20
143.0832039043
30
0.0000000000
11
261.7156350931
21
142.2321401760
31
0.0000000000
11
261.7844187481
21
142.6581866039
31
0.0000000000
11
261.8557857507
21
143.0832039043
31
0.0000000000
0
SPLINE
5
4A8
100
AcDbEntity
8
0
100
AcDbSpline
62
7
6
CONTINUOUS
70
0
71
3
72
9
73
5
74
3
42
0.0000001000
43
0.0000001000
44
0.0000000001
40
0.0000000000
40
0.0000000000
40
0.0000000000
40
0.0000000000
40
0.5002792263
40
1.0000000000
40
1.0000000000
40
1.0000000000
40
1.0000000000
10
261.6496739601
20
141.3810764476
30
0.0000000000
10
261.6604474452
20
141.5230170092
30
0.0000000000
10
261.6822082542
20
141.8067225888
30
0.0000000000
10
261.7044214726
20
142.0903931051
30
0.0000000000
10
261.7156350931
20
142.2321401760
30
0.0000000000
11
261.6496739601
21
141.3810764476
31
0.0000000000
11
261.6823336353
21
141.8068722493
31
0.0000000000
11
261.7156350931
21
142.2321401760
31
0.0000000000
0
SPLINE
5
4A9
100
AcDbEntity
8
0
100
AcDbSpline
62
7
6
CONTINUOUS
70
0
71
3
72
9
73
5
74
3
42
0.0000001000
43
0.0000001000
44
0.0000000001
40
0.0000000000
40
0.0000000000
40
0.0000000000
40
0.0000000000
40
0.5001531571
40
1.0000000000
40
1.0000000000
40
1.0000000000
40
1.0000000000
10
261.6177158692
20
140.3172461912
30
0.0000000000
10
261.6229872327
20
140.4946072390
30
0.0000000000
10
261.6335833020
20
140.8492190324
30
0.0000000000
10
261.6442926154
20
141.2038274239
30
0.0000000000
10
261.6496739601
20
141.3810764476
30
0.0000000000
11
261.6177158692
21
140.3172461912
31
0.0000000000
11
261.6336148761
21
140.8493268040
31
0.0000000000
11
261.6496739601
21
141.3810764476
31
0.0000000000
0
SPLINE
5
4AA
100
AcDbEntity
8
0
100
AcDbSpline
62
7
6
CONTINUOUS
70
0
71
3
72
9
73
5
74
3
42
0.0000001000
43
0.0000001000
44
0.0000000001
40
0.0000000000
40
0.0000000000
40
0.0000000000
40
0.0000000000
40
0.5001531571
40
1.0000000000
40
1.0000000000
40
1.0000000000
40
1.0000000000
10
261.6177158692
20
137.1257569119
30
0.0000000000
10
261.6229872327
20
136.9483959635
30
0.0000000000
10
261.6335833020
20
136.5937843688
30
0.0000000000
10
261.6442926154
20
136.2391761760
30
0.0000000000
10
261.6496739601
20
136.0619272515
30
0.0000000000
11
261.6177158692
21
137.1257569119
31
0.0000000000
11
261.6336148761
21
136.5936765972
31
0.0000000000
11
261.6496739601
21
136.0619272515
31
0.0000000000
0
SPLINE
5
4AB
100
AcDbEntity
8
0
100
AcDbSpline
62
7
6
CONTINUOUS
70
0
71
3
72
9
73
5
74
3
42
0.0000001000
43
0.0000001000
44
0.0000000001
40
0.0000000000
40
0.0000000000
40
0.0000000000
40
0.0000000000
40
0.5002792263
40
1.0000000000
40
1.0000000000
40
1.0000000000
40
1.0000000000
10
261.6496739601
20
136.0619272515
30
0.0000000000
10
261.6604474452
20
135.9199866651
30
0.0000000000
10
261.6822082542
20
135.6362810359
30
0.0000000000
10
261.7044214726
20
135.3526104699
30
0.0000000000
10
261.7156350931
20
135.2108633741
30
0.0000000000
11
261.6496739601
21
136.0619272515
31
0.0000000000
11
261.6823336353
21
135.6361313753
31
0.0000000000
11
261.7156350931
21
135.2108633741
31
0.0000000000
0
SPLINE
5
4AC
100
AcDbEntity
8
0
100
AcDbSpline
62
7
6
CONTINUOUS
70
0
71
3
72
9
73
5
74
3
42
0.0000001000
43
0.0000001000
44
0.0000000001
40
0.0000000000
40
0.0000000000
40
0.0000000000
40
0.0000000000
40
0.5003453116
40
1.0000000000
40
1.0000000000
40
1.0000000000
40
1.0000000000
10
261.7156350931
20
135.2108633741
30
0.0000000000
10
261.7381160393
20
135.0687764503
30
0.0000000000
10
261.7839397958
20
134.7849392742
30
0.0000000000
10
261.8315503048
20
134.5013963285
30
0.0000000000
10
261.8557857507
20
134.3597995713
30
0.0000000000
11
261.7156350931
21
135.2108633741
31
0.0000000000
11
261.7844187481
21
134.7848169089
31
0.0000000000
11
261.8557857507
21
134.3597995713
31
0.0000000000
0
SPLINE
5
4AD
100
AcDbEntity
8
0
100
AcDbSpline
62
7
6
CONTINUOUS
70
0
71
3
72
9
73
5
74
3
42
0.0000001000
43
0.0000001000
44
0.0000000001
40
0.0000000000
40
0.0000000000
40
0.0000000000
40
0.0000000000
40
0.4996501993
40
1.0000000000
40
1.0000000000
40
1.0000000000
40
1.0000000000
10
261.8557857507
20
134.3597995713
30
0.0000000000
10
261.8801456873
20
134.2886375182
30
0.0000000000
10
261.9297322691
20
134.1464974456
30
0.0000000000
10
261.9809672005
20
134.0049432306
30
0.0000000000
10
262.0070106410
20
133.9342676513
30
0.0000000000
11
261.8557857507
21
134.3597995713
31
0.0000000000
11
261.9301090893
21
134.1467431466
31
0.0000000000
11
262.0070106410
21
133.9342676513
31
0.0000000000
0
SPLINE
5
4AE
100
AcDbEntity
8
0
100
AcDbSpline
62
7
6
CONTINUOUS
70
0
71
3
72
9
73
5
74
3
42
0.0000001000
43
0.0000001000
44
0.0000000001
40
0.0000000000
40
0.0000000000
40
0.0000000000
40
0.0000000000
40
0.4955487252
40
1.0000000000
40
1.0000000000
40
1.0000000000
40
1.0000000000
10
262.0070106410
20
133.9342676513
30
0.0000000000
10
262.0400649664
20
133.8983871464
30
0.0000000000
10
262.1075844541
20
133.8267304875
30
0.0000000000
10
262.1766299731
20
133.7565442248
30
0.0000000000
10
262.2118194915
20
133.7215017006
30
0.0000000000
11
262.0070106410
21
133.9342676513
31
0.0000000000
11
262.1073581038
21
133.8277294975
31
0.0000000000
11
262.2118194915
21
133.7215017006
31
0.0000000000
0
SPLINE
5
4AF
100
AcDbEntity
8
0
100
AcDbSpline
62
7
6
CONTINUOUS
70
0
71
3
72
9
73
5
74
3
42
0.0000001000
43
0.0000001000
44
0.0000000001
40
0.0000000000
40
0.0000000000
40
0.0000000000
40
0.0000000000
40
0.5001183651
40
1.0000000000
40
1.0000000000
40
1.0000000000
40
1.0000000000
10
261.3604665699
20
135.4236293062
30
0.0000000000
10
261.3647290650
20
135.5300397199
30
0.0000000000
10
261.3733074395
20
135.7428079623
30
0.0000000000
10
261.3819966936
20
135.9555717054
30
0.0000000000
10
261.3863680247
20
136.0619272515
30
0.0000000000
11
261.3604665699
21
135.4236293062
31
0.0000000000
11
261.3733372033
21
135.7428572056
31
0.0000000000
11
261.3863680247
21
136.0619272515
31
0.0000000000
0
SPLINE
5
4B0
100
AcDbEntity
8
0
100
AcDbSpline
62
7
6
CONTINUOUS
70
0
71
3
72
9
73
5
74
3
42
0.0000001000
43
0.0000001000
44
0.0000000001
40
0.0000000000
40
0.0000000000
40
0.0000000000
40
0.0000000000
40
0.5001183651
40
1.0000000000
40
1.0000000000
40
1.0000000000
40
1.0000000000
10
261.3604665699
20
137.7640550062
30
0.0000000000
10
261.3647290650
20
137.6576445677
30
0.0000000000
10
261.3733074395
20
137.4448762756
30
0.0000000000
10
261.3819966936
20
137.2321124828
30
0.0000000000
10
261.3863680247
20
137.1257569119
30
0.0000000000
11
261.3604665699
21
137.7640550062
31
0.0000000000
11
261.3733372033
21
137.4448270323
31
0.0000000000
11
261.3863680247
21
137.1257569119
31
0.0000000000
0
SPLINE
5
4B1
100
AcDbEntity
8
0
100
AcDbSpline
62
7
6
CONTINUOUS
70
0
71
3
72
9
73
5
74
3
42
0.0000001000
43
0.0000001000
44
0.0000000001
40
0.0000000000
40
0.0000000000
40
0.0000000000
40
0.0000000000
40
0.5002539567
40
1.0000000000
40
1.0000000000
40
1.0000000000
40
1.0000000000
10
261.2867509943
20
138.6151187345
30
0.0000000000
10
261.2985490571
20
138.4731605874
30
0.0000000000
10
261.3226267829
20
138.1894292289
30
0.0000000000
10
261.3476927409
20
137.9057834650
30
0.0000000000
10
261.3604665699
20
137.7640550062
30
0.0000000000
11
261.2867509943
21
138.6151187345
31
0.0000000000
11
261.3228863214
21
138.1893065384
31
0.0000000000
11
261.3604665699
21
137.7640550062
31
0.0000000000
0
SPLINE
5
4B2
100
AcDbEntity
8
0
100
AcDbSpline
62
7
6
CONTINUOUS
70
0
71
3
72
9
73
5
74
3
42
0.0000001000
43
0.0000001000
44
0.0000000001
40
0.0000000000
40
0.0000000000
40
0.0000000000
40
0.0000000000
40
0.4998851508
40
1.0000000000
40
1.0000000000
40
1.0000000000
40
1.0000000000
10
261.2409188283
20
138.8278846666
30
0.0000000000
10
261.2483451022
20
138.7923869344
30
0.0000000000
10
261.2634122133
20
138.7214191694
30
0.0000000000
10
261.2789002729
20
138.6505420841
30
0.0000000000
10
261.2867509943
20
138.6151187345
30
0.0000000000
11
261.2409188283
21
138.8278846666
31
0.0000000000
11
261.2635139412
21
138.7214581301
31
0.0000000000
11
261.2867509943
21
138.6151187345
31
0.0000000000
0
SPLINE
5
4B3
100
AcDbEntity
8
0
100
AcDbSpline
62
7
6
CONTINUOUS
70
0
71
3
72
9
73
5
74
3
42
0.0000001000
43
0.0000001000
44
0.0000000001
40
0.0000000000
40
0.0000000000
40
0.0000000000
40
0.0000000000
40
0.4624273366
40
1.0000000000
40
1.0000000000
40
1.0000000000
40
1.0000000000
10
261.3598544435
20
111.3722490701
30
0.0000000000
10
261.3598553334
20
111.4030120586
30
0.0000000000
10
261.3626123049
20
111.4695657067
30
0.0000000000
10
261.3712649781
20
111.5356266989
30
0.0000000000
10
261.3775350431
20
111.5708296062
30
0.0000000000
11
261.3598544435
21
111.3722490701
31
0.0000000000
11
261.3636658626
21
111.4644591620
31
0.0000000000
11
261.3775350431
21
111.5708296062
31
0.0000000000
0
SPLINE
5
4B4
100
AcDbEntity
8
0
100
AcDbSpline
62
7
6
CONTINUOUS
70
0
71
3
72
9
73
5
74
3
42
0.0000001000
43
0.0000001000
44
0.0000000001
40
0.0000000000
40
0.0000000000
40
0.0000000000
40
0.0000000000
40
0.5001951517
40
1.0000000000
40
1.0000000000
40
1.0000000000
40
1.0000000000
10
261.6979412122
20
113.4857232743
30
0.0000000000
10
261.7052613904
20
113.3792919180
30
0.0000000000
10
261.7199946071
20
113.1665190222
30
0.0000000000
10
261.7349251822
20
112.9537598841
30
0.0000000000
10
261.7424369308
20
112.8474253290
30
0.0000000000
11
261.6979412122
21
113.4857232743
31
0.0000000000
11
261.7200497356
21
113.1664394183
31
0.0000000000
11
261.7424369308
21
112.8474253290
31
0.0000000000
0
SPLINE
5
4B5
100
AcDbEntity
8
0
100
AcDbSpline
62
7
6
CONTINUOUS
70
0
71
3
72
9
73
5
74
3
42
0.0000001000
43
0.0000001000
44
0.0000000001
40
0.0000000000
40
0.0000000000
40
0.0000000000
40
0.0000000000
40
0.4996849245
40
1.0000000000
40
1.0000000000
40
1.0000000000
40
1.0000000000
10
262.2541697988
20
112.8474253290
30
0.0000000000
10
262.2770951858
20
112.7762764121
30
0.0000000000
10
262.3238030074
20
112.6341543813
30
0.0000000000
10
262.3721514833
20
112.4925821271
30
0.0000000000
10
262.3967473576
20
112.4218934649
30
0.0000000000
11
262.2541697988
21
112.8474253290
31
0.0000000000
11
262.3241832212
21
112.6343812106
31
0.0000000000
11
262.3967473576
21
112.4218934649
31
0.0000000000
0
SPLINE
5
4B6
100
AcDbEntity
8
0
100
AcDbSpline
62
7
6
CONTINUOUS
70
0
71
3
72
9
73
5
74
3
42
0.0000001000
43
0.0000001000
44
0.0000000001
40
0.0000000000
40
0.0000000000
40
0.0000000000
40
0.0000000000
40
0.4996922626
40
1.0000000000
40
1.0000000000
40
1.0000000000
40
1.0000000000
10
261.7424369308
20
112.8474253290
30
0.0000000000
10
261.7650526720
20
112.7762822903
30
0.0000000000
10
261.8111299232
20
112.6341673166
30
0.0000000000
10
261.8588279563
20
112.4925881401
30
0.0000000000
10
261.8830932234
20
112.4218934649
30
0.0000000000
11
261.7424369308
21
112.8474253290
31
0.0000000000
11
261.8115062607
21
112.6343885693
31
0.0000000000
11
261.8830932234
21
112.4218934649
31
0.0000000000
0
SPLINE
5
4B7
100
AcDbEntity
8
0
100
AcDbSpline
62
7
6
CONTINUOUS
70
0
71
3
72
9
73
5
74
3
42
0.0000001000
43
0.0000001000
44
0.0000000001
40
0.0000000000
40
0.0000000000
40
0.0000000000
40
0.0000000000
40
0.4624742724
40
1.0000000000
40
1.0000000000
40
1.0000000000
40
1.0000000000
10
260.8598544344
20
121.3438782687
30
0.0000000000
10
260.8598552899
20
121.3131160509
30
0.0000000000
10
260.8625763753
20
121.2465715581
30
0.0000000000
10
260.8711175295
20
121.1805070374
30
0.0000000000
10
260.8773082636
20
121.1452977234
30
0.0000000000
11
260.8598544344
21
121.3438782687
31
0.0000000000
11
260.8636169645
21
121.2516684767
31
0.0000000000
11
260.8773082636
21
121.1452977234
31
0.0000000000
0
SPLINE
5
4B8
100
AcDbEntity
8
0
100
AcDbSpline
62
7
6
CONTINUOUS
70
0
71
3
72
9
73
5
74
3
42
0.0000001000
43
0.0000001000
44
0.0000000001
40
0.0000000000
40
0.0000000000
40
0.0000000000
40
0.0000000000
40
0.4920332221
40
1.0000000000
40
1.0000000000
40
1.0000000000
40
1.0000000000
10
262.3967473576
20
112.4218934649
30
0.0000000000
10
262.4386921005
20
112.3857286199
30
0.0000000000
10
262.5250916403
20
112.3135554297
30
0.0000000000
10
262.6135320543
20
112.2439029707
30
0.0000000000
10
262.6589169888
20
112.2091274583
30
0.0000000000
11
262.3967473576
21
112.4218934649
31
0.0000000000
11
262.5242090773
21
112.3153156659
31
0.0000000000
11
262.6589169888
21
112.2091274583
31
0.0000000000
0
SPLINE
5
4B9
100
AcDbEntity
8
0
100
AcDbSpline
62
7
6
CONTINUOUS
70
0
71
3
72
9
73
5
74
3
42
0.0000001000
43
0.0000001000
44
0.0000000001
40
0.0000000000
40
0.0000000000
40
0.0000000000
40
0.0000000000
40
0.4921197366
40
1.0000000000
40
1.0000000000
40
1.0000000000
40
1.0000000000
10
261.8830932234
20
112.4218934649
30
0.0000000000
10
261.9244590373
20
112.3857387638
30
0.0000000000
10
262.0096668958
20
112.3135808022
30
0.0000000000
10
262.0969180509
20
112.2439121187
30
0.0000000000
10
262.1416924025
20
112.2091274583
30
0.0000000000
11
261.8830932234
21
112.4218934649
31
0.0000000000
11
262.0088188244
21
112.3153209076
31
0.0000000000
11
262.1416924025
21
112.2091274583
31
0.0000000000
0
SPLINE
5
4BA
100
AcDbEntity
8
0
100
AcDbSpline
62
7
6
CONTINUOUS
70
0
71
3
72
9
73
5
74
3
42
0.0000001000
43
0.0000001000
44
0.0000000001
40
0.0000000000
40
0.0000000000
40
0.0000000000
40
0.0000000000
40
0.4624742727
40
1.0000000000
40
1.0000000000
40
1.0000000000
40
1.0000000000
10
260.8598544344
20
111.3722490434
30
0.0000000000
10
260.8598552899
20
111.4030112639
30
0.0000000000
10
260.8625763753
20
111.4695557625
30
0.0000000000
10
260.8711175295
20
111.5356202890
30
0.0000000000
10
260.8773082636
20
111.5708296062
30
0.0000000000
11
260.8598544344
21
111.3722490434
31
0.0000000000
11
260.8636169645
21
111.4644588435
31
0.0000000000
11
260.8773082636
21
111.5708296062
31
0.0000000000
0
SPLINE
5
4BB
100
AcDbEntity
8
0
100
AcDbSpline
62
7
6
CONTINUOUS
70
0
71
3
72
9
73
5
74
3
42
0.0000001000
43
0.0000001000
44
0.0000000001
40
0.0000000000
40
0.0000000000
40
0.0000000000
40
0.0000000000
40
0.4998851508
40
1.0000000000
40
1.0000000000
40
1.0000000000
40
1.0000000000
10
261.2409188283
20
138.8278846666
30
0.0000000000
10
261.2483451022
20
138.8633823988
30
0.0000000000
10
261.2634122133
20
138.9343501638
30
0.0000000000
10
261.2789002729
20
139.0052272491
30
0.0000000000
10
261.2867509943
20
139.0406505987
30
0.0000000000
11
261.2409188283
21
138.8278846666
31
0.0000000000
11
261.2635139412
21
138.9343112031
31
0.0000000000
11
261.2867509943
21
139.0406505987
31
0.0000000000
0
SPLINE
5
4BC
100
AcDbEntity
8
0
100
AcDbSpline
62
7
6
CONTINUOUS
70
0
71
3
72
9
73
5
74
3
42
0.0000001000
43
0.0000001000
44
0.0000000001
40
0.0000000000
40
0.0000000000
40
0.0000000000
40
0.0000000000
40
0.5002539567
40
1.0000000000
40
1.0000000000
40
1.0000000000
40
1.0000000000
10
261.2867509943
20
139.0406505987
30
0.0000000000
10
261.2985490571
20
139.1826087458
30
0.0000000000
10
261.3226267829
20
139.4663401043
30
0.0000000000
10
261.3476927409
20
139.7499858682
30
0.0000000000
10
261.3604665699
20
139.8917143270
30
0.0000000000
11
261.2867509943
21
139.0406505987
31
0.0000000000
11
261.3228863214
21
139.4664627948
31
0.0000000000
11
261.3604665699
21
139.8917143270
31
0.0000000000
0
SPLINE
5
4BD
100
AcDbEntity
8
0
100
AcDbSpline
62
7
6
CONTINUOUS
70
0
71
3
72
9
73
5
74
3
42
0.0000001000
43
0.0000001000
44
0.0000000001
40
0.0000000000
40
0.0000000000
40
0.0000000000
40
0.0000000000
40
0.4998039170
40
1.0000000000
40
1.0000000000
40
1.0000000000
40
1.0000000000
10
261.3775350431
20
121.1452977234
30
0.0000000000
10
261.3828036873
20
121.0388079898
30
0.0000000000
10
261.3956975155
20
120.8258548776
30
0.0000000000
10
261.4132796297
20
120.6132376153
30
0.0000000000
10
261.4232406473
20
120.5069999271
30
0.0000000000
11
261.3775350431
21
121.1452977234
31
0.0000000000
11
261.3968636114
21
120.8260222872
31
0.0000000000
11
261.4232406473
21
120.5069999271
31
0.0000000000
0
SPLINE
5
4BE
100
AcDbEntity
8
0
100
AcDbSpline
62
7
6
CONTINUOUS
70
0
71
3
72
9
73
5
74
3
42
0.0000001000
43
0.0000001000
44
0.0000000001
40
0.0000000000
40
0.0000000000
40
0.0000000000
40
0.0000000000
40
0.4998089084
40
1.0000000000
40
1.0000000000
40
1.0000000000
40
1.0000000000
10
260.8773082636
20
121.1452977234
30
0.0000000000
10
260.8825091674
20
121.0388107091
30
0.0000000000
10
260.8952371038
20
120.8258623592
30
0.0000000000
10
260.9125934459
20
120.6132413064
30
0.0000000000
10
260.9224266862
20
120.5069999271
30
0.0000000000
11
260.8773082636
21
121.1452977234
31
0.0000000000
11
260.8963884565
21
120.8260255062
31
0.0000000000
11
260.9224266862
21
120.5069999271
31
0.0000000000
0
SPLINE
5
4BF
100
AcDbEntity
8
0
100
AcDbSpline
62
7
6
CONTINUOUS
70
0
71
3
72
9
73
5
74
3
42
0.0000001000
43
0.0000001000
44
0.0000000001
40
0.0000000000
40
0.0000000000
40
0.0000000000
40
0.0000000000
40
0.5000390541
40
1.0000000000
40
1.0000000000
40
1.0000000000
40
1.0000000000
10
261.4232406473
20
120.5069999271
30
0.0000000000
10
261.4292288181
20
120.4005567278
30
0.0000000000
10
261.4420521891
20
120.1877338126
30
0.0000000000
10
261.4565705664
20
119.9750198061
30
0.0000000000
10
261.4642526389
20
119.8687021309
30
0.0000000000
11
261.4232406473
21
120.5069999271
31
0.0000000000
11
261.4424770085
21
120.1877444208
31
0.0000000000
11
261.4642526389
21
119.8687021309
31
0.0000000000
0
SPLINE
5
4C0
100
AcDbEntity
8
0
100
AcDbSpline
62
7
6
CONTINUOUS
70
0
71
3
72
9
73
5
74
3
42
0.0000001000
43
0.0000001000
44
0.0000000001
40
0.0000000000
40
0.0000000000
40
0.0000000000
40
0.0000000000
40
0.5001183651
40
1.0000000000
40
1.0000000000
40
1.0000000000
40
1.0000000000
10
261.3604665699
20
139.8917143270
30
0.0000000000
10
261.3647290650
20
139.9981247158
30
0.0000000000
10
261.3733074395
20
140.2108929086
30
0.0000000000
10
261.3819966936
20
140.4236566020
30
0.0000000000
10
261.3863680247
20
140.5300121233
30
0.0000000000
11
261.3604665699
21
139.8917143270
31
0.0000000000
11
261.3733372033
21
140.2109421519
31
0.0000000000
11
261.3863680247
21
140.5300121233
31
0.0000000000
0
SPLINE
5
4C1
100
AcDbEntity
8
0
100
AcDbSpline
62
7
6
CONTINUOUS
70
0
71
3
72
9
73
5
74
3
42
0.0000001000
43
0.0000001000
44
0.0000000001
40
0.0000000000
40
0.0000000000
40
0.0000000000
40
0.0000000000
40
0.5000380645
40
1.0000000000
40
1.0000000000
40
1.0000000000
40
1.0000000000
10
260.9224266862
20
120.5069999271
30
0.0000000000
10
260.9283377516
20
120.4005582671
30
0.0000000000
10
260.9409960138
20
120.1877368100
30
0.0000000000
10
260.9553274508
20
119.9750214747
30
0.0000000000
10
260.9629106282
20
119.8687021309
30
0.0000000000
11
260.9224266862
21
120.5069999271
31
0.0000000000
11
260.9414153349
21
120.1877471426
31
0.0000000000
11
260.9629106282
21
119.8687021309
31
0.0000000000
0
SPLINE
5
4C2
100
AcDbEntity
8
0
100
AcDbSpline
62
7
6
CONTINUOUS
70
0
71
3
72
8
73
4
74
2
42
0.0000001000
43
0.0000001000
44
0.0000000001
40
0.0000000000
40
0.0000000000
40
0.0000000000
40
0.0000000000
40
1.0000000000
40
1.0000000000
40
1.0000000000
40
1.0000000000
10
261.4642526389
20
119.8687021309
30
0.0000000000
10
261.4668161204
20
119.7977463683
30
0.0000000000
10
261.4694269424
20
119.7267923003
30
0.0000000000
10
261.4720851247
20
119.6558399986
30
0.0000000000
11
261.4642526389
21
119.8687021309
31
0.0000000000
11
261.4720851247
21
119.6558399986
31
0.0000000000
0
SPLINE
5
4C3
100
AcDbEntity
8
0
100
AcDbSpline
62
7
6
CONTINUOUS
70
0
71
3
72
9
73
5
74
3
42
0.0000001000
43
0.0000001000
44
0.0000000001
40
0.0000000000
40
0.0000000000
40
0.0000000000
40
0.0000000000
40
0.3952263341
40
1.0000000000
40
1.0000000000
40
1.0000000000
40
1.0000000000
10
261.4720851247
20
119.6558399986
30
0.0000000000
10
261.4747426384
20
119.5849055435
30
0.0000000000
10
261.4815864388
20
119.4054319521
30
0.0000000000
10
261.4887334084
20
119.2259701237
30
0.0000000000
10
261.4931666677
20
119.1174408969
30
0.0000000000
11
261.4720851247
21
119.6558399986
31
0.0000000000
11
261.4801996949
21
119.4430420017
31
0.0000000000
11
261.4931666677
21
119.1174408969
31
0.0000000000
0
SPLINE
5
4C4
100
AcDbEntity
8
0
100
AcDbSpline
62
7
6
CONTINUOUS
70
0
71
3
72
9
73
5
74
3
42
0.0000001000
43
0.0000001000
44
0.0000000001
40
0.0000000000
40
0.0000000000
40
0.0000000000
40
0.0000000000
40
0.5001216171
40
1.0000000000
40
1.0000000000
40
1.0000000000
40
1.0000000000
10
260.9629106282
20
119.8687021309
30
0.0000000000
10
260.9679708280
20
119.7268097273
30
0.0000000000
10
260.9784623781
20
119.4431071299
30
0.0000000000
10
260.9897015777
20
119.1594331673
30
0.0000000000
10
260.9955067945
20
119.0176384025
30
0.0000000000
11
260.9629106282
21
119.8687021309
31
0.0000000000
11
260.9786519333
21
119.4430452859
31
0.0000000000
11
260.9955067945
21
119.0176384025
31
0.0000000000
0
SPLINE
5
4C5
100
AcDbEntity
8
0
100
AcDbSpline
62
7
6
CONTINUOUS
70
0
71
3
72
9
73
5
74
3
42
0.0000001000
43
0.0000001000
44
0.0000000001
40
0.0000000000
40
0.0000000000
40
0.0000000000
40
0.0000000000
40
0.5000777344
40
1.0000000000
40
1.0000000000
40
1.0000000000
40
1.0000000000
10
260.9955067945
20
119.0176384025
30
0.0000000000
10
260.9984109407
20
118.9112361888
30
0.0000000000
10
261.0043119958
20
118.6984673868
30
0.0000000000
10
261.0104004616
20
118.4857038651
30
0.0000000000
10
261.0134910875
20
118.3793400102
30
0.0000000000
11
260.9955067945
21
119.0176384025
31
0.0000000000
11
261.0043597805
21
118.6984356283
31
0.0000000000
11
261.0134910875
21
118.3793400102
31
0.0000000000
0
SPLINE
5
4C6
100
AcDbEntity
8
0
100
AcDbSpline
62
7
6
CONTINUOUS
70
0
71
3
72
9
73
5
74
3
42
0.0000001000
43
0.0000001000
44
0.0000000001
40
0.0000000000
40
0.0000000000
40
0.0000000000
40
0.0000000000
40
0.5000887130
40
1.0000000000
40
1.0000000000
40
1.0000000000
40
1.0000000000
10
261.0134910875
20
118.3793400102
30
0.0000000000
10
261.0165828315
20
118.2020019406
30
0.0000000000
10
261.0228590574
20
117.8473903486
30
0.0000000000
10
261.0293230488
20
117.4927821295
30
0.0000000000
10
261.0326014292
20
117.3155103498
30
0.0000000000
11
261.0134910875
21
118.3793400102
31
0.0000000000
11
261.0229071290
21
117.8473282748
31
0.0000000000
11
261.0326014292
21
117.3155103498
31
0.0000000000
0
SPLINE
5
4C7
100
AcDbEntity
8
0
100
AcDbSpline
62
7
6
CONTINUOUS
70
0
71
3
72
9
73
5
74
3
42
0.0000001000
43
0.0000001000
44
0.0000000001
40
0.0000000000
40
0.0000000000
40
0.0000000000
40
0.0000000000
40
0.5001183651
40
1.0000000000
40
1.0000000000
40
1.0000000000
40
1.0000000000
10
261.3604665699
20
142.0193742439
30
0.0000000000
10
261.3647290650
20
141.9129638551
30
0.0000000000
10
261.3733074395
20
141.7001956623
30
0.0000000000
10
261.3819966936
20
141.4874319689
30
0.0000000000
10
261.3863680247
20
141.3810764476
30
0.0000000000
11
261.3604665699
21
142.0193742439
31
0.0000000000
11
261.3733372033
21
141.7001464190
31
0.0000000000
11
261.3863680247
21
141.3810764476
31
0.0000000000
0
SPLINE
5
4C8
100
AcDbEntity
8
0
100
AcDbSpline
62
7
6
CONTINUOUS
70
0
71
3
72
9
73
5
74
3
42
0.0000001000
43
0.0000001000
44
0.0000000001
40
0.0000000000
40
0.0000000000
40
0.0000000000
40
0.0000000000
40
0.4973906866
40
1.0000000000
40
1.0000000000
40
1.0000000000
40
1.0000000000
10
262.0465629113
20
135.2108633741
30
0.0000000000
10
262.0733677243
20
135.1751319141
30
0.0000000000
10
262.1278712912
20
135.1037518483
30
0.0000000000
10
262.1835508943
20
135.0332856408
30
0.0000000000
10
262.2118194915
20
134.9980974421
30
0.0000000000
11
262.0465629113
21
135.2108633741
31
0.0000000000
11
262.1278778058
21
135.1043504405
31
0.0000000000
11
262.2118194915
21
134.9980974421
31
0.0000000000
0
SPLINE
5
4C9
100
AcDbEntity
8
0
100
AcDbSpline
62
7
6
CONTINUOUS
70
0
71
3
72
9
73
5
74
3
42
0.0000001000
43
0.0000001000
44
0.0000000001
40
0.0000000000
40
0.0000000000
40
0.0000000000
40
0.0000000000
40
0.8142199435
40
1.0000000000
40
1.0000000000
40
1.0000000000
40
1.0000000000
10
262.5624682582
20
135.2108633741
30
0.0000000000
10
262.5896481113
20
135.1751262994
30
0.0000000000
10
262.6234060261
20
135.1315202537
30
0.0000000000
10
262.6576049735
20
135.0882616844
30
0.0000000000
10
262.6639735180
20
135.0802370713
30
0.0000000000
11
262.5624682582
21
135.2108633741
31
0.0000000000
11
262.6449132306
21
135.1043468361
31
0.0000000000
11
262.6639735180
21
135.0802370713
31
0.0000000000
0
SPLINE
5
4CA
100
AcDbEntity
8
0
100
AcDbSpline
62
7
6
CONTINUOUS
70
0
71
3
72
9
73
5
74
3
42
0.0000001000
43
0.0000001000
44
0.0000000001
40
0.0000000000
40
0.0000000000
40
0.0000000000
40
0.0000000000
40
0.5001191964
40
1.0000000000
40
1.0000000000
40
1.0000000000
40
1.0000000000
10
261.9300060819
20
135.6363953873
30
0.0000000000
10
261.9489483282
20
135.5653240219
30
0.0000000000
10
261.9873133311
20
135.4233451923
30
0.0000000000
10
262.0266541404
20
135.2816336519
30
0.0000000000
10
262.0465629113
20
135.2108633741
30
0.0000000000
11
261.9300060819
21
135.6363953873
31
0.0000000000
11
261.9875665449
21
135.4233781997
31
0.0000000000
11
262.0465629113
21
135.2108633741
31
0.0000000000
0
SPLINE
5
4CB
100
AcDbEntity
8
0
100
AcDbSpline
62
7
6
CONTINUOUS
70
0
71
3
72
9
73
5
74
3
42
0.0000001000
43
0.0000001000
44
0.0000000001
40
0.0000000000
40
0.0000000000
40
0.0000000000
40
0.0000000000
40
0.5001224500
40
1.0000000000
40
1.0000000000
40
1.0000000000
40
1.0000000000
10
262.4443042471
20
135.6363953873
30
0.0000000000
10
262.4635079716
20
135.5653199282
30
0.0000000000
10
262.5024021751
20
135.4233374064
30
0.0000000000
10
262.5422852895
20
135.2816294986
30
0.0000000000
10
262.5624682582
20
135.2108633741
30
0.0000000000
11
262.4443042471
21
135.6363953873
31
0.0000000000
11
262.5026590491
21
135.4233713220
31
0.0000000000
11
262.5624682582
21
135.2108633741
31
0.0000000000
0
SPLINE
5
4CC
100
AcDbEntity
8
0
100
AcDbSpline
62
7
6
CONTINUOUS
70
0
71
3
72
9
73
5
74
3
42
0.0000001000
43
0.0000001000
44
0.0000000001
40
0.0000000000
40
0.0000000000
40
0.0000000000
40
0.0000000000
40
0.5002786919
40
1.0000000000
40
1.0000000000
40
1.0000000000
40
1.0000000000
10
261.8557857507
20
136.2746931836
30
0.0000000000
10
261.8679344379
20
136.1682245652
30
0.0000000000
10
261.8924462520
20
135.9554319013
30
0.0000000000
10
261.9174146235
20
135.7426923246
30
0.0000000000
10
261.9300060819
20
135.6363953873
30
0.0000000000
11
261.8557857507
21
136.2746931836
31
0.0000000000
11
261.8925741811
21
135.9553265807
31
0.0000000000
11
261.9300060819
21
135.6363953873
31
0.0000000000
0
SPLINE
5
4CD
100
AcDbEntity
8
0
100
AcDbSpline
62
7
6
CONTINUOUS
70
0
71
3
72
9
73
5
74
3
42
0.0000001000
43
0.0000001000
44
0.0000000001
40
0.0000000000
40
0.0000000000
40
0.0000000000
40
0.0000000000
40
0.5002862854
40
1.0000000000
40
1.0000000000
40
1.0000000000
40
1.0000000000
10
262.3690657486
20
136.2746931836
30
0.0000000000
10
262.3813810358
20
136.1682221927
30
0.0000000000
10
262.4062288581
20
135.9554287605
30
0.0000000000
10
262.4315399982
20
135.7426899407
30
0.0000000000
10
262.4443042471
20
135.6363953873
30
0.0000000000
11
262.3690657486
21
136.2746931836
31
0.0000000000
11
262.4063590474
21
135.9553205900
31
0.0000000000
11
262.4443042471
21
135.6363953873
31
0.0000000000
0
SPLINE
5
4CE
100
AcDbEntity
8
0
100
AcDbSpline
62
7
6
CONTINUOUS
70
0
71
3
72
9
73
5
74
3
42
0.0000001000
43
0.0000001000
44
0.0000000001
40
0.0000000000
40
0.0000000000
40
0.0000000000
40
0.0000000000
40
0.5001714668
40
1.0000000000
40
1.0000000000
40
1.0000000000
40
1.0000000000
10
261.8197149258
20
137.1257569119
30
0.0000000000
10
261.8256713105
20
136.9838618866
30
0.0000000000
10
261.8376374254
20
136.7001715317
30
0.0000000000
10
261.8497185147
20
136.4164860497
30
0.0000000000
10
261.8557857507
20
136.2746931836
30
0.0000000000
11
261.8197149258
21
137.1257569119
31
0.0000000000
11
261.8376702923
21
136.7000754638
31
0.0000000000
11
261.8557857507
21
136.2746931836
31
0.0000000000
0
SPLINE
5
4CF
100
AcDbEntity
8
0
100
AcDbSpline
62
7
6
CONTINUOUS
70
0
71
3
72
9
73
5
74
3
42
0.0000001000
43
0.0000001000
44
0.0000000001
40
0.0000000000
40
0.0000000000
40
0.0000000000
40
0.0000000000
40
0.5001761801
40
1.0000000000
40
1.0000000000
40
1.0000000000
40
1.0000000000
10
262.3325015621
20
137.1257569119
30
0.0000000000
10
262.3385393967
20
136.9838604794
30
0.0000000000
10
262.3506691024
20
136.7001700538
30
0.0000000000
10
262.3629155081
20
136.4164846419
30
0.0000000000
10
262.3690657486
20
136.2746931836
30
0.0000000000
11
262.3325015621
21
137.1257569119
31
0.0000000000
11
262.3507025720
21
136.7000713469
31
0.0000000000
11
262.3690657486
21
136.2746931836
31
0.0000000000
0
SPLINE
5
4D0
100
AcDbEntity
8
0
100
AcDbSpline
62
7
6
CONTINUOUS
70
0
71
3
72
9
73
5
74
3
42
0.0000001000
43
0.0000001000
44
0.0000000001
40
0.0000000000
40
0.0000000000
40
0.0000000000
40
0.0000000000
40
0.5001714668
40
1.0000000000
40
1.0000000000
40
1.0000000000
40
1.0000000000
10
261.8197149258
20
140.3172461912
30
0.0000000000
10
261.8256713105
20
140.4591412164
30
0.0000000000
10
261.8376374254
20
140.7428315714
30
0.0000000000
10
261.8497185147
20
141.0265170534
30
0.0000000000
10
261.8557857507
20
141.1683099195
30
0.0000000000
11
261.8197149258
21
140.3172461912
31
0.0000000000
11
261.8376702923
21
140.7429276392
31
0.0000000000
11
261.8557857507
21
141.1683099195
31
0.0000000000
0
SPLINE
5
4D1
100
AcDbEntity
8
0
100
AcDbSpline
62
7
6
CONTINUOUS
70
0
71
3
72
9
73
5
74
3
42
0.0000001000
43
0.0000001000
44
0.0000000001
40
0.0000000000
40
0.0000000000
40
0.0000000000
40
0.0000000000
40
0.5001761801
40
1.0000000000
40
1.0000000000
40
1.0000000000
40
1.0000000000
10
262.3325015621
20
140.3172461912
30
0.0000000000
10
262.3385393967
20
140.4591426237
30
0.0000000000
10
262.3506691024
20
140.7428330493
30
0.0000000000
10
262.3629155081
20
141.0265184612
30
0.0000000000
10
262.3690657486
20
141.1683099195
30
0.0000000000
11
262.3325015621
21
140.3172461912
31
0.0000000000
11
262.3507025720
21
140.7429317562
31
0.0000000000
11
262.3690657486
21
141.1683099195
31
0.0000000000
0
SPLINE
5
4D2
100
AcDbEntity
8
0
100
AcDbSpline
62
7
6
CONTINUOUS
70
0
71
3
72
9
73
5
74
3
42
0.0000001000
43
0.0000001000
44
0.0000000001
40
0.0000000000
40
0.0000000000
40
0.0000000000
40
0.0000000000
40
0.5002786921
40
1.0000000000
40
1.0000000000
40
1.0000000000
40
1.0000000000
10
261.8557857507
20
141.1683099195
30
0.0000000000
10
261.8679344379
20
141.2747786373
30
0.0000000000
10
261.8924462519
20
141.4875714998
30
0.0000000000
10
261.9174146235
20
141.7003112752
30
0.0000000000
10
261.9300060819
20
141.8066083118
30
0.0000000000
11
261.8557857507
21
141.1683099195
31
0.0000000000
11
261.8925741811
21
141.4876768206
31
0.0000000000
11
261.9300060819
21
141.8066083118
31
0.0000000000
0
SPLINE
5
4D3
100
AcDbEntity
8
0
100
AcDbSpline
62
7
6
CONTINUOUS
70
0
71
3
72
9
73
5
74
3
42
0.0000001000
43
0.0000001000
44
0.0000000001
40
0.0000000000
40
0.0000000000
40
0.0000000000
40
0.0000000000
40
0.5002862855
40
1.0000000000
40
1.0000000000
40
1.0000000000
40
1.0000000000
10
262.3690657486
20
141.1683099195
30
0.0000000000
10
262.3813810358
20
141.2747810098
30
0.0000000000
10
262.4062288581
20
141.4875746406
30
0.0000000000
10
262.4315399982
20
141.7003136592
30
0.0000000000
10
262.4443042471
20
141.8066083118
30
0.0000000000
11
262.3690657486
21
141.1683099195
31
0.0000000000
11
262.4063590474
21
141.4876828114
31
0.0000000000
11
262.4443042471
21
141.8066083118
31
0.0000000000
0
SPLINE
5
4D4
100
AcDbEntity
8
0
100
AcDbSpline
62
7
6
CONTINUOUS
70
0
71
3
72
9
73
5
74
3
42
0.0000001000
43
0.0000001000
44
0.0000000001
40
0.0000000000
40
0.0000000000
40
0.0000000000
40
0.0000000000
40
0.5001191960
40
1.0000000000
40
1.0000000000
40
1.0000000000
40
1.0000000000
10
261.9300060819
20
141.8066083118
30
0.0000000000
10
261.9489483282
20
141.8776796524
30
0.0000000000
10
261.9873133311
20
142.0196584324
30
0.0000000000
10
262.0266541404
20
142.1613699231
30
0.0000000000
10
262.0465629113
20
142.2321401760
30
0.0000000000
11
261.9300060819
21
141.8066083118
31
0.0000000000
11
261.9875665449
21
142.0196254248
31
0.0000000000
11
262.0465629113
21
142.2321401760
31
0.0000000000
0
SPLINE
5
4D5
100
AcDbEntity
8
0
100
AcDbSpline
62
7
6
CONTINUOUS
70
0
71
3
72
9
73
5
74
3
42
0.0000001000
43
0.0000001000
44
0.0000000001
40
0.0000000000
40
0.0000000000
40
0.0000000000
40
0.0000000000
40
0.5001224496
40
1.0000000000
40
1.0000000000
40
1.0000000000
40
1.0000000000
10
262.4443042471
20
141.8066083118
30
0.0000000000
10
262.4635079716
20
141.8776837461
30
0.0000000000
10
262.5024021751
20
142.0196662183
30
0.0000000000
10
262.5422852895
20
142.1613740763
30
0.0000000000
10
262.5624682582
20
142.2321401760
30
0.0000000000
11
262.4443042471
21
141.8066083118
31
0.0000000000
11
262.5026590491
21
142.0196323025
31
0.0000000000
11
262.5624682582
21
142.2321401760
31
0.0000000000
0
SPLINE
5
4D6
100
AcDbEntity
8
0
100
AcDbSpline
62
7
6
CONTINUOUS
70
0
71
3
72
9
73
5
74
3
42
0.0000001000
43
0.0000001000
44
0.0000000001
40
0.0000000000
40
0.0000000000
40
0.0000000000
40
0.0000000000
40
0.4973906866
40
1.0000000000
40
1.0000000000
40
1.0000000000
40
1.0000000000
10
262.0465629113
20
142.2321401760
30
0.0000000000
10
262.0733677243
20
142.2678716360
30
0.0000000000
10
262.1278712912
20
142.3392517018
30
0.0000000000
10
262.1835508943
20
142.4097179093
30
0.0000000000
10
262.2118194915
20
142.4449061081
30
0.0000000000
11
262.0465629113
21
142.2321401760
31
0.0000000000
11
262.1278778058
21
142.3386531096
31
0.0000000000
11
262.2118194915
21
142.4449061081
31
0.0000000000
0
SPLINE
5
4D7
100
AcDbEntity
8
0
100
AcDbSpline
62
7
6
CONTINUOUS
70
0
71
3
72
9
73
5
74
3
42
0.0000001000
43
0.0000001000
44
0.0000000001
40
0.0000000000
40
0.0000000000
40
0.0000000000
40
0.0000000000
40
0.8142199435
40
1.0000000000
40
1.0000000000
40
1.0000000000
40
1.0000000000
10
262.5624682582
20
142.2321401760
30
0.0000000000
10
262.5896481113
20
142.2678772507
30
0.0000000000
10
262.6234060261
20
142.3114832964
30
0.0000000000
10
262.6576049735
20
142.3547418658
30
0.0000000000
10
262.6639735180
20
142.3627664788
30
0.0000000000
11
262.5624682582
21
142.2321401760
31
0.0000000000
11
262.6449132306
21
142.3386567140
31
0.0000000000
11
262.6639735180
21
142.3627664788
31
0.0000000000
0
SPLINE
5
4D8
100
AcDbEntity
8
0
100
AcDbSpline
62
7
6
CONTINUOUS
70
0
71
3
72
9
73
5
74
3
42
0.0000001000
43
0.0000001000
44
0.0000000001
40
0.0000000000
40
0.0000000000
40
0.0000000000
40
0.0000000000
40
0.5000887130
40
1.0000000000
40
1.0000000000
40
1.0000000000
40
1.0000000000
10
261.0134910875
20
114.3367870026
30
0.0000000000
10
261.0165828315
20
114.5141251220
30
0.0000000000
10
261.0228590574
20
114.8687368133
30
0.0000000000
10
261.0293230488
20
115.2233451317
30
0.0000000000
10
261.0326014292
20
115.4006169611
30
0.0000000000
11
261.0134910875
21
114.3367870026
31
0.0000000000
11
261.0229071290
21
114.8687988871
31
0.0000000000
11
261.0326014292
21
115.4006169611
31
0.0000000000
0
SPLINE
5
4D9
100
AcDbEntity
8
0
100
AcDbSpline
62
7
6
CONTINUOUS
70
0
71
3
72
9
73
5
74
3
42
0.0000001000
43
0.0000001000
44
0.0000000001
40
0.0000000000
40
0.0000000000
40
0.0000000000
40
0.0000000000
40
0.5002539567
40
1.0000000000
40
1.0000000000
40
1.0000000000
40
1.0000000000
10
261.2867509943
20
142.8704379722
30
0.0000000000
10
261.2985490571
20
142.7284798251
30
0.0000000000
10
261.3226267829
20
142.4447484666
30
0.0000000000
10
261.3476927409
20
142.1611027027
30
0.0000000000
10
261.3604665699
20
142.0193742439
30
0.0000000000
11
261.2867509943
21
142.8704379722
31
0.0000000000
11
261.3228863214
21
142.4446257761
31
0.0000000000
11
261.3604665699
21
142.0193742439
31
0.0000000000
0
SPLINE
5
4DA
100
AcDbEntity
8
0
100
AcDbSpline
62
7
6
CONTINUOUS
70
0
71
3
72
9
73
5
74
3
42
0.0000001000
43
0.0000001000
44
0.0000000001
40
0.0000000000
40
0.0000000000
40
0.0000000000
40
0.0000000000
40
0.5000777344
40
1.0000000000
40
1.0000000000
40
1.0000000000
40
1.0000000000
10
260.9955067945
20
113.6984892064
30
0.0000000000
10
260.9984109407
20
113.8048913208
30
0.0000000000
10
261.0043119958
20
114.0176599241
30
0.0000000000
10
261.0104004616
20
114.2304232471
30
0.0000000000
10
261.0134910875
20
114.3367870026
30
0.0000000000
11
260.9955067945
21
113.6984892064
31
0.0000000000
11
261.0043597805
21
114.0176916825
31
0.0000000000
11
261.0134910875
21
114.3367870026
31
0.0000000000
0
SPLINE
5
4DB
100
AcDbEntity
8
0
100
AcDbSpline
62
7
6
CONTINUOUS
70
0
71
3
72
8
73
4
74
2
42
0.0000001000
43
0.0000001000
44
0.0000000001
40
0.0000000000
40
0.0000000000
40
0.0000000000
40
0.0000000000
40
1.0000000000
40
1.0000000000
40
1.0000000000
40
1.0000000000
10
261.7923576849
20
142.8704379722
30
0.0000000000
10
261.7954126536
20
142.8341614097
30
0.0000000000
10
261.7984839673
20
142.7978862164
30
0.0000000000
10
261.8015716327
20
142.7616124095
30
0.0000000000
11
261.7923576849
21
142.8704379722
31
0.0000000000
11
261.8015716327
21
142.7616124095
31
0.0000000000
0
SPLINE
5
4DC
100
AcDbEntity
8
0
100
AcDbSpline
62
7
6
CONTINUOUS
70
0
71
3
72
8
73
4
74
2
42
0.0000001000
43
0.0000001000
44
0.0000000001
40
0.0000000000
40
0.0000000000
40
0.0000000000
40
0.0000000000
40
1.0000000000
40
1.0000000000
40
1.0000000000
40
1.0000000000
10
261.4642526389
20
112.8474253290
30
0.0000000000
10
261.4668246469
20
112.9186171128
30
0.0000000000
10
261.4694443109
20
112.9898071909
30
0.0000000000
10
261.4721116508
20
113.0609954905
30
0.0000000000
11
261.4642526389
21
112.8474253290
31
0.0000000000
11
261.4721116508
21
113.0609954905
31
0.0000000000
0
SPLINE
5
4DD
100
AcDbEntity
8
0
100
AcDbSpline
62
7
6
CONTINUOUS
70
0
71
3
72
8
73
4
74
2
42
0.0000001000
43
0.0000001000
44
0.0000000001
40
0.0000000000
40
0.0000000000
40
0.0000000000
40
0.0000000000
40
1.0000000000
40
1.0000000000
40
1.0000000000
40
1.0000000000
10
261.4721116508
20
113.0609954905
30
0.0000000000
10
261.4747606369
20
113.1316939490
30
0.0000000000
10
261.4774566451
20
113.2023906535
30
0.0000000000
10
261.4801996949
20
113.2730855327
30
0.0000000000
11
261.4721116508
21
113.0609954905
31
0.0000000000
11
261.4801996949
21
113.2730855327
31
0.0000000000
0
SPLINE
5
4DE
100
AcDbEntity
8
0
100
AcDbSpline
62
7
6
CONTINUOUS
70
0
71
3
72
8
73
4
74
2
42
0.0000001000
43
0.0000001000
44
0.0000000001
40
0.0000000000
40
0.0000000000
40
0.0000000000
40
0.0000000000
40
1.0000000000
40
1.0000000000
40
1.0000000000
40
1.0000000000
10
261.4801996949
20
113.2730855327
30
0.0000000000
10
261.4844111094
20
113.3816236419
30
0.0000000000
10
261.4887334084
20
113.4901574487
30
0.0000000000
10
261.4931666677
20
113.5986866946
30
0.0000000000
11
261.4801996949
21
113.2730855327
31
0.0000000000
11
261.4931666677
21
113.5986866946
31
0.0000000000
0
SPLINE
5
4DF
100
AcDbEntity
8
0
100
AcDbSpline
62
7
6
CONTINUOUS
70
0
71
3
72
9
73
5
74
3
42
0.0000001000
43
0.0000001000
44
0.0000000001
40
0.0000000000
40
0.0000000000
40
0.0000000000
40
0.0000000000
40
0.5001216171
40
1.0000000000
40
1.0000000000
40
1.0000000000
40
1.0000000000
10
260.9629106282
20
112.8474253290
30
0.0000000000
10
260.9679708280
20
112.9893177575
30
0.0000000000
10
260.9784623781
20
113.2730204045
30
0.0000000000
10
260.9897015777
20
113.5566944168
30
0.0000000000
10
260.9955067945
20
113.6984892064
30
0.0000000000
11
260.9629106282
21
112.8474253290
31
0.0000000000
11
260.9786519333
21
113.2730822486
31
0.0000000000
11
260.9955067945
21
113.6984892064
31
0.0000000000
0
SPLINE
5
4E0
100
AcDbEntity
8
0
100
AcDbSpline
62
7
6
CONTINUOUS
70
0
71
3
72
9
73
5
74
3
42
0.0000001000
43
0.0000001000
44
0.0000000001
40
0.0000000000
40
0.0000000000
40
0.0000000000
40
0.0000000000
40
0.5000765504
40
1.0000000000
40
1.0000000000
40
1.0000000000
40
1.0000000000
10
261.1977249095
20
143.5087357685
30
0.0000000000
10
261.2117017544
20
143.4022188082
30
0.0000000000
10
261.2405149466
20
143.1893299503
30
0.0000000000
10
261.2710534360
20
142.9766817295
30
0.0000000000
10
261.2867509943
20
142.8704379722
30
0.0000000000
11
261.1977249095
21
143.5087357685
31
0.0000000000
11
261.2409508143
21
143.1893575345
31
0.0000000000
11
261.2867509943
21
142.8704379722
31
0.0000000000
0
SPLINE
5
4E1
100
AcDbEntity
8
0
100
AcDbSpline
62
7
6
CONTINUOUS
70
0
71
3
72
8
73
4
74
2
42
0.0000001000
43
0.0000001000
44
0.0000000001
40
0.0000000000
40
0.0000000000
40
0.0000000000
40
0.0000000000
40
1.0000000000
40
1.0000000000
40
1.0000000000
40
1.0000000000
10
261.4232406473
20
112.2091274583
30
0.0000000000
10
261.4292288181
20
112.3155706701
30
0.0000000000
10
261.4356410044
20
112.4219904517
30
0.0000000000
10
261.4424770085
20
112.5283830019
30
0.0000000000
11
261.4232406473
21
112.2091274583
31
0.0000000000
11
261.4424770085
21
112.5283830019
31
0.0000000000
0
SPLINE
5
4E2
100
AcDbEntity
8
0
100
AcDbSpline
62
7
6
CONTINUOUS
70
0
71
3
72
8
73
4
74
2
42
0.0000001000
43
0.0000001000
44
0.0000000001
40
0.0000000000
40
0.0000000000
40
0.0000000000
40
0.0000000000
40
1.0000000000
40
1.0000000000
40
1.0000000000
40
1.0000000000
10
261.4424770085
20
112.5283830019
30
0.0000000000
10
261.4493119448
20
112.6347589331
30
0.0000000000
10
261.4565705664
20
112.7411076413
30
0.0000000000
10
261.4642526389
20
112.8474253290
30
0.0000000000
11
261.4424770085
21
112.5283830019
31
0.0000000000
11
261.4642526389
21
112.8474253290
31
0.0000000000
0
SPLINE
5
4E3
100
AcDbEntity
8
0
100
AcDbSpline
62
7
6
CONTINUOUS
70
0
71
3
72
9
73
5
74
3
42
0.0000001000
43
0.0000001000
44
0.0000000001
40
0.0000000000
40
0.0000000000
40
0.0000000000
40
0.0000000000
40
0.5000380646
40
1.0000000000
40
1.0000000000
40
1.0000000000
40
1.0000000000
10
260.9224266862
20
112.2091274583
30
0.0000000000
10
260.9283377516
20
112.3155691308
30
0.0000000000
10
260.9409960138
20
112.5283906126
30
0.0000000000
10
260.9553274508
20
112.7411059728
30
0.0000000000
10
260.9629106282
20
112.8474253290
30
0.0000000000
11
260.9224266862
21
112.2091274583
31
0.0000000000
11
260.9414153349
21
112.5283802801
31
0.0000000000
11
260.9629106282
21
112.8474253290
31
0.0000000000
0
SPLINE
5
4E4
100
AcDbEntity
8
0
100
AcDbSpline
62
7
6
CONTINUOUS
70
0
71
3
72
9
73
5
74
3
42
0.0000001000
43
0.0000001000
44
0.0000000001
40
0.0000000000
40
0.0000000000
40
0.0000000000
40
0.0000000000
40
0.5002978237
40
1.0000000000
40
1.0000000000
40
1.0000000000
40
1.0000000000
10
263.3290352767
20
142.2321401760
30
0.0000000000
10
263.3388880264
20
142.0547259039
30
0.0000000000
10
263.3586465740
20
141.7001121812
30
0.0000000000
10
263.3785349072
20
141.3455057137
30
0.0000000000
10
263.3885056350
20
141.1683099195
30
0.0000000000
11
263.3290352767
21
142.2321401760
31
0.0000000000
11
263.3586908282
21
141.6999027724
31
0.0000000000
11
263.3885056350
21
141.1683099195
31
0.0000000000
0
SPLINE
5
4E5
100
AcDbEntity
8
0
100
AcDbSpline
62
7
6
CONTINUOUS
70
0
71
3
72
9
73
5
74
3
42
0.0000001000
43
0.0000001000
44
0.0000000001
40
0.0000000000
40
0.0000000000
40
0.0000000000
40
0.0000000000
40
0.5003067161
40
1.0000000000
40
1.0000000000
40
1.0000000000
40
1.0000000000
10
263.8633164329
20
142.2321401760
30
0.0000000000
10
263.8733156073
20
142.0547226288
30
0.0000000000
10
263.8933676726
20
141.7001087834
30
0.0000000000
10
263.9135519300
20
141.3455024378
30
0.0000000000
10
263.9236709559
20
141.1683099195
30
0.0000000000
11
263.8633164329
21
142.2321401760
31
0.0000000000
11
263.8934130617
21
141.6998931291
31
0.0000000000
11
263.9236709559
21
141.1683099195
31
0.0000000000
0
SPLINE
5
4E6
100
AcDbEntity
8
0
100
AcDbSpline
62
7
6
CONTINUOUS
70
0
71
3
72
8
73
4
74
2
42
0.0000001000
43
0.0000001000
44
0.0000000001
40
0.0000000000
40
0.0000000000
40
0.0000000000
40
0.0000000000
40
1.0000000000
40
1.0000000000
40
1.0000000000
40
1.0000000000
10
261.7021519463
20
143.5087357685
30
0.0000000000
10
261.7092336130
20
143.4554708159
30
0.0000000000
10
261.7164247243
20
143.4022202997
30
0.0000000000
10
261.7237252154
20
143.3489847262
30
0.0000000000
11
261.7021519463
21
143.5087357685
31
0.0000000000
11
261.7237252154
21
143.3489847262
31
0.0000000000
0
SPLINE
5
4E7
100
AcDbEntity
8
0
100
AcDbSpline
62
7
6
CONTINUOUS
70
0
71
3
72
9
73
5
74
3
42
0.0000001000
43
0.0000001000
44
0.0000000001
40
0.0000000000
40
0.0000000000
40
0.0000000000
40
0.0000000000
40
0.5000392780
40
1.0000000000
40
1.0000000000
40
1.0000000000
40
1.0000000000
10
261.7237252154
20
143.3489847262
30
0.0000000000
10
261.7310244212
20
143.2957585246
30
0.0000000000
10
261.7458403512
20
143.1893443558
30
0.0000000000
10
261.7610933167
20
143.0829919505
30
0.0000000000
10
261.7688283718
20
143.0298358686
30
0.0000000000
11
261.7237252154
21
143.3489847262
31
0.0000000000
11
261.7459507911
21
143.1893514396
31
0.0000000000
11
261.7688283718
21
143.0298358686
31
0.0000000000
0
SPLINE
5
4E8
100
AcDbEntity
8
0
100
AcDbSpline
62
7
6
CONTINUOUS
70
0
71
3
72
8
73
4
74
2
42
0.0000001000
43
0.0000001000
44
0.0000000001
40
0.0000000000
40
0.0000000000
40
0.0000000000
40
0.0000000000
40
1.0000000000
40
1.0000000000
40
1.0000000000
40
1.0000000000
10
261.7688283718
20
143.0298358686
30
0.0000000000
10
261.7765623584
20
142.9766871292
30
0.0000000000
10
261.7844054862
20
142.9235543288
30
0.0000000000
10
261.7923576849
20
142.8704379722
30
0.0000000000
11
261.7688283718
21
143.0298358686
31
0.0000000000
11
261.7923576849
21
142.8704379722
31
0.0000000000
0
SPLINE
5
4E9
100
AcDbEntity
8
0
100
AcDbSpline
62
7
6
CONTINUOUS
70
0
71
3
72
9
73
5
74
3
42
0.0000001000
43
0.0000001000
44
0.0000000001
40
0.0000000000
40
0.0000000000
40
0.0000000000
40
0.0000000000
40
0.5005673128
40
1.0000000000
40
1.0000000000
40
1.0000000000
40
1.0000000000
10
263.0989112215
20
143.0832039043
30
0.0000000000
10
263.1363492507
20
142.9409421688
30
0.0000000000
10
263.2120987487
20
142.6569924766
30
0.0000000000
10
263.2897662630
20
142.3735613952
30
0.0000000000
10
263.3290352767
20
142.2321401760
30
0.0000000000
11
263.0989112215
21
143.0832039043
31
0.0000000000
11
263.2126652889
21
142.6568002471
31
0.0000000000
11
263.3290352767
21
142.2321401760
31
0.0000000000
0
SPLINE
5
4EA
100
AcDbEntity
8
0
100
AcDbSpline
62
7
6
CONTINUOUS
70
0
71
3
72
9
73
5
74
3
42
0.0000001000
43
0.0000001000
44
0.0000000001
40
0.0000000000
40
0.0000000000
40
0.0000000000
40
0.0000000000
40
0.5005831111
40
1.0000000000
40
1.0000000000
40
1.0000000000
40
1.0000000000
10
263.6297986014
20
143.0832039043
30
0.0000000000
10
263.6677885542
20
142.9409296771
30
0.0000000000
10
263.7446537820
20
142.6569718114
30
0.0000000000
10
263.8234681326
20
142.3735487391
30
0.0000000000
10
263.8633164329
20
142.2321401760
30
0.0000000000
11
263.6297986014
21
143.0832039043
31
0.0000000000
11
263.7452318419
21
142.6567746638
31
0.0000000000
11
263.8633164329
21
142.2321401760
31
0.0000000000
0
SPLINE
5
4EB
100
AcDbEntity
8
0
100
AcDbSpline
62
7
6
CONTINUOUS
70
0
71
3
72
9
73
5
74
3
42
0.0000001000
43
0.0000001000
44
0.0000000001
40
0.0000000000
40
0.0000000000
40
0.0000000000
40
0.0000000000
40
0.4995558717
40
1.0000000000
40
1.0000000000
40
1.0000000000
40
1.0000000000
10
262.8810236950
20
143.5087357685
30
0.0000000000
10
262.9165021623
20
143.4374694868
30
0.0000000000
10
262.9883340222
20
143.2952129514
30
0.0000000000
10
263.0617670846
20
143.1537763874
30
0.0000000000
10
263.0989112215
20
143.0832039043
30
0.0000000000
11
262.8810236950
21
143.5087357685
31
0.0000000000
11
262.9886698069
21
143.2955439406
31
0.0000000000
11
263.0989112215
21
143.0832039043
31
0.0000000000
0
SPLINE
5
4EC
100
AcDbEntity
8
0
100
AcDbSpline
62
7
6
CONTINUOUS
70
0
71
3
72
9
73
5
74
3
42
0.0000001000
43
0.0000001000
44
0.0000000001
40
0.0000000000
40
0.0000000000
40
0.0000000000
40
0.0000000000
40
0.4995465648
40
1.0000000000
40
1.0000000000
40
1.0000000000
40
1.0000000000
10
263.4087375432
20
143.5087357685
30
0.0000000000
10
263.4447343998
20
143.4374600682
30
0.0000000000
10
263.5176149710
20
143.2951927135
30
0.0000000000
10
263.5921152537
20
143.1537668922
30
0.0000000000
10
263.6297986014
20
143.0832039043
30
0.0000000000
11
263.4087375432
21
143.5087357685
31
0.0000000000
11
263.5179530716
21
143.2955317335
31
0.0000000000
11
263.6297986014
21
143.0832039043
31
0.0000000000
0
SPLINE
5
4ED
100
AcDbEntity
8
0
100
AcDbSpline
62
7
6
CONTINUOUS
70
0
71
3
72
9
73
5
74
3
42
0.0000001000
43
0.0000001000
44
0.0000000001
40
0.0000000000
40
0.0000000000
40
0.0000000000
40
0.0000000000
40
0.4955542823
40
1.0000000000
40
1.0000000000
40
1.0000000000
40
1.0000000000
10
262.6255453697
20
143.7215017006
30
0.0000000000
10
262.6671010569
20
143.6855918041
30
0.0000000000
10
262.7516375814
20
143.6139108344
30
0.0000000000
10
262.8374417597
20
143.5437532580
30
0.0000000000
10
262.8810236950
20
143.5087357685
30
0.0000000000
11
262.6255453697
21
143.7215017006
31
0.0000000000
11
262.7511972332
21
143.6149222870
31
0.0000000000
11
262.8810236950
21
143.5087357685
31
0.0000000000
0
SPLINE
5
4EE
100
AcDbEntity
8
0
100
AcDbSpline
62
7
6
CONTINUOUS
70
0
71
3
72
9
73
5
74
3
42
0.0000001000
43
0.0000001000
44
0.0000000001
40
0.0000000000
40
0.0000000000
40
0.0000000000
40
0.0000000000
40
0.4955032866
40
1.0000000000
40
1.0000000000
40
1.0000000000
40
1.0000000000
10
263.1495865072
20
143.7215017006
30
0.0000000000
10
263.1917442786
20
143.6855842434
30
0.0000000000
10
263.2775051636
20
143.6138924741
30
0.0000000000
10
263.3645337416
20
143.5437460644
30
0.0000000000
10
263.4087375432
20
143.5087357685
30
0.0000000000
11
263.1495865072
21
143.7215017006
31
0.0000000000
11
263.2770451278
21
143.6149166509
31
0.0000000000
11
263.4087375432
21
143.5087357685
31
0.0000000000
0
SPLINE
5
4EF
100
AcDbEntity
8
0
100
AcDbSpline
62
7
6
CONTINUOUS
70
0
71
3
72
9
73
5
74
3
42
0.0000001000
43
0.0000001000
44
0.0000000001
40
0.0000000000
40
0.0000000000
40
0.0000000000
40
0.0000000000
40
0.4967194753
40
1.0000000000
40
1.0000000000
40
1.0000000000
40
1.0000000000
10
261.1012261890
20
143.7215017006
30
0.0000000000
10
261.1160588291
20
143.6857708693
30
0.0000000000
10
261.1471070221
20
143.6143247696
30
0.0000000000
10
261.1804186311
20
143.5439066722
30
0.0000000000
10
261.1977249095
20
143.5087357685
30
0.0000000000
11
261.1012261890
21
143.7215017006
31
0.0000000000
11
261.1474617666
21
143.6150471702
31
0.0000000000
11
261.1977249095
21
143.5087357685
31
0.0000000000
0
SPLINE
5
4F0
100
AcDbEntity
8
0
100
AcDbSpline
62
7
6
CONTINUOUS
70
0
71
3
72
9
73
5
74
3
42
0.0000001000
43
0.0000001000
44
0.0000000001
40
0.0000000000
40
0.0000000000
40
0.0000000000
40
0.0000000000
40
0.4966476744
40
1.0000000000
40
1.0000000000
40
1.0000000000
40
1.0000000000
10
261.6043807968
20
143.7215017006
30
0.0000000000
10
261.6194111502
20
143.6857646228
30
0.0000000000
10
261.6508737254
20
143.6143069482
30
0.0000000000
10
261.6846200935
20
143.5439002407
30
0.0000000000
10
261.7021519463
20
143.5087357685
30
0.0000000000
11
261.6043807968
21
143.7215017006
31
0.0000000000
11
261.6512260977
21
143.6150452774
31
0.0000000000
11
261.7021519463
21
143.5087357685
31
0.0000000000
0
SPLINE
5
4F1
100
AcDbEntity
8
0
100
AcDbSpline
62
7
6
CONTINUOUS
70
0
71
3
72
9
73
5
74
3
42
0.0000001000
43
0.0000001000
44
0.0000000001
40
0.0000000000
40
0.0000000000
40
0.0000000000
40
0.0000000000
40
0.4998039171
40
1.0000000000
40
1.0000000000
40
1.0000000000
40
1.0000000000
10
261.3775350431
20
111.5708296062
30
0.0000000000
10
261.3828036873
20
111.6773193490
30
0.0000000000
10
261.3956975155
20
111.8902724798
30
0.0000000000
10
261.4132796297
20
112.1028897608
30
0.0000000000
10
261.4232406473
20
112.2091274583
30
0.0000000000
11
261.3775350431
21
111.5708296062
31
0.0000000000
11
261.3968636114
21
111.8901050703
31
0.0000000000
11
261.4232406473
21
112.2091274583
31
0.0000000000
0
SPLINE
5
4F2
100
AcDbEntity
8
0
100
AcDbSpline
62
7
6
CONTINUOUS
70
0
71
3
72
9
73
5
74
3
42
0.0000001000
43
0.0000001000
44
0.0000000001
40
0.0000000000
40
0.0000000000
40
0.0000000000
40
0.0000000000
40
0.4998089085
40
1.0000000000
40
1.0000000000
40
1.0000000000
40
1.0000000000
10
260.8773082636
20
111.5708296062
30
0.0000000000
10
260.8825091674
20
111.6773166297
30
0.0000000000
10
260.8952371038
20
111.8902649982
30
0.0000000000
10
260.9125934458
20
112.1028860697
30
0.0000000000
10
260.9224266862
20
112.2091274583
30
0.0000000000
11
260.8773082636
21
111.5708296062
31
0.0000000000
11
260.8963884565
21
111.8901018513
31
0.0000000000
11
260.9224266862
21
112.2091274583
31
0.0000000000
0
SPLINE
5
4F3
100
AcDbEntity
8
0
100
AcDbSpline
62
7
6
CONTINUOUS
70
0
71
3
72
9
73
5
74
3
42
0.0000001000
43
0.0000001000
44
0.0000000001
40
0.0000000000
40
0.0000000000
40
0.0000000000
40
0.0000000000
40
0.4624273363
40
1.0000000000
40
1.0000000000
40
1.0000000000
40
1.0000000000
10
261.3598544435
20
121.3438782420
30
0.0000000000
10
261.3598553334
20
121.3131152562
30
0.0000000000
10
261.3626123049
20
121.2465616139
30
0.0000000000
10
261.3712649781
20
121.1805006275
30
0.0000000000
10
261.3775350431
20
121.1452977234
30
0.0000000000
11
261.3598544435
21
121.3438782420
31
0.0000000000
11
261.3636658626
21
121.2516681582
31
0.0000000000
11
261.3775350431
21
121.1452977234
31
0.0000000000
0
SPLINE
5
4F4
100
AcDbEntity
8
0
100
AcDbSpline
62
7
6
CONTINUOUS
70
0
71
3
72
9
73
5
74
3
42
0.0000001000
43
0.0000001000
44
0.0000000001
40
0.0000000000
40
0.0000000000
40
0.0000000000
40
0.0000000000
40
0.5002004650
40
1.0000000000
40
1.0000000000
40
1.0000000000
40
1.0000000000
10
262.2090693092
20
113.4857232743
30
0.0000000000
10
262.2164889548
20
113.3792905928
30
0.0000000000
10
262.2314223140
20
113.1665175001
30
0.0000000000
10
262.2465559264
20
112.9537585568
30
0.0000000000
10
262.2541697988
20
112.8474253290
30
0.0000000000
11
262.2090693092
21
113.4857232743
31
0.0000000000
11
262.2314784047
21
113.1664357332
31
0.0000000000
11
262.2541697988
21
112.8474253290
31
0.0000000000
0
SPLINE
5
4F5
100
AcDbEntity
8
0
100
AcDbSpline
62
7
6
CONTINUOUS
70
0
71
3
72
9
73
5
74
3
42
0.0000001000
43
0.0000001000
44
0.0000000001
40
0.0000000000
40
0.0000000000
40
0.0000000000
40
0.0000000000
40
0.4967194759
40
1.0000000000
40
1.0000000000
40
1.0000000000
40
1.0000000000
10
261.1012261890
20
133.7215017006
30
0.0000000000
10
261.1160588291
20
133.7572325349
30
0.0000000000
10
261.1471070220
20
133.8286786408
30
0.0000000000
10
261.1804186311
20
133.8990967444
30
0.0000000000
10
261.1977249095
20
133.9342676513
30
0.0000000000
11
261.1012261890
21
133.7215017006
31
0.0000000000
11
261.1474617666
21
133.8279562402
31
0.0000000000
11
261.1977249095
21
133.9342676513
31
0.0000000000
0
SPLINE
5
4F6
100
AcDbEntity
8
0
100
AcDbSpline
62
7
6
CONTINUOUS
70
0
71
3
72
9
73
5
74
3
42
0.0000001000
43
0.0000001000
44
0.0000000001
40
0.0000000000
40
0.0000000000
40
0.0000000000
40
0.0000000000
40
0.4966476749
40
1.0000000000
40
1.0000000000
40
1.0000000000
40
1.0000000000
10
261.6043807968
20
133.7215017006
30
0.0000000000
10
261.6194111502
20
133.7572387814
30
0.0000000000
10
261.6508737254
20
133.8286964622
30
0.0000000000
10
261.6846200935
20
133.8991031759
30
0.0000000000
10
261.7021519463
20
133.9342676513
30
0.0000000000
11
261.6043807968
21
133.7215017006
31
0.0000000000
11
261.6512260977
21
133.8279581331
31
0.0000000000
11
261.7021519463
21
133.9342676513
31
0.0000000000
0
SPLINE
5
4F7
100
AcDbEntity
8
0
100
AcDbSpline
62
7
6
CONTINUOUS
70
0
71
3
72
9
73
5
74
3
42
0.0000001000
43
0.0000001000
44
0.0000000001
40
0.0000000000
40
0.0000000000
40
0.0000000000
40
0.0000000000
40
0.5003023361
40
1.0000000000
40
1.0000000000
40
1.0000000000
40
1.0000000000
10
263.8633164329
20
135.2108633741
30
0.0000000000
10
263.8733156377
20
135.3527977893
30
0.0000000000
10
263.8933678226
20
135.6364904397
30
0.0000000000
10
263.9135519614
20
135.9201737324
30
0.0000000000
10
263.9236709559
20
136.0619272515
30
0.0000000000
11
263.8633164329
21
135.2108633741
31
0.0000000000
11
263.8934129760
21
135.6366596385
31
0.0000000000
11
263.9236709559
21
136.0619272515
31
0.0000000000
0
SPLINE
5
4F8
100
AcDbEntity
8
0
100
AcDbSpline
62
7
6
CONTINUOUS
70
0
71
3
72
9
73
5
74
3
42
0.0000001000
43
0.0000001000
44
0.0000000001
40
0.0000000000
40
0.0000000000
40
0.0000000000
40
0.0000000000
40
0.5002935861
40
1.0000000000
40
1.0000000000
40
1.0000000000
40
1.0000000000
10
263.3290352767
20
135.2108633741
30
0.0000000000
10
263.3388880554
20
135.3527951552
30
0.0000000000
10
263.3586467171
20
135.6364876529
30
0.0000000000
10
263.3785349372
20
135.9201710974
30
0.0000000000
10
263.3885056350
20
136.0619272515
30
0.0000000000
11
263.3290352767
21
135.2108633741
31
0.0000000000
11
263.3586907465
21
135.6366519633
31
0.0000000000
11
263.3885056350
21
136.0619272515
31
0.0000000000
0
SPLINE
5
4F9
100
AcDbEntity
8
0
100
AcDbSpline
62
7
6
CONTINUOUS
70
0
71
3
72
9
73
5
74
3
42
0.0000001000
43
0.0000001000
44
0.0000000001
40
0.0000000000
40
0.0000000000
40
0.0000000000
40
0.0000000000
40
0.5005831112
40
1.0000000000
40
1.0000000000
40
1.0000000000
40
1.0000000000
10
263.6297986014
20
134.3597995713
30
0.0000000000
10
263.6677885542
20
134.5020738109
30
0.0000000000
10
263.7446537820
20
134.7860317015
30
0.0000000000
10
263.8234681325
20
135.0694547986
30
0.0000000000
10
263.8633164329
20
135.2108633741
30
0.0000000000
11
263.6297986014
21
134.3597995713
31
0.0000000000
11
263.7452318419
21
134.7862288492
31
0.0000000000
11
263.8633164329
21
135.2108633741
31
0.0000000000
0
SPLINE
5
4FA
100
AcDbEntity
8
0
100
AcDbSpline
62
7
6
CONTINUOUS
70
0
71
3
72
9
73
5
74
3
42
0.0000001000
43
0.0000001000
44
0.0000000001
40
0.0000000000
40
0.0000000000
40
0.0000000000
40
0.0000000000
40
0.5000765505
40
1.0000000000
40
1.0000000000
40
1.0000000000
40
1.0000000000
10
261.1977249095
20
133.9342676513
30
0.0000000000
10
261.2117017544
20
134.0407846208
30
0.0000000000
10
261.2405149466
20
134.2536734974
30
0.0000000000
10
261.2710534360
20
134.4663217368
30
0.0000000000
10
261.2867509943
20
134.5725655034
30
0.0000000000
11
261.1977249095
21
133.9342676513
31
0.0000000000
11
261.2409508143
21
134.2536459132
31
0.0000000000
11
261.2867509943
21
134.5725655034
31
0.0000000000
0
SPLINE
5
4FB
100
AcDbEntity
8
0
100
AcDbSpline
62
7
6
CONTINUOUS
70
0
71
3
72
9
73
5
74
3
42
0.0000001000
43
0.0000001000
44
0.0000000001
40
0.0000000000
40
0.0000000000
40
0.0000000000
40
0.0000000000
40
0.5005673129
40
1.0000000000
40
1.0000000000
40
1.0000000000
40
1.0000000000
10
263.0989112215
20
134.3597995713
30
0.0000000000
10
263.1363492507
20
134.5020613192
30
0.0000000000
10
263.2120987487
20
134.7860110362
30
0.0000000000
10
263.2897662630
20
135.0694421425
30
0.0000000000
10
263.3290352767
20
135.2108633741
30
0.0000000000
11
263.0989112215
21
134.3597995713
31
0.0000000000
11
263.2126652889
21
134.7862032659
31
0.0000000000
11
263.3290352767
21
135.2108633741
31
0.0000000000
0
SPLINE
5
4FC
100
AcDbEntity
8
0
100
AcDbSpline
62
7
6
CONTINUOUS
70
0
71
3
72
8
73
4
74
2
42
0.0000001000
43
0.0000001000
44
0.0000000001
40
0.0000000000
40
0.0000000000
40
0.0000000000
40
0.0000000000
40
1.0000000000
40
1.0000000000
40
1.0000000000
40
1.0000000000
10
261.7021519463
20
133.9342676513
30
0.0000000000
10
261.7092336130
20
133.9875326085
30
0.0000000000
10
261.7164247243
20
134.0407831293
30
0.0000000000
10
261.7237252154
20
134.0940187075
30
0.0000000000
11
261.7021519463
21
133.9342676513
31
0.0000000000
11
261.7237252154
21
134.0940187075
31
0.0000000000
0
SPLINE
5
4FD
100
AcDbEntity
8
0
100
AcDbSpline
62
7
6
CONTINUOUS
70
0
71
3
72
9
73
5
74
3
42
0.0000001000
43
0.0000001000
44
0.0000000001
40
0.0000000000
40
0.0000000000
40
0.0000000000
40
0.0000000000
40
0.5000392780
40
1.0000000000
40
1.0000000000
40
1.0000000000
40
1.0000000000
10
261.7237252154
20
134.0940187075
30
0.0000000000
10
261.7310244212
20
134.1472449137
30
0.0000000000
10
261.7458403512
20
134.2536590919
30
0.0000000000
10
261.7610933167
20
134.3600115065
30
0.0000000000
10
261.7688283718
20
134.4131675931
30
0.0000000000
11
261.7237252154
21
134.0940187075
31
0.0000000000
11
261.7459507911
21
134.2536520081
31
0.0000000000
11
261.7688283718
21
134.4131675931
31
0.0000000000
0
SPLINE
5
4FE
100
AcDbEntity
8
0
100
AcDbSpline
62
7
6
CONTINUOUS
70
0
71
3
72
8
73
4
74
2
42
0.0000001000
43
0.0000001000
44
0.0000000001
40
0.0000000000
40
0.0000000000
40
0.0000000000
40
0.0000000000
40
1.0000000000
40
1.0000000000
40
1.0000000000
40
1.0000000000
10
261.7688283718
20
134.4131675931
30
0.0000000000
10
261.7765623584
20
134.4663163371
30
0.0000000000
10
261.7844054862
20
134.5194491422
30
0.0000000000
10
261.7923576849
20
134.5725655034
30
0.0000000000
11
261.7688283718
21
134.4131675931
31
0.0000000000
11
261.7923576849
21
134.5725655034
31
0.0000000000
0
SPLINE
5
4FF
100
AcDbEntity
8
0
100
AcDbSpline
62
7
6
CONTINUOUS
70
0
71
3
72
9
73
5
74
3
42
0.0000001000
43
0.0000001000
44
0.0000000001
40
0.0000000000
40
0.0000000000
40
0.0000000000
40
0.0000000000
40
0.4995465652
40
1.0000000000
40
1.0000000000
40
1.0000000000
40
1.0000000000
10
263.4087375432
20
133.9342676513
30
0.0000000000
10
263.4447343998
20
134.0055433608
30
0.0000000000
10
263.5176149710
20
134.1478107342
30
0.0000000000
10
263.5921152537
20
134.2892365741
30
0.0000000000
10
263.6297986014
20
134.3597995713
30
0.0000000000
11
263.4087375432
21
133.9342676513
31
0.0000000000
11
263.5179530716
21
134.1474717143
31
0.0000000000
11
263.6297986014
21
134.3597995713
31
0.0000000000
0
SPLINE
5
500
100
AcDbEntity
8
0
100
AcDbSpline
62
7
6
CONTINUOUS
70
0
71
3
72
9
73
5
74
3
42
0.0000001000
43
0.0000001000
44
0.0000000001
40
0.0000000000
40
0.0000000000
40
0.0000000000
40
0.0000000000
40
0.4995558720
40
1.0000000000
40
1.0000000000
40
1.0000000000
40
1.0000000000
10
262.8810236950
20
133.9342676513
30
0.0000000000
10
262.9165021623
20
134.0055339422
30
0.0000000000
10
262.9883340221
20
134.1477904962
30
0.0000000000
10
263.0617670846
20
134.2892270789
30
0.0000000000
10
263.0989112215
20
134.3597995713
30
0.0000000000
11
262.8810236950
21
133.9342676513
31
0.0000000000
11
262.9886698069
21
134.1474595072
31
0.0000000000
11
263.0989112215
21
134.3597995713
31
0.0000000000
0
SPLINE
5
501
100
AcDbEntity
8
0
100
AcDbSpline
62
7
6
CONTINUOUS
70
0
71
3
72
9
73
5
74
3
42
0.0000001000
43
0.0000001000
44
0.0000000001
40
0.0000000000
40
0.0000000000
40
0.0000000000
40
0.0000000000
40
0.5002539567
40
1.0000000000
40
1.0000000000
40
1.0000000000
40
1.0000000000
10
261.2867509943
20
134.5725655034
30
0.0000000000
10
261.2985490571
20
134.7145236629
30
0.0000000000
10
261.3226267829
20
134.9982550463
30
0.0000000000
10
261.3476927409
20
135.2819008350
30
0.0000000000
10
261.3604665699
20
135.4236293062
30
0.0000000000
11
261.2867509943
21
134.5725655034
31
0.0000000000
11
261.3228863214
21
134.9983777368
31
0.0000000000
11
261.3604665699
21
135.4236293062
31
0.0000000000
0
SPLINE
5
502
100
AcDbEntity
8
0
100
AcDbSpline
62
7
6
CONTINUOUS
70
0
71
3
72
9
73
5
74
3
42
0.0000001000
43
0.0000001000
44
0.0000000001
40
0.0000000000
40
0.0000000000
40
0.0000000000
40
0.0000000000
40
0.4955032870
40
1.0000000000
40
1.0000000000
40
1.0000000000
40
1.0000000000
10
263.1495865072
20
133.7215017006
30
0.0000000000
10
263.1917442785
20
133.7574191609
30
0.0000000000
10
263.2775051635
20
133.8291109364
30
0.0000000000
10
263.3645337416
20
133.8992573523
30
0.0000000000
10
263.4087375432
20
133.9342676513
30
0.0000000000
11
263.1495865072
21
133.7215017006
31
0.0000000000
11
263.2770451278
21
133.8280867596
31
0.0000000000
11
263.4087375432
21
133.9342676513
31
0.0000000000
0
SPLINE
5
503
100
AcDbEntity
8
0
100
AcDbSpline
62
7
6
CONTINUOUS
70
0
71
3
72
8
73
4
74
2
42
0.0000001000
43
0.0000001000
44
0.0000000001
40
0.0000000000
40
0.0000000000
40
0.0000000000
40
0.0000000000
40
1.0000000000
40
1.0000000000
40
1.0000000000
40
1.0000000000
10
261.7923576849
20
134.5725655034
30
0.0000000000
10
261.7954126540
20
134.6088420732
30
0.0000000000
10
261.7984839680
20
134.6451172738
30
0.0000000000
10
261.8015716337
20
134.6813910879
30
0.0000000000
11
261.7923576849
21
134.5725655034
31
0.0000000000
11
261.8015716337
21
134.6813910879
31
0.0000000000
0
SPLINE
5
504
100
AcDbEntity
8
0
100
AcDbSpline
62
7
6
CONTINUOUS
70
0
71
3
72
9
73
5
74
3
42
0.0000001000
43
0.0000001000
44
0.0000000001
40
0.0000000000
40
0.0000000000
40
0.0000000000
40
0.0000000000
40
0.4955542827
40
1.0000000000
40
1.0000000000
40
1.0000000000
40
1.0000000000
10
262.6255453697
20
133.7215017006
30
0.0000000000
10
262.6671010569
20
133.7574116001
30
0.0000000000
10
262.7516375813
20
133.8290925760
30
0.0000000000
10
262.8374417597
20
133.8992501587
30
0.0000000000
10
262.8810236950
20
133.9342676513
30
0.0000000000
11
262.6255453697
21
133.7215017006
31
0.0000000000
11
262.7511972332
21
133.8280811235
31
0.0000000000
11
262.8810236950
21
133.9342676513
31
0.0000000000
0
SPLINE
5
505
100
AcDbEntity
8
0
100
AcDbSpline
62
7
6
CONTINUOUS
70
0
71
3
72
12
73
8
74
6
42
0.0000001000
43
0.0000001000
44
0.0000000001
40
0.0000000000
40
0.0000000000
40
0.0000000000
40
0.0000000000
40
0.2144346222
40
0.4173831257
40
0.6140549713
40
0.8076156115
40
1.0000000000
40
1.0000000000
40
1.0000000000
40
1.0000000000
10
300.3598542095
20
188.0857823315
30
0.0000000000
10
301.4839883301
20
188.4604937051
30
0.0000000000
10
303.6895759168
20
189.1390360671
30
0.0000000000
10
306.9846497239
20
189.9568840127
30
0.0000000000
10
310.2113131262
20
190.5474356800
30
0.0000000000
10
313.4132208851
20
190.9075568274
30
0.0000000000
10
315.5467598953
20
190.9885652494
30
0.0000000000
10
316.6098542098
20
190.9885652496
30
0.0000000000
11
300.3598542095
21
188.0857823315
31
0.0000000000
11
303.7592802166
21
189.1253389841
31
0.0000000000
11
307.0259067576
21
189.9305806171
31
0.0000000000
11
310.2338015363
21
190.5131195147
31
0.0000000000
11
313.4228261941
21
190.8686564463
31
0.0000000000
11
316.6098542098
21
190.9885652496
31
0.0000000000
0
SPLINE
5
506
100
AcDbEntity
8
0
100
AcDbSpline
62
7
6
CONTINUOUS
70
0
71
3
72
12
73
8
74
6
42
0.0000001000
43
0.0000001000
44
0.0000000001
40
0.0000000000
40
0.0000000000
40
0.0000000000
40
0.0000000000
40
0.1924237016
40
0.3860043262
40
0.5826712958
40
0.7855694331
40
1.0000000000
40
1.0000000000
40
1.0000000000
40
1.0000000000
10
316.6098542098
20
190.9885652496
30
0.0000000000
10
317.6731657548
20
190.9885652495
30
0.0000000000
10
319.8070329205
20
190.9075276206
30
0.0000000000
10
323.0092334492
20
190.5473136010
30
0.0000000000
10
326.2356935787
20
189.9567359498
30
0.0000000000
10
329.5304415963
20
189.1389414736
30
0.0000000000
10
331.7357413581
20
188.4604866153
30
0.0000000000
10
332.8598542095
20
188.0857823315
30
0.0000000000
11
316.6098542098
21
190.9885652496
31
0.0000000000
11
319.7975325426
21
190.8686076616
31
0.0000000000
11
322.9868799762
21
190.5129761753
31
0.0000000000
11
326.1946841598
21
189.9303909688
31
0.0000000000
11
329.4604930457
21
189.1253210299
31
0.0000000000
11
332.8598542095
21
188.0857823315
31
0.0000000000
0
SPLINE
5
507
100
AcDbEntity
8
0
100
AcDbSpline
62
7
6
CONTINUOUS
70
0
71
3
72
12
73
8
74
6
42
0.0000001000
43
0.0000001000
44
0.0000000001
40
0.0000000000
40
0.0000000000
40
0.0000000000
40
0.0000000000
40
0.2340124151
40
0.4554900331
40
0.6701179370
40
0.8813505841
40
1.0000000000
40
1.0000000000
40
1.0000000000
40
1.0000000000
10
267.8598542095
20
188.0857823315
30
0.0000000000
10
268.9839884132
20
188.4604937328
30
0.0000000000
10
271.1895761620
20
189.1390361414
30
0.0000000000
10
274.4846502143
20
189.9568841215
30
0.0000000000
10
277.7113138580
20
190.5474358043
30
0.0000000000
10
280.4534412861
20
190.8558449951
30
0.0000000000
10
282.1223728143
20
190.9460418632
30
0.0000000000
10
282.7229955550
20
190.9657577882
30
0.0000000000
11
267.8598542095
21
188.0857823315
31
0.0000000000
11
271.2592804698
21
189.1253390542
31
0.0000000000
11
274.5259072511
21
189.9305807232
31
0.0000000000
11
277.7338022685
21
190.5131196226
31
0.0000000000
11
280.9228271675
21
190.8686565193
31
0.0000000000
11
282.7229955550
21
190.9657577882
31
0.0000000000
0
SPLINE
5
508
100
AcDbEntity
8
0
100
AcDbSpline
62
7
6
CONTINUOUS
70
0
71
3
72
8
73
4
74
2
42
0.0000001000
43
0.0000001000
44
0.0000000001
40
0.0000000000
40
0.0000000000
40
0.0000000000
40
0.0000000000
40
1.0000000000
40
1.0000000000
40
1.0000000000
40
1.0000000000
10
282.7229955550
20
190.9657577882
30
0.0000000000
10
283.1851690037
20
190.9809290038
30
0.0000000000
10
283.6475523116
20
190.9885653224
30
0.0000000000
10
284.1098554420
20
190.9885652958
30
0.0000000000
11
282.7229955550
21
190.9657577882
31
0.0000000000
11
284.1098554420
21
190.9885652958
31
0.0000000000
0
SPLINE
5
509
100
AcDbEntity
8
0
100
AcDbSpline
62
7
6
CONTINUOUS
70
0
71
3
72
12
73
8
74
6
42
0.0000001000
43
0.0000001000
44
0.0000000001
40
0.0000000000
40
0.0000000000
40
0.0000000000
40
0.0000000000
40
0.1924237603
40
0.3860043706
40
0.5826713262
40
0.7855694491
40
1.0000000000
40
1.0000000000
40
1.0000000000
40
1.0000000000
10
284.1098554420
20
190.9885652958
30
0.0000000000
10
285.1731672325
20
190.9885652343
30
0.0000000000
10
287.3070344807
20
190.9075274978
30
0.0000000000
10
290.5092349245
20
190.5473133722
30
0.0000000000
10
293.7356945666
20
189.9567357244
30
0.0000000000
10
297.0304420904
20
189.1389413258
30
0.0000000000
10
299.2357415254
20
188.4604865596
30
0.0000000000
10
300.3598542095
20
188.0857823315
30
0.0000000000
11
284.1098554420
21
190.9885652958
31
0.0000000000
11
287.2975345044
21
190.8686075145
31
0.0000000000
11
290.4868814517
21
190.5129759580
31
0.0000000000
11
293.6946851541
21
189.9303907551
31
0.0000000000
11
296.9604935559
21
189.1253208886
31
0.0000000000
11
300.3598542095
21
188.0857823315
31
0.0000000000
0
SPLINE
5
50A
100
AcDbEntity
8
0
100
AcDbSpline
62
7
6
CONTINUOUS
70
0
71
3
72
16
73
12
74
10
42
0.0000001000
43
0.0000001000
44
0.0000000001
40
0.0000000000
40
0.0000000000
40
0.0000000000
40
0.0000000000
40
0.1496429657
40
0.2882507788
40
0.4182921889
40
0.5411806562
40
0.6579081027
40
0.7691380808
40
0.8752939070
40
0.9764577080
40
1.0000000000
40
1.0000000000
40
1.0000000000
40
1.0000000000
10
77.0016149914
20
-84.3511394007
30
0.0000000000
10
77.2614731054
20
-84.3912264735
30
0.0000000000
10
77.7560765787
20
-84.5139010872
30
0.0000000000
10
78.4336103480
20
-84.8054810914
30
0.0000000000
10
79.0216390717
20
-85.1668165294
30
0.0000000000
10
79.5266344273
20
-85.5780572387
30
0.0000000000
10
79.9540033303
20
-86.0243905832
30
0.0000000000
10
80.3082349587
20
-86.4941605406
30
0.0000000000
10
80.5931378438
20
-86.9772807769
30
0.0000000000
10
80.7598990366
20
-87.3479424745
30
0.0000000000
10
80.8360894241
20
-87.5535080021
30
0.0000000000
10
80.8499699836
20
-87.5924940853
30
0.0000000000
11
77.0016149914
21
-84.3511394007
31
0.0000000000
11
77.7675446233
21
-84.5396883712
31
0.0000000000
11
78.4390531568
21
-84.8275995895
31
0.0000000000
11
79.0233070419
21
-85.1860962309
31
0.0000000000
11
79.5257230672
21
-85.5949744939
31
0.0000000000
11
79.9512622253
21
-86.0393850372
31
0.0000000000
11
80.3041762297
21
-86.5075897597
31
0.0000000000
11
80.5882515372
21
-86.9896857372
31
0.0000000000
11
80.8068276217
21
-87.4760841877
31
0.0000000000
11
80.8499699836
21
-87.5924940853
31
0.0000000000
0
SPLINE
5
50B
100
AcDbEntity
8
0
100
AcDbSpline
62
7
6
CONTINUOUS
70
0
71
3
72
9
73
5
74
3
42
0.0000001000
43
0.0000001000
44
0.0000000001
40
0.0000000000
40
0.0000000000
40
0.0000000000
40
0.0000000000
40
0.1709883265
40
1.0000000000
40
1.0000000000
40
1.0000000000
40
1.0000000000
10
185.4874854220
20
-107.5927699467
30
0.0000000000
10
185.4902886206
20
-107.5936270262
30
0.0000000000
10
185.5070338396
20
-107.5988066759
30
0.0000000000
10
185.5260010782
20
-107.6050365946
30
0.0000000000
10
185.5340236377
20
-107.6073991247
30
0.0000000000
11
185.4874854220
21
-107.5927699467
31
0.0000000000
11
185.4960800598
21
-107.5954290522
31
0.0000000000
11
185.5340236377
21
-107.6073991247
31
0.0000000000
0
SPLINE
5
50C
100
AcDbEntity
8
0
100
AcDbSpline
62
7
6
CONTINUOUS
70
0
71
3
72
8
73
4
74
2
42
0.0000001000
43
0.0000001000
44
0.0000000001
40
0.0000000000
40
0.0000000000
40
0.0000000000
40
0.0000000000
40
1.0000000000
40
1.0000000000
40
1.0000000000
40
1.0000000000
10
193.0479263498
20
-110.8430601084
30
0.0000000000
10
193.0548575815
20
-110.8430595548
30
0.0000000000
10
193.0617890879
20
-110.8430446408
30
0.0000000000
10
193.0687207982
20
-110.8430153696
30
0.0000000000
11
193.0479263498
21
-110.8430601084
31
0.0000000000
11
193.0687207982
21
-110.8430153696
31
0.0000000000
0
SPLINE
5
50D
100
AcDbEntity
8
0
100
AcDbSpline
62
7
6
CONTINUOUS
70
0
71
3
72
8
73
4
74
2
42
0.0000001000
43
0.0000001000
44
0.0000000001
40
0.0000000000
40
0.0000000000
40
0.0000000000
40
0.0000000000
40
1.0000000000
40
1.0000000000
40
1.0000000000
40
1.0000000000
10
193.0687207982
20
-110.8430153696
30
0.0000000000
10
193.0740211984
20
-110.8429929872
30
0.0000000000
10
193.0793217178
20
-110.8429622100
30
0.0000000000
10
193.0846223249
20
-110.8429230396
30
0.0000000000
11
193.0687207982
21
-110.8430153696
31
0.0000000000
11
193.0846223249
21
-110.8429230396
31
0.0000000000
0
SPLINE
5
50E
100
AcDbEntity
8
0
100
AcDbSpline
62
7
6
CONTINUOUS
70
0
71
3
72
19
73
15
74
13
42
0.0000001000
43
0.0000001000
44
0.0000000001
40
0.0000000000
40
0.0000000000
40
0.0000000000
40
0.0000000000
40
0.0947332800
40
0.2116275455
40
0.3236158623
40
0.4300725920
40
0.5301371643
40
0.6226811233
40
0.7068611557
40
0.7813015990
40
0.8453379320
40
0.9002685091
40
0.9504068216
40
1.0000000000
40
1.0000000000
40
1.0000000000
40
1.0000000000
10
193.0846223249
20
-110.8429230396
30
0.0000000000
10
193.3055706989
20
-110.8412902774
30
0.0000000000
10
193.7994941577
20
-110.8050644256
30
0.0000000000
10
194.5384738062
20
-110.6391779827
30
0.0000000000
10
195.2672367943
20
-110.3481177425
30
0.0000000000
10
195.9093854178
20
-109.9704073230
30
0.0000000000
10
196.4554436225
20
-109.5336944449
30
0.0000000000
10
196.9027989040
20
-109.0665542554
30
0.0000000000
10
197.2548760767
20
-108.5973552302
30
0.0000000000
10
197.5215055388
20
-108.1512425816
30
0.0000000000
10
197.7184811629
20
-107.7453239082
30
0.0000000000
10
197.8664718446
20
-107.3798303750
30
0.0000000000
10
197.9851811872
20
-107.0393835060
30
0.0000000000
10
198.0537967994
20
-106.8172757025
30
0.0000000000
10
198.0864793605
20
-106.7064093638
30
0.0000000000
11
193.0846223249
21
-110.8429230396
31
0.0000000000
11
193.7456339045
21
-110.7943792054
31
0.0000000000
11
194.5430918017
21
-110.6154485496
31
0.0000000000
11
195.2702382952
21
-110.3250646444
31
0.0000000000
11
195.9118341188
21
-109.9477696071
31
0.0000000000
11
196.4582766327
21
-109.5108879323
31
0.0000000000
11
196.9059240643
21
-109.0436967663
31
0.0000000000
11
197.2594023477
21
-108.5731076535
31
0.0000000000
11
197.5267997311
21
-108.1265879506
31
0.0000000000
11
197.7228151895
21
-107.7240565235
31
0.0000000000
11
197.8675757028
21
-107.3683270357
31
0.0000000000
11
197.9835947841
21
-107.0375325316
31
0.0000000000
11
198.0864793605
21
-106.7064093638
31
0.0000000000
0
SPLINE
5
50F
100
AcDbEntity
8
0
100
AcDbSpline
62
7
6
CONTINUOUS
70
0
71
3
72
8
73
4
74
2
42
0.0000001000
43
0.0000001000
44
0.0000000001
40
0.0000000000
40
0.0000000000
40
0.0000000000
40
0.0000000000
40
1.0000000000
40
1.0000000000
40
1.0000000000
40
1.0000000000
10
198.0864793605
20
-106.7064093638
30
0.0000000000
10
198.1034522863
20
-106.6488335167
30
0.0000000000
10
198.1200374593
20
-106.5911445412
30
0.0000000000
10
198.1362894518
20
-106.5333616951
30
0.0000000000
11
198.0864793605
21
-106.7064093638
31
0.0000000000
11
198.1362894518
21
-106.5333616951
31
0.0000000000
0
SPLINE
5
510
100
AcDbEntity
8
0
100
AcDbSpline
62
7
6
CONTINUOUS
70
0
71
3
72
21
73
17
74
15
42
0.0000001000
43
0.0000001000
44
0.0000000001
40
0.0000000000
40
0.0000000000
40
0.0000000000
40
0.0000000000
40
0.0205440171
40
0.0646641842
40
0.1133719381
40
0.1673088126
40
0.2270340637
40
0.2928566844
40
0.3648713707
40
0.4429756862
40
0.5268841235
40
0.6162277542
40
0.7104721702
40
0.8089038671
40
0.9106445981
40
1.0000000000
40
1.0000000000
40
1.0000000000
40
1.0000000000
10
198.1362894518
20
-106.5333616951
30
0.0000000000
10
198.1531746435
20
-106.4733275528
30
0.0000000000
10
198.2051903111
20
-106.2840456273
30
0.0000000000
10
198.2912023545
20
-105.9508037662
30
0.0000000000
10
198.3956656916
20
-105.5176987408
30
0.0000000000
10
198.5050946875
20
-105.0371086243
30
0.0000000000
10
198.6204181023
20
-104.5046118705
30
0.0000000000
10
198.7420550757
20
-103.9173609809
30
0.0000000000
10
198.8699365179
20
-103.2744508278
30
0.0000000000
10
199.0036109332
20
-102.5767359383
30
0.0000000000
10
199.1423585517
20
-101.8264501613
30
0.0000000000
10
199.2852272990
20
-101.0271169918
30
0.0000000000
10
199.4310481243
20
-100.1835411538
30
0.0000000000
10
199.5784071041
20
-99.3020549897
30
0.0000000000
10
199.7185673314
20
-98.4344258860
30
0.0000000000
10
199.8081249721
20
-97.8612981001
30
0.0000000000
10
199.8493452437
20
-97.5932065241
30
0.0000000000
11
198.1362894518
21
-106.5333616951
31
0.0000000000
11
198.1859272840
21
-106.3529768821
31
0.0000000000
11
198.2867384481
21
-105.9640441519
31
0.0000000000
11
198.3910694854
21
-105.5329257846
31
0.0000000000
11
198.5003893194
21
-105.0540631930
31
0.0000000000
11
198.6157379040
21
-104.5225404155
31
0.0000000000
11
198.7375045045
21
-103.9356171608
31
0.0000000000
11
198.8656043020
21
-103.2924395665
31
0.0000000000
11
198.9995728957
21
-102.5939040516
31
0.0000000000
11
199.1386309356
21
-101.8425417571
31
0.0000000000
11
199.2818690585
21
-101.0416313621
31
0.0000000000
11
199.4281202422
21
-100.1959364507
31
0.0000000000
11
199.5759565144
21
-99.3118317500
31
0.0000000000
11
199.7237263356
21
-98.3971776969
31
0.0000000000
11
199.8493452437
21
-97.5932065241
31
0.0000000000
0
SPLINE
5
511
100
AcDbEntity
8
0
100
AcDbSpline
62
7
6
CONTINUOUS
70
0
71
3
72
10
73
6
74
4
42
0.0000001000
43
0.0000001000
44
0.0000000001
40
0.0000000000
40
0.0000000000
40
0.0000000000
40
0.0000000000
40
0.4348595775
40
0.9428651797
40
1.0000000000
40
1.0000000000
40
1.0000000000
40
1.0000000000
10
166.0696141779
20
-107.5923979472
30
0.0000000000
10
166.0820304287
20
-107.5946967305
30
0.0000000000
10
166.1149543962
20
-107.6013693848
30
0.0000000000
10
166.1801662156
20
-107.6166440675
30
0.0000000000
10
166.1610743401
20
-107.6113020007
30
0.0000000000
10
166.1592320471
20
-107.6107834833
30
0.0000000000
11
166.0696141779
21
-107.5923979472
31
0.0000000000
11
166.1184757793
21
-107.6024958741
31
0.0000000000
11
166.1643628428
21
-107.6122393191
31
0.0000000000
11
166.1592320471
21
-107.6107834833
31
0.0000000000
0
SPLINE
5
512
100
AcDbEntity
8
0
100
AcDbSpline
62
7
6
CONTINUOUS
70
0
71
3
72
9
73
5
74
3
42
0.0000001000
43
0.0000001000
44
0.0000000001
40
0.0000000000
40
0.0000000000
40
0.0000000000
40
0.0000000000
40
0.6319243804
40
1.0000000000
40
1.0000000000
40
1.0000000000
40
1.0000000000
10
59.5031516184
20
-107.6032515121
30
0.0000000000
10
59.4950231165
20
-107.6067627712
30
0.0000000000
10
59.4877380779
20
-107.6101734046
30
0.0000000000
10
59.4966962460
20
-107.6075951747
30
0.0000000000
10
59.5013143445
20
-107.6061707778
30
0.0000000000
11
59.5031516184
21
-107.6032515121
31
0.0000000000
11
59.4923023036
21
-107.6086817726
31
0.0000000000
11
59.5013143445
21
-107.6061707778
31
0.0000000000
0
SPLINE
5
513
100
AcDbEntity
8
0
100
AcDbSpline
62
7
6
CONTINUOUS
70
0
71
3
72
9
73
5
74
3
42
0.0000001000
43
0.0000001000
44
0.0000000001
40
0.0000000000
40
0.0000000000
40
0.0000000000
40
0.0000000000
40
0.8049669391
40
1.0000000000
40
1.0000000000
40
1.0000000000
40
1.0000000000
10
59.5013143445
20
-107.6061707778
30
0.0000000000
10
59.5099200827
20
-107.6035164416
30
0.0000000000
10
59.5263087676
20
-107.5981681006
30
0.0000000000
10
59.5409895451
20
-107.5936270262
30
0.0000000000
10
59.5437927437
20
-107.5927699467
30
0.0000000000
11
59.5013143445
21
-107.6061707778
31
0.0000000000
11
59.5351981060
21
-107.5954290522
31
0.0000000000
11
59.5437927437
21
-107.5927699467
31
0.0000000000
0
SPLINE
5
514
100
AcDbEntity
8
0
100
AcDbSpline
62
7
6
CONTINUOUS
70
0
71
3
72
8
73
4
74
2
42
0.0000001000
43
0.0000001000
44
0.0000000001
40
0.0000000000
40
0.0000000000
40
0.0000000000
40
0.0000000000
40
1.0000000000
40
1.0000000000
40
1.0000000000
40
1.0000000000
10
51.9466533517
20
-110.8423712729
30
0.0000000000
10
51.9507885487
20
-110.8424018086
30
0.0000000000
10
51.9549236595
20
-110.8424271777
30
0.0000000000
10
51.9590586687
20
-110.8424473789
30
0.0000000000
11
51.9466533517
21
-110.8423712729
31
0.0000000000
11
51.9590586687
21
-110.8424473789
31
0.0000000000
0
SPLINE
5
515
100
AcDbEntity
8
0
100
AcDbSpline
62
7
6
CONTINUOUS
70
0
71
3
72
21
73
17
74
15
42
0.0000001000
43
0.0000001000
44
0.0000000001
40
0.0000000000
40
0.0000000000
40
0.0000000000
40
0.0000000000
40
0.0893006082
40
0.1909899720
40
0.2893694439
40
0.3835660972
40
0.4728711480
40
0.5567537224
40
0.6348482143
40
0.7068708752
40
0.7727191823
40
0.8324860542
40
0.8864768642
40
0.9352455961
40
0.9794293637
40
1.0000000000
40
1.0000000000
40
1.0000000000
40
1.0000000000
10
45.1819328390
20
-97.5932059823
30
0.0000000000
10
45.2230999262
20
-97.8609516514
30
0.0000000000
10
45.3125453732
20
-98.4333732623
30
0.0000000000
10
45.4525258253
20
-99.2999415813
30
0.0000000000
10
45.5996948608
20
-100.1803801184
30
0.0000000000
10
45.7453249026
20
-101.0229737767
30
0.0000000000
10
45.8880103028
20
-101.8214351140
30
0.0000000000
10
46.0265896751
20
-102.5709972054
30
0.0000000000
10
46.1601173304
20
-103.2681645687
30
0.0000000000
10
46.2878781600
20
-103.9107196284
30
0.0000000000
10
46.4094224619
20
-104.4978079767
30
0.0000000000
10
46.5246793419
20
-105.0303177325
30
0.0000000000
10
46.6340618511
20
-105.5110628914
30
0.0000000000
10
46.7384891224
20
-105.9444230627
30
0.0000000000
10
46.8244626997
20
-106.2779075778
30
0.0000000000
10
46.8764472071
20
-106.4673438881
30
0.0000000000
10
46.8933192860
20
-106.5274216942
30
0.0000000000
11
45.1819328390
21
-97.5932059823
31
0.0000000000
11
45.3073871547
21
-98.3961402186
31
0.0000000000
11
45.4549735918
21
-99.3097145566
31
0.0000000000
11
45.6026166964
21
-100.1927539948
31
0.0000000000
11
45.7486739972
21
-101.0374512607
31
0.0000000000
11
45.8917261540
21
-101.8374783097
31
0.0000000000
11
46.0306132895
21
-102.5881064180
31
0.0000000000
11
46.1644331657
21
-103.2860887885
31
0.0000000000
11
46.2924113765
21
-103.9289115824
31
0.0000000000
11
46.4140853199
21
-104.5156780615
31
0.0000000000
11
46.5293685861
21
-105.0472255494
31
0.0000000000
11
46.6386444071
21
-105.5262603297
31
0.0000000000
11
46.7429413454
21
-105.9576487116
31
0.0000000000
11
46.8437163538
21
-106.3469075279
31
0.0000000000
11
46.8933192860
21
-106.5274216942
31
0.0000000000
0
SPLINE
5
516
100
AcDbEntity
8
0
100
AcDbSpline
62
7
6
CONTINUOUS
70
0
71
3
72
8
73
4
74
2
42
0.0000001000
43
0.0000001000
44
0.0000000001
40
0.0000000000
40
0.0000000000
40
0.0000000000
40
0.0000000000
40
1.0000000000
40
1.0000000000
40
1.0000000000
40
1.0000000000
10
46.8933192860
20
-106.5274216942
30
0.0000000000
10
46.9095518408
20
-106.5852222937
30
0.0000000000
10
46.9261158411
20
-106.6429296518
30
0.0000000000
10
46.9430655429
20
-106.7005246654
30
0.0000000000
11
46.8933192860
21
-106.5274216942
31
0.0000000000
11
46.9430655429
21
-106.7005246654
31
0.0000000000
0
SPLINE
5
517
100
AcDbEntity
8
0
100
AcDbSpline
62
7
6
CONTINUOUS
70
0
71
3
72
19
73
15
74
13
42
0.0000001000
43
0.0000001000
44
0.0000000001
40
0.0000000000
40
0.0000000000
40
0.0000000000
40
0.0000000000
40
0.0495053213
40
0.0994639869
40
0.1541541372
40
0.2179839147
40
0.2924453047
40
0.3768104556
40
0.4696091818
40
0.5699582506
40
0.6767568277
40
0.7891560403
40
0.9065485134
40
1.0000000000
40
1.0000000000
40
1.0000000000
40
1.0000000000
10
46.9430655429
20
-106.7005246654
30
0.0000000000
10
46.9756674770
20
-106.8113058968
30
0.0000000000
10
47.0440368983
20
-107.0330477562
30
0.0000000000
10
47.1621828153
20
-107.3727663762
30
0.0000000000
10
47.3093165498
20
-107.7373955484
30
0.0000000000
10
47.5053808463
20
-108.1430816342
30
0.0000000000
10
47.7714523080
20
-108.5900526576
30
0.0000000000
10
48.1237336147
20
-109.0610912066
30
0.0000000000
10
48.5720867400
20
-109.5304171489
30
0.0000000000
10
49.1199187143
20
-109.9692133091
30
0.0000000000
10
49.7646688729
20
-110.3486124510
30
0.0000000000
10
50.4969530431
20
-110.6406759817
30
0.0000000000
10
51.2359618834
20
-110.8056007295
30
0.0000000000
10
51.7284948527
20
-110.8413091503
30
0.0000000000
10
51.9466548288
20
-110.8429217026
30
0.0000000000
11
46.9430655429
21
-106.7005246654
31
0.0000000000
11
47.0456727020
21
-107.0314060843
31
0.0000000000
11
47.1611059541
21
-107.3613969385
31
0.0000000000
11
47.3049352442
21
-107.7160494201
31
0.0000000000
11
47.4998533101
21
-108.1179401874
31
0.0000000000
11
47.7667750826
21
-108.5654424421
31
0.0000000000
11
48.1205875603
21
-109.0380401863
31
0.0000000000
11
48.5692879154
21
-109.5074705533
31
0.0000000000
11
49.1174371257
21
-109.9463800867
31
0.0000000000
11
49.7615844503
21
-110.3253328953
31
0.0000000000
11
50.4921723564
21
-110.6166888389
31
0.0000000000
11
51.2939498882
21
-110.7955369301
31
0.0000000000
11
51.9466548288
21
-110.8429217026
31
0.0000000000
0
SPLINE
5
518
100
AcDbEntity
8
0
100
AcDbSpline
62
7
6
CONTINUOUS
70
0
71
3
72
8
73
4
74
2
42
0.0000001000
43
0.0000001000
44
0.0000000001
40
0.0000000000
40
0.0000000000
40
0.0000000000
40
0.0000000000
40
1.0000000000
40
1.0000000000
40
1.0000000000
40
1.0000000000
10
51.9466548288
20
-110.8429217026
30
0.0000000000
10
51.9515725506
20
-110.8429580525
30
0.0000000000
10
51.9564901996
20
-110.8429871796
30
0.0000000000
10
51.9614077506
20
-110.8430090828
30
0.0000000000
11
51.9466548288
21
-110.8429217026
31
0.0000000000
11
51.9614077506
21
-110.8430090828
31
0.0000000000
0
SPLINE
5
519
100
AcDbEntity
8
0
100
AcDbSpline
62
7
6
CONTINUOUS
70
0
71
3
72
8
73
4
74
2
42
0.0000001000
43
0.0000001000
44
0.0000000001
40
0.0000000000
40
0.0000000000
40
0.0000000000
40
0.0000000000
40
1.0000000000
40
1.0000000000
40
1.0000000000
40
1.0000000000
10
51.9614077506
20
-110.8430090828
30
0.0000000000
10
51.9687229170
20
-110.8430416652
30
0.0000000000
10
51.9760378665
20
-110.8430582622
30
0.0000000000
10
51.9833525157
20
-110.8430588703
30
0.0000000000
11
51.9614077506
21
-110.8430090828
31
0.0000000000
11
51.9833525157
21
-110.8430588703
31
0.0000000000
0
SPLINE
5
51A
100
AcDbEntity
8
0
100
AcDbSpline
62
7
6
CONTINUOUS
70
0
71
3
72
8
73
4
74
2
42
0.0000001000
43
0.0000001000
44
0.0000000001
40
0.0000000000
40
0.0000000000
40
0.0000000000
40
0.0000000000
40
1.0000000000
40
1.0000000000
40
1.0000000000
40
1.0000000000
10
78.8647201515
20
-107.6131014967
30
0.0000000000
10
78.8681443008
20
-107.6126563248
30
0.0000000000
10
78.8930362137
20
-107.6068806603
30
0.0000000000
10
78.9127175205
20
-107.6025129338
30
0.0000000000
11
78.8647201515
21
-107.6131014967
31
0.0000000000
11
78.9127175205
21
-107.6025129338
31
0.0000000000
0
SPLINE
5
51B
100
AcDbEntity
8
0
100
AcDbSpline
62
7
6
CONTINUOUS
70
0
71
3
72
8
73
4
74
2
42
0.0000001000
43
0.0000001000
44
0.0000000001
40
0.0000000000
40
0.0000000000
40
0.0000000000
40
0.0000000000
40
1.0000000000
40
1.0000000000
40
1.0000000000
40
1.0000000000
10
78.9127175205
20
-107.6025129338
30
0.0000000000
10
78.9340262224
20
-107.5977840517
30
0.0000000000
10
78.9492269899
20
-107.5947055713
30
0.0000000000
10
78.9616667088
20
-107.5924031704
30
0.0000000000
11
78.9127175205
21
-107.6025129338
31
0.0000000000
11
78.9616667088
21
-107.5924031704
31
0.0000000000
0
SPLINE
5
51C
100
AcDbEntity
8
0
100
AcDbSpline
62
7
6
CONTINUOUS
70
0
71
3
72
9
73
5
74
3
42
0.0000001000
43
0.0000001000
44
0.0000000001
40
0.0000000000
40
0.0000000000
40
0.0000000000
40
0.0000000000
40
0.6319243804
40
1.0000000000
40
1.0000000000
40
1.0000000000
40
1.0000000000
10
185.5281265474
20
-87.5828840523
30
0.0000000000
10
185.5362550492
20
-87.5793727931
30
0.0000000000
10
185.5435400878
20
-87.5759621598
30
0.0000000000
10
185.5345819197
20
-87.5785403897
30
0.0000000000
10
185.5299638212
20
-87.5799647866
30
0.0000000000
11
185.5281265474
21
-87.5828840523
31
0.0000000000
11
185.5389758621
21
-87.5774537917
31
0.0000000000
11
185.5299638212
21
-87.5799647866
31
0.0000000000
0
SPLINE
5
51D
100
AcDbEntity
8
0
100
AcDbSpline
62
7
6
CONTINUOUS
70
0
71
3
72
9
73
5
74
3
42
0.0000001000
43
0.0000001000
44
0.0000000001
40
0.0000000000
40
0.0000000000
40
0.0000000000
40
0.0000000000
40
0.8049669391
40
1.0000000000
40
1.0000000000
40
1.0000000000
40
1.0000000000
10
185.5299638212
20
-87.5799647866
30
0.0000000000
10
185.5213580831
20
-87.5826191228
30
0.0000000000
10
185.5049693981
20
-87.5879674638
30
0.0000000000
10
185.4902886206
20
-87.5925085382
30
0.0000000000
10
185.4874854220
20
-87.5933656177
30
0.0000000000
11
185.5299638212
21
-87.5799647866
31
0.0000000000
11
185.4960800598
21
-87.5907065122
31
0.0000000000
11
185.4874854220
21
-87.5933656177
31
0.0000000000
0
SPLINE
5
51E
100
AcDbEntity
8
0
100
AcDbSpline
62
7
6
CONTINUOUS
70
0
71
3
72
8
73
4
74
2
42
0.0000001000
43
0.0000001000
44
0.0000000001
40
0.0000000000
40
0.0000000000
40
0.0000000000
40
0.0000000000
40
1.0000000000
40
1.0000000000
40
1.0000000000
40
1.0000000000
10
193.0846248140
20
-84.3437642915
30
0.0000000000
10
193.0804896170
20
-84.3437337557
30
0.0000000000
10
193.0763545063
20
-84.3437083867
30
0.0000000000
10
193.0722194970
20
-84.3436881855
30
0.0000000000
11
193.0846248140
21
-84.3437642915
31
0.0000000000
11
193.0722194970
21
-84.3436881855
31
0.0000000000
0
SPLINE
5
51F
100
AcDbEntity
8
0
100
AcDbSpline
62
7
6
CONTINUOUS
70
0
71
3
72
21
73
17
74
15
42
0.0000001000
43
0.0000001000
44
0.0000000001
40
0.0000000000
40
0.0000000000
40
0.0000000000
40
0.0000000000
40
0.0893005534
40
0.1909899233
40
0.2893694011
40
0.3835660600
40
0.4728711163
40
0.5567536957
40
0.6348481924
40
0.7068708575
40
0.7727191686
40
0.8324860441
40
0.8864768574
40
0.9352455922
40
0.9794293625
40
1.0000000000
40
1.0000000000
40
1.0000000000
40
1.0000000000
10
199.8493452434
20
-97.5929290404
30
0.0000000000
10
199.8081781831
20
-97.3251835520
30
0.0000000000
10
199.7187327633
20
-96.7527621217
30
0.0000000000
10
199.5787523404
20
-95.8861939829
30
0.0000000000
10
199.4315833049
20
-95.0057554459
30
0.0000000000
10
199.2859532631
20
-94.1631617876
30
0.0000000000
10
199.1432678629
20
-93.3647004502
30
0.0000000000
10
199.0046884906
20
-92.6151383589
30
0.0000000000
10
198.8711608353
20
-91.9179709956
30
0.0000000000
10
198.7434000057
20
-91.2754159359
30
0.0000000000
10
198.6218557038
20
-90.6883275876
30
0.0000000000
10
198.5065988238
20
-90.1558178318
30
0.0000000000
10
198.3972163146
20
-89.6750726729
30
0.0000000000
10
198.2927890433
20
-89.2417125016
30
0.0000000000
10
198.2068154660
20
-88.9082279866
30
0.0000000000
10
198.1548309586
20
-88.7187916762
30
0.0000000000
10
198.1379588797
20
-88.6587138701
30
0.0000000000
11
199.8493452434
21
-97.5929290404
31
0.0000000000
11
199.7238910110
21
-96.7899953456
31
0.0000000000
11
199.5763045739
21
-95.8764210076
31
0.0000000000
11
199.4286614693
21
-94.9933815694
31
0.0000000000
11
199.2826041685
21
-94.1486843035
31
0.0000000000
11
199.1395520117
21
-93.3486572546
31
0.0000000000
11
199.0006648762
21
-92.5980291462
31
0.0000000000
11
198.8668450000
21
-91.9000467758
31
0.0000000000
11
198.7388667892
21
-91.2572239819
31
0.0000000000
11
198.6171928458
21
-90.6704575028
31
0.0000000000
11
198.5019095796
21
-90.1389100149
31
0.0000000000
11
198.3926337586
21
-89.6598752346
31
0.0000000000
11
198.2883368203
21
-89.2284868527
31
0.0000000000
11
198.1875618120
21
-88.8392280364
31
0.0000000000
11
198.1379588797
21
-88.6587138701
31
0.0000000000
0
SPLINE
5
520
100
AcDbEntity
8
0
100
AcDbSpline
62
7
6
CONTINUOUS
70
0
71
3
72
8
73
4
74
2
42
0.0000001000
43
0.0000001000
44
0.0000000001
40
0.0000000000
40
0.0000000000
40
0.0000000000
40
0.0000000000
40
1.0000000000
40
1.0000000000
40
1.0000000000
40
1.0000000000
10
198.1379588797
20
-88.6587138701
30
0.0000000000
10
198.1217263249
20
-88.6009132706
30
0.0000000000
10
198.1051623246
20
-88.5432059125
30
0.0000000000
10
198.0882126229
20
-88.4856108989
30
0.0000000000
11
198.1379588797
21
-88.6587138701
31
0.0000000000
11
198.0882126229
21
-88.4856108989
31
0.0000000000
0
SPLINE
5
521
100
AcDbEntity
8
0
100
AcDbSpline
62
7
6
CONTINUOUS
70
0
71
3
72
19
73
15
74
13
42
0.0000001000
43
0.0000001000
44
0.0000000001
40
0.0000000000
40
0.0000000000
40
0.0000000000
40
0.0000000000
40
0.0495053213
40
0.0994639869
40
0.1541541372
40
0.2179839147
40
0.2924453047
40
0.3768104556
40
0.4696091818
40
0.5699582506
40
0.6767568277
40
0.7891560403
40
0.9065485134
40
1.0000000000
40
1.0000000000
40
1.0000000000
40
1.0000000000
10
198.0882126229
20
-88.4856108989
30
0.0000000000
10
198.0556106888
20
-88.3748296675
30
0.0000000000
10
197.9872412674
20
-88.1530878081
30
0.0000000000
10
197.8690953504
20
-87.8133691882
30
0.0000000000
10
197.7219616159
20
-87.4487400159
30
0.0000000000
10
197.5258973194
20
-87.0430539301
30
0.0000000000
10
197.2598258577
20
-86.5960829067
30
0.0000000000
10
196.9075445510
20
-86.1250443578
30
0.0000000000
10
196.4591914257
20
-85.6557184154
30
0.0000000000
10
195.9113594514
20
-85.2169222552
30
0.0000000000
10
195.2666092928
20
-84.8375231134
30
0.0000000000
10
194.5343251226
20
-84.5454595827
30
0.0000000000
10
193.7953162823
20
-84.3805348348
30
0.0000000000
10
193.3027833130
20
-84.3448264141
30
0.0000000000
10
193.0846233370
20
-84.3432138617
30
0.0000000000
11
198.0882126229
21
-88.4856108989
31
0.0000000000
11
197.9856054637
21
-88.1547294800
31
0.0000000000
11
197.8701722116
21
-87.8247386258
31
0.0000000000
11
197.7263429215
21
-87.4700861443
31
0.0000000000
11
197.5314248556
21
-87.0681953769
31
0.0000000000
11
197.2645030831
21
-86.6206931223
31
0.0000000000
11
196.9106906054
21
-86.1480953780
31
0.0000000000
11
196.4619902503
21
-85.6786650111
31
0.0000000000
11
195.9138410400
21
-85.2397554776
31
0.0000000000
11
195.2696937154
21
-84.8608026691
31
0.0000000000
11
194.5391058093
21
-84.5694467254
31
0.0000000000
11
193.7373282775
21
-84.3905986343
31
0.0000000000
11
193.0846233370
21
-84.3432138617
31
0.0000000000
0
SPLINE
5
522
100
AcDbEntity
8
0
100
AcDbSpline
62
7
6
CONTINUOUS
70
0
71
3
72
8
73
4
74
2
42
0.0000001000
43
0.0000001000
44
0.0000000001
40
0.0000000000
40
0.0000000000
40
0.0000000000
40
0.0000000000
40
1.0000000000
40
1.0000000000
40
1.0000000000
40
1.0000000000
10
193.0846233370
20
-84.3432138617
30
0.0000000000
10
193.0797056151
20
-84.3431775119
30
0.0000000000
10
193.0747879661
20
-84.3431483848
30
0.0000000000
10
193.0698704152
20
-84.3431264816
30
0.0000000000
11
193.0846233370
21
-84.3432138617
31
0.0000000000
11
193.0698704152
21
-84.3431264816
31
0.0000000000
0
SPLINE
5
523
100
AcDbEntity
8
0
100
AcDbSpline
62
7
6
CONTINUOUS
70
0
71
3
72
8
73
4
74
2
42
0.0000001000
43
0.0000001000
44
0.0000000001
40
0.0000000000
40
0.0000000000
40
0.0000000000
40
0.0000000000
40
1.0000000000
40
1.0000000000
40
1.0000000000
40
1.0000000000
10
193.0698704152
20
-84.3431264816
30
0.0000000000
10
193.0625552487
20
-84.3430938992
30
0.0000000000
10
193.0552402993
20
-84.3430773021
30
0.0000000000
10
193.0479256501
20
-84.3430766940
30
0.0000000000
11
193.0698704152
21
-84.3431264816
31
0.0000000000
11
193.0479256501
21
-84.3430766940
31
0.0000000000
0
SPLINE
5
524
100
AcDbEntity
8
0
100
AcDbSpline
62
7
6
CONTINUOUS
70
0
71
3
72
8
73
4
74
2
42
0.0000001000
43
0.0000001000
44
0.0000000001
40
0.0000000000
40
0.0000000000
40
0.0000000000
40
0.0000000000
40
1.0000000000
40
1.0000000000
40
1.0000000000
40
1.0000000000
10
166.1665580142
20
-87.5730340677
30
0.0000000000
10
166.1631338649
20
-87.5734792396
30
0.0000000000
10
166.1382419520
20
-87.5792549041
30
0.0000000000
10
166.1185606452
20
-87.5836226305
30
0.0000000000
11
166.1665580142
21
-87.5730340677
31
0.0000000000
11
166.1185606452
21
-87.5836226305
31
0.0000000000
0
SPLINE
5
525
100
AcDbEntity
8
0
100
AcDbSpline
62
7
6
CONTINUOUS
70
0
71
3
72
8
73
4
74
2
42
0.0000001000
43
0.0000001000
44
0.0000000001
40
0.0000000000
40
0.0000000000
40
0.0000000000
40
0.0000000000
40
1.0000000000
40
1.0000000000
40
1.0000000000
40
1.0000000000
10
166.1185606452
20
-87.5836226305
30
0.0000000000
10
166.0972519433
20
-87.5883515127
30
0.0000000000
10
166.0820511758
20
-87.5914299930
30
0.0000000000
10
166.0696114569
20
-87.5937323940
30
0.0000000000
11
166.1185606452
21
-87.5836226305
31
0.0000000000
11
166.0696114569
21
-87.5937323940
31
0.0000000000
0
SPLINE
5
526
100
AcDbEntity
8
0
100
AcDbSpline
62
7
6
CONTINUOUS
70
0
71
3
72
9
73
5
74
3
42
0.0000001000
43
0.0000001000
44
0.0000000001
40
0.0000000000
40
0.0000000000
40
0.0000000000
40
0.0000000000
40
0.1709883265
40
1.0000000000
40
1.0000000000
40
1.0000000000
40
1.0000000000
10
59.5437927437
20
-87.5933656177
30
0.0000000000
10
59.5409895451
20
-87.5925085382
30
0.0000000000
10
59.5242443261
20
-87.5873288885
30
0.0000000000
10
59.5052770875
20
-87.5810989697
30
0.0000000000
10
59.4972545280
20
-87.5787364396
30
0.0000000000
11
59.5437927437
21
-87.5933656177
31
0.0000000000
11
59.5351981060
21
-87.5907065122
31
0.0000000000
11
59.4972545280
21
-87.5787364396
31
0.0000000000
0
SPLINE
5
527
100
AcDbEntity
8
0
100
AcDbSpline
62
7
6
CONTINUOUS
70
0
71
3
72
8
73
4
74
2
42
0.0000001000
43
0.0000001000
44
0.0000000001
40
0.0000000000
40
0.0000000000
40
0.0000000000
40
0.0000000000
40
1.0000000000
40
1.0000000000
40
1.0000000000
40
1.0000000000
10
51.9833518159
20
-84.3430754560
30
0.0000000000
10
51.9764205843
20
-84.3430760096
30
0.0000000000
10
51.9694890779
20
-84.3430909236
30
0.0000000000
10
51.9625573675
20
-84.3431201947
30
0.0000000000
11
51.9833518159
21
-84.3430754560
31
0.0000000000
11
51.9625573675
21
-84.3431201947
31
0.0000000000
0
SPLINE
5
528
100
AcDbEntity
8
0
100
AcDbSpline
62
7
6
CONTINUOUS
70
0
71
3
72
8
73
4
74
2
42
0.0000001000
43
0.0000001000
44
0.0000000001
40
0.0000000000
40
0.0000000000
40
0.0000000000
40
0.0000000000
40
1.0000000000
40
1.0000000000
40
1.0000000000
40
1.0000000000
10
51.9625573675
20
-84.3431201947
30
0.0000000000
10
51.9572569673
20
-84.3431425772
30
0.0000000000
10
51.9519564479
20
-84.3431733543
30
0.0000000000
10
51.9466558408
20
-84.3432125247
30
0.0000000000
11
51.9625573675
21
-84.3431201947
31
0.0000000000
11
51.9466558408
21
-84.3432125247
31
0.0000000000
0
SPLINE
5
529
100
AcDbEntity
8
0
100
AcDbSpline
62
7
6
CONTINUOUS
70
0
71
3
72
19
73
15
74
13
42
0.0000001000
43
0.0000001000
44
0.0000000001
40
0.0000000000
40
0.0000000000
40
0.0000000000
40
0.0000000000
40
0.0947332800
40
0.2116275455
40
0.3236158623
40
0.4300725920
40
0.5301371643
40
0.6226811233
40
0.7068611557
40
0.7813015990
40
0.8453379320
40
0.9002685091
40
0.9504068216
40
1.0000000000
40
1.0000000000
40
1.0000000000
40
1.0000000000
10
51.9466558408
20
-84.3432125247
30
0.0000000000
10
51.7257074668
20
-84.3448452869
30
0.0000000000
10
51.2317840080
20
-84.3810711388
30
0.0000000000
10
50.4928043595
20
-84.5469575817
30
0.0000000000
10
49.7640413714
20
-84.8380178219
30
0.0000000000
10
49.1218927479
20
-85.2157282414
30
0.0000000000
10
48.5758345432
20
-85.6524411195
30
0.0000000000
10
48.1284792617
20
-86.1195813090
30
0.0000000000
10
47.7764020891
20
-86.5887803342
30
0.0000000000
10
47.5097726269
20
-87.0348929827
30
0.0000000000
10
47.3127970028
20
-87.4408116562
30
0.0000000000
10
47.1648063211
20
-87.8063051893
30
0.0000000000
10
47.0460969785
20
-88.1467520584
30
0.0000000000
10
46.9774813663
20
-88.3688598619
30
0.0000000000
10
46.9447988052
20
-88.4797262006
30
0.0000000000
11
51.9466558408
21
-84.3432125247
31
0.0000000000
11
51.2856442612
21
-84.3917563589
31
0.0000000000
11
50.4881863640
21
-84.5706870148
31
0.0000000000
11
49.7610398705
21
-84.8610709200
31
0.0000000000
11
49.1194440469
21
-85.2383659572
31
0.0000000000
11
48.5730015330
21
-85.6752476320
31
0.0000000000
11
48.1253541014
21
-86.1424387981
31
0.0000000000
11
47.7718758180
21
-86.6130279109
31
0.0000000000
11
47.5044784347
21
-87.0595476138
31
0.0000000000
11
47.3084629762
21
-87.4620790409
31
0.0000000000
11
47.1637024629
21
-87.8178085287
31
0.0000000000
11
47.0476833817
21
-88.1486030328
31
0.0000000000
11
46.9447988052
21
-88.4797262006
31
0.0000000000
0
SPLINE
5
52A
100
AcDbEntity
8
0
100
AcDbSpline
62
7
6
CONTINUOUS
70
0
71
3
72
8
73
4
74
2
42
0.0000001000
43
0.0000001000
44
0.0000000001
40
0.0000000000
40
0.0000000000
40
0.0000000000
40
0.0000000000
40
1.0000000000
40
1.0000000000
40
1.0000000000
40
1.0000000000
10
46.9447988052
20
-88.4797262006
30
0.0000000000
10
46.9278258794
20
-88.5373020477
30
0.0000000000
10
46.9112407065
20
-88.5949910231
30
0.0000000000
10
46.8949887139
20
-88.6527738693
30
0.0000000000
11
46.9447988052
21
-88.4797262006
31
0.0000000000
11
46.8949887139
21
-88.6527738693
31
0.0000000000
0
SPLINE
5
52B
100
AcDbEntity
8
0
100
AcDbSpline
62
7
6
CONTINUOUS
70
0
71
3
72
21
73
17
74
15
42
0.0000001000
43
0.0000001000
44
0.0000000001
40
0.0000000000
40
0.0000000000
40
0.0000000000
40
0.0000000000
40
0.0205440159
40
0.0646641803
40
0.1133719313
40
0.1673088025
40
0.2270340501
40
0.2928566668
40
0.3648713487
40
0.4429756595
40
0.5268840918
40
0.6162277171
40
0.7104721275
40
0.8089038184
40
0.9106445433
40
1.0000000000
40
1.0000000000
40
1.0000000000
40
1.0000000000
10
46.8949887139
20
-88.6527738693
30
0.0000000000
10
46.8781035223
20
-88.7128080116
30
0.0000000000
10
46.8260878546
20
-88.9020899371
30
0.0000000000
10
46.7400758112
20
-89.2353317982
30
0.0000000000
10
46.6356124741
20
-89.6684368236
30
0.0000000000
10
46.5261834782
20
-90.1490269401
30
0.0000000000
10
46.4108600634
20
-90.6815236939
30
0.0000000000
10
46.2892230900
20
-91.2687745835
30
0.0000000000
10
46.1613416478
20
-91.9116847366
30
0.0000000000
10
46.0276672325
20
-92.6093996261
30
0.0000000000
10
45.8889196140
20
-93.3596854031
30
0.0000000000
10
45.7460508667
20
-94.1590185727
30
0.0000000000
10
45.6002300414
20
-95.0025944107
30
0.0000000000
10
45.4528710616
20
-95.8840805748
30
0.0000000000
10
45.3127108052
20
-96.7517098587
30
0.0000000000
10
45.2231531372
20
-97.3248378253
30
0.0000000000
10
45.1819328387
20
-97.5929295820
30
0.0000000000
11
46.8949887139
21
-88.6527738693
31
0.0000000000
11
46.8453508817
21
-88.8331586823
31
0.0000000000
11
46.7445397176
21
-89.2220914125
31
0.0000000000
11
46.6402086804
21
-89.6532097798
31
0.0000000000
11
46.5308888463
21
-90.1320723714
31
0.0000000000
11
46.4155402617
21
-90.6635951489
31
0.0000000000
11
46.2937736612
21
-91.2505184036
31
0.0000000000
11
46.1656738637
21
-91.8936959979
31
0.0000000000
11
46.0317052700
21
-92.5922315129
31
0.0000000000
11
45.8926472301
21
-93.3435938074
31
0.0000000000
11
45.7494091072
21
-94.1445042023
31
0.0000000000
11
45.6031579235
21
-94.9901991137
31
0.0000000000
11
45.4553216513
21
-95.8743038145
31
0.0000000000
11
45.3075518301
21
-96.7889578676
31
0.0000000000
11
45.1819328387
21
-97.5929295820
31
0.0000000000
0
SPLINE
5
52C
100
AcDbEntity
8
0
100
AcDbSpline
62
7
6
CONTINUOUS
70
0
71
3
72
10
73
6
74
4
42
0.0000001000
43
0.0000001000
44
0.0000000001
40
0.0000000000
40
0.0000000000
40
0.0000000000
40
0.0000000000
40
0.4348595775
40
0.9428651797
40
1.0000000000
40
1.0000000000
40
1.0000000000
40
1.0000000000
10
78.9616639878
20
-87.5937376171
30
0.0000000000
10
78.9492477370
20
-87.5914388339
30
0.0000000000
10
78.9163237695
20
-87.5847661795
30
0.0000000000
10
78.8511119501
20
-87.5694914969
30
0.0000000000
10
78.8702038256
20
-87.5748335636
30
0.0000000000
10
78.8720461187
20
-87.5753520811
30
0.0000000000
11
78.9616639878
21
-87.5937376171
31
0.0000000000
11
78.9128023864
21
-87.5836396902
31
0.0000000000
11
78.8669153229
21
-87.5738962453
31
0.0000000000
11
78.8720461187
21
-87.5753520811
31
0.0000000000
0
SPLINE
5
52D
100
AcDbEntity
8
0
100
AcDbSpline
62
7
6
CONTINUOUS
70
0
71
3
72
16
73
12
74
10
42
0.0000001000
43
0.0000001000
44
0.0000000001
40
0.0000000000
40
0.0000000000
40
0.0000000000
40
0.0000000000
40
0.1496429657
40
0.2882507788
40
0.4182921889
40
0.5411806562
40
0.6579081027
40
0.7691380808
40
0.8752939070
40
0.9764577080
40
1.0000000000
40
1.0000000000
40
1.0000000000
40
1.0000000000
10
168.0296631743
20
-84.3511394007
30
0.0000000000
10
167.7698050603
20
-84.3912264735
30
0.0000000000
10
167.2752015870
20
-84.5139010872
30
0.0000000000
10
166.5976678177
20
-84.8054810914
30
0.0000000000
10
166.0096390940
20
-85.1668165294
30
0.0000000000
10
165.5046437384
20
-85.5780572387
30
0.0000000000
10
165.0772748354
20
-86.0243905832
30
0.0000000000
10
164.7230432070
20
-86.4941605406
30
0.0000000000
10
164.4381403219
20
-86.9772807769
30
0.0000000000
10
164.2713791292
20
-87.3479424745
30
0.0000000000
10
164.1951887416
20
-87.5535080021
30
0.0000000000
10
164.1813081821
20
-87.5924940853
30
0.0000000000
11
168.0296631743
21
-84.3511394007
31
0.0000000000
11
167.2637335424
21
-84.5396883712
31
0.0000000000
11
166.5922250089
21
-84.8275995895
31
0.0000000000
11
166.0079711239
21
-85.1860962309
31
0.0000000000
11
165.5055550985
21
-85.5949744939
31
0.0000000000
11
165.0800159404
21
-86.0393850372
31
0.0000000000
11
164.7271019361
21
-86.5075897597
31
0.0000000000
11
164.4430266286
21
-86.9896857372
31
0.0000000000
11
164.2244505441
21
-87.4760841877
31
0.0000000000
11
164.1813081821
21
-87.5924940853
31
0.0000000000
0
SPLINE
5
52E
100
AcDbEntity
8
0
100
AcDbSpline
62
7
6
CONTINUOUS
70
0
71
3
72
16
73
12
74
10
42
0.0000001000
43
0.0000001000
44
0.0000000001
40
0.0000000000
40
0.0000000000
40
0.0000000000
40
0.0000000000
40
0.1496429657
40
0.2882507788
40
0.4182921889
40
0.5411806562
40
0.6579081027
40
0.7691380808
40
0.8752939070
40
0.9764577080
40
1.0000000000
40
1.0000000000
40
1.0000000000
40
1.0000000000
10
77.0016149914
20
-110.8349961636
30
0.0000000000
10
77.2614731054
20
-110.7949090908
30
0.0000000000
10
77.7560765787
20
-110.6722344771
30
0.0000000000
10
78.4336103480
20
-110.3806544730
30
0.0000000000
10
79.0216390717
20
-110.0193190350
30
0.0000000000
10
79.5266344273
20
-109.6080783256
30
0.0000000000
10
79.9540033303
20
-109.1617449811
30
0.0000000000
10
80.3082349587
20
-108.6919750238
30
0.0000000000
10
80.5931378438
20
-108.2088547874
30
0.0000000000
10
80.7598990366
20
-107.8381930899
30
0.0000000000
10
80.8360894241
20
-107.6326275622
30
0.0000000000
10
80.8499699836
20
-107.5936414790
30
0.0000000000
11
77.0016149914
21
-110.8349961636
31
0.0000000000
11
77.7675446233
21
-110.6464471932
31
0.0000000000
11
78.4390531568
21
-110.3585359749
31
0.0000000000
11
79.0233070419
21
-110.0000393335
31
0.0000000000
11
79.5257230672
21
-109.5911610704
31
0.0000000000
11
79.9512622253
21
-109.1467505272
31
0.0000000000
11
80.3041762297
21
-108.6785458047
31
0.0000000000
11
80.5882515372
21
-108.1964498271
31
0.0000000000
11
80.8068276217
21
-107.7100513767
31
0.0000000000
11
80.8499699836
21
-107.5936414790
31
0.0000000000
0
SPLINE
5
52F
100
AcDbEntity
8
0
100
AcDbSpline
62
7
6
CONTINUOUS
70
0
71
3
72
16
73
12
74
10
42
0.0000001000
43
0.0000001000
44
0.0000000001
40
0.0000000000
40
0.0000000000
40
0.0000000000
40
0.0000000000
40
0.1496429657
40
0.2882507788
40
0.4182921889
40
0.5411806562
40
0.6579081027
40
0.7691380808
40
0.8752939070
40
0.9764577080
40
1.0000000000
40
1.0000000000
40
1.0000000000
40
1.0000000000
10
168.0296631743
20
-110.8349961636
30
0.0000000000
10
167.7698050603
20
-110.7949090908
30
0.0000000000
10
167.2752015870
20
-110.6722344771
30
0.0000000000
10
166.5976678177
20
-110.3806544730
30
0.0000000000
10
166.0096390940
20
-110.0193190350
30
0.0000000000
10
165.5046437384
20
-109.6080783256
30
0.0000000000
10
165.0772748354
20
-109.1617449811
30
0.0000000000
10
164.7230432070
20
-108.6919750238
30
0.0000000000
10
164.4381403219
20
-108.2088547874
30
0.0000000000
10
164.2713791292
20
-107.8381930899
30
0.0000000000
10
164.1951887416
20
-107.6326275622
30
0.0000000000
10
164.1813081821
20
-107.5936414790
30
0.0000000000
11
168.0296631743
21
-110.8349961636
31
0.0000000000
11
167.2637335424
21
-110.6464471932
31
0.0000000000
11
166.5922250089
21
-110.3585359749
31
0.0000000000
11
166.0079711239
21
-110.0000393335
31
0.0000000000
11
165.5055550985
21
-109.5911610704
31
0.0000000000
11
165.0800159404
21
-109.1467505272
31
0.0000000000
11
164.7271019361
21
-108.6785458047
31
0.0000000000
11
164.4430266286
21
-108.1964498271
31
0.0000000000
11
164.2244505441
21
-107.7100513767
31
0.0000000000
11
164.1813081821
21
-107.5936414790
31
0.0000000000
0
ENDSEC
0
SECTION
2
OBJECTS
0
DICTIONARY
5
530
100
AcDbDictionary
3
ACAD_GROUP
350
531
3
ACAD_MLINESTYLE
350
532
0
DICTIONARY
5
531
102
{ACAD_REACTORS
330
530
102
}
100
AcDbDictionary
0
DICTIONARY
5
532
102
{ACAD_REACTORS
330
530
102
}
100
AcDbDictionary
3
STANDARD
350
533
0
MLINESTYLE
5
533
102
{ACAD_REACTORS
330
532
102
}
100
AcDbMlineStyle
2
STANDARD
70
0
3

62
256
51
90.0
52
90.0
71
2
49
0.5
62
256
6
BYLAYER
49
-0.5
62
256
6
BYLAYER
0
ENDSEC
0
EOF
