999
DXF file: G:\TBM\JAKUBETZ\Internet\CAD-Daten\2vlbg-15t-m42.dxf
999
Pro/ENGINEER 2001400 by Parametric Technology Corporation
0
SECTION
2
HEADER
9
$ACADVER
1
AC1014
9
$EXTMAX
10
420.0000000000
20
297.0000000000
9
$EXTMIN
10
0.0000000000
20
0.0000000000
9
$LIMMIN
10
0.0000000000
20
0.0000000000
9
$LIMMAX
10
420.0000000000
20
297.0000000000
9
$VIEWCTR
10
210.0000000000
20
148.5000000000
9
$VIEWSIZE
40
297.0000000000
9
$CLAYER
8
0
9
$LTSCALE
40
23.1000000000
9
$CELTYPE
6
BYLAYER
9
$DIMSCALE
40
1
9
$DIMASZ
40
3.5000000000
9
$DIMEXO
40
2.6250000000
9
$DIMDLI
40
15.9600000000
9
$DIMEXE
40
7.5600000000
9
$DIMCEN
40
3.7800000000
9
$DIMLFAC
40
1.0000000000
9
$DIMTXT
40
3.5000000000
9
$DIMTOL
70
1
9
$DIMTFAC
40
0.6000000000
9
$DIMTP
40
0.0050000000
9
$DIMTM
40
0.0050000000
9
$HANDSEED
5
5BA
0
ENDSEC
0
SECTION
2
CLASSES
0
ENDSEC
0
SECTION
2
TABLES
0
TABLE
2
VPORT
5
8
100
AcDbSymbolTable
70
2
0
VPORT
5
1F4
100
AcDbSymbolTableRecord
100
AcDbViewportTableRecord
2
*ACTIVE
70
0
10
0.0
20
0.0
11
1.0
21
1.0
12
210.0000000000
22
148.5000000000
13
0.0
23
0.0
14
1.0
24
1.0
15
0.0
25
0.0
16
0.0
26
0.0
36
1.0
17
0.0
27
0.0
37
0.0
40
297.0000000000
41
1.4141414141
42
50.0
43
0.0
44
0.0
50
0.0
51
0.0
71
0
72
100
73
1
74
1
75
0
76
0
77
0
78
0
0
ENDTAB
0
TABLE
2
LTYPE
5
5
100
AcDbSymbolTable
70
6
0
LTYPE
5
14
100
AcDbSymbolTableRecord
100
AcDbLinetypeTableRecord
2
BYBLOCK
70
0
3

72
65
73
0
40
0.0
0
LTYPE
5
15
100
AcDbSymbolTableRecord
100
AcDbLinetypeTableRecord
2
BYLAYER
70
0
3

72
65
73
0
40
0.0
0
LTYPE
5
16
100
AcDbSymbolTableRecord
100
AcDbLinetypeTableRecord
2
CONTINUOUS
70
64
3
Solid line
72
65
73
0
40
0
0
LTYPE
5
1F5
100
AcDbSymbolTableRecord
100
AcDbLinetypeTableRecord
2
CENTER
70
64
3
____ _ ____ _ ____ _ ____ _ ____ _ ____ _ ____
72
65
73
4
40
0.6
49
0.375
74
0
49
-0.075
74
0
49
0.075
74
0
49
-0.075
74
0
0
LTYPE
5
1F6
100
AcDbSymbolTableRecord
100
AcDbLinetypeTableRecord
2
HIDDEN
70
64
3
- - - - - - - - - - - - - - - - - - - -
72
65
73
2
40
0.2
49
0.1
74
0
49
-0.1
74
0
0
LTYPE
5
1F7
100
AcDbSymbolTableRecord
100
AcDbLinetypeTableRecord
2
PHANTOM
70
64
3
_____ _ _ _____ _ _ _____ _ _ _____
72
65
73
6
40
0.8
49
0.45
74
0
49
-0.05
74
0
49
0.1
74
0
49
-0.05
74
0
49
0.1
74
0
49
-0.05
74
0
0
LTYPE
5
1F8
100
AcDbSymbolTableRecord
100
AcDbLinetypeTableRecord
2
DOT
70
64
3
. . . . . . . . . . . . . . . . . . . .
72
65
73
2
40
0.2
49
0.1
74
0
49
-0.1
74
0
0
LTYPE
5
1F9
100
AcDbSymbolTableRecord
100
AcDbLinetypeTableRecord
2
DASHED
70
64
3
- - - - - - - - - - - - - - - - - - - -
72
65
73
2
40
0.2
49
0.1
74
0
49
-0.1
74
0
0
ENDTAB
0
TABLE
2
LAYER
5
2
100
AcDbSymbolTable
70
36
0
LAYER
5
10
100
AcDbSymbolTableRecord
100
AcDbLayerTableRecord
2
0
70
0
62
7
6
CONTINUOUS
0
LAYER
5
1FA
100
AcDbSymbolTableRecord
100
AcDbLayerTableRecord
2
DEFAULT_1
70
0
62
7
6
CENTER
0
LAYER
5
1FB
100
AcDbSymbolTableRecord
100
AcDbLayerTableRecord
2
DEFAULT_2
70
0
62
8
6
HIDDEN
0
LAYER
5
1FC
100
AcDbSymbolTableRecord
100
AcDbLayerTableRecord
2
DEFAULT_3
70
0
62
7
6
PHANTOM
0
ENDTAB
0
TABLE
2
STYLE
5
3
100
AcDbSymbolTable
70
1
0
STYLE
5
11
100
AcDbSymbolTableRecord
100
AcDbTextStyleTableRecord
2
STANDARD
70
0
40
0.0
41
1.0
50
0.0
71
0
42
0.0
3
txt
4

0
STYLE
5
1FD
100
AcDbSymbolTableRecord
100
AcDbTextStyleTableRecord
2
TEXTSTYLE_0
70
0
40
0.0
41
0.80
50
0.0
71
0
42
0.2
3
txt
4

0
ENDTAB
0
TABLE
2
VIEW
5
6
100
AcDbSymbolTable
70
0
0
ENDTAB
0
TABLE
2
UCS
5
7
100
AcDbSymbolTable
70
0
0
ENDTAB
0
TABLE
2
APPID
5
9
100
AcDbSymbolTable
70
1
0
APPID
5
1FE
100
AcDbSymbolTableRecord
100
AcDbRegAppTableRecord
2
ACAD
70
0
0
ENDTAB
0
TABLE
2
DIMSTYLE
5
A
100
AcDbSymbolTable
70
1
0
DIMSTYLE
105
1FF
100
AcDbSymbolTableRecord
100
AcDbDimStyleTableRecord
2
STANDARD
70
0
3

4

5

6

7

40
1.0
41
0.18
42
0.0625
43
0.38
44
0.18
45
0.0
46
0.0
47
0.0050000000
48
0.0050000000
140
3.5000000000
141
0.09
142
0.0
143
25.4
144
1.0000000000
145
0.0
146
0.6000000000
147
0.09
71
1
72
0
73
1
74
1
75
0
76
0
77
0
78
0
170
0
171
2
172
0
173
0
174
0
175
0
176
0
177
0
178
0
270
2
271
3
272
4
273
2
274
2
340
11
275
0
280
0
281
0
282
0
283
1
284
0
285
0
286
0
287
3
288
0
0
ENDTAB
0
TABLE
2
BLOCK_RECORD
5
1
100
AcDbSymbolTable
70
0
0
BLOCK_RECORD
5
1B
100
AcDbSymbolTableRecord
100
AcDbBlockTableRecord
2
*MODEL_SPACE
0
BLOCK_RECORD
5
1C
100
AcDbSymbolTableRecord
100
AcDbBlockTableRecord
2
*PAPER_SPACE
0
ENDTAB
0
ENDSEC
0
SECTION
2
BLOCKS
0
BLOCK
5
1E
100
AcDbEntity
8
0
100
AcDbBlockBegin
2
*MODEL_SPACE
70
0
10
0.0
20
0.0
30
0.0
3
*MODEL_SPACE
1

0
ENDBLK
5
1F
100
AcDbEntity
8
0
100
AcDbBlockEnd
0
BLOCK
5
20
100
AcDbEntity
8
0
100
AcDbBlockBegin
2
*PAPER_SPACE
70
0
10
0.0
20
0.0
30
0.0
3
*PAPER_SPACE
1

0
ENDBLK
5
21
100
AcDbEntity
8
0
100
AcDbBlockEnd
0
ENDSEC
0
SECTION
2
ENTITIES
0
TEXT
5
200
100
AcDbEntity
8
0
100
AcDbText
62
2
6
CONTINUOUS
10
53.3074061173
20
-84.2762849341
7
TEXTSTYLE_0
40
10.0000000000
1
RUD VLBG 15t-M42
72
5
11
174.2597870696
21
-84.2762849341
100
AcDbText
0
TEXT
5
201
100
AcDbEntity
8
0
100
AcDbText
62
2
6
CONTINUOUS
10
179.8115186097
20
188.8575943110
7
TEXTSTYLE_0
40
10.0000000000
1
RUD VLBG 15t-M42
50
90.0000000000
72
5
11
179.8115186097
21
309.8099752634
100
AcDbText
0
TEXT
5
202
100
AcDbEntity
8
0
100
AcDbText
62
2
6
CONTINUOUS
10
335.0665657596
20
187.8992298225
7
TEXTSTYLE_0
40
10.0000000000
1
RUD VLBG 15t-M42
50
90.0000000000
72
5
11
335.0665657596
21
308.8516107749
100
AcDbText
0
LINE
5
203
100
AcDbEntity
8
0
100
AcDbLine
62
7
6
CONTINUOUS
10
0.0000000000
20
0.0000000000
11
0.0000000000
21
297.0000000000
0
LINE
5
204
100
AcDbEntity
8
0
100
AcDbLine
62
7
6
CONTINUOUS
10
0.0000000000
20
0.0000000000
11
420.0000000000
21
0.0000000000
0
LINE
5
205
100
AcDbEntity
8
0
100
AcDbLine
62
7
6
CONTINUOUS
10
0.0000000000
20
297.0000000000
11
420.0000000000
21
297.0000000000
0
LINE
5
206
100
AcDbEntity
8
0
100
AcDbLine
62
7
6
CONTINUOUS
10
420.0000000000
20
0.0000000000
11
420.0000000000
21
297.0000000000
0
LINE
5
207
100
AcDbEntity
8
0
100
AcDbLine
62
7
6
CONTINUOUS
10
129.2583218214
20
52.7519526045
11
92.7793218214
21
52.7519526045
0
LINE
5
208
100
AcDbEntity
8
0
100
AcDbLine
62
7
6
CONTINUOUS
10
90.0188218214
20
56.7519526045
11
132.0188218214
21
56.7519526045
0
LINE
5
209
100
AcDbEntity
8
0
100
AcDbLine
62
7
6
CONTINUOUS
10
94.0188218214
20
52.7519526045
11
90.0188218214
21
56.7519526045
0
LINE
5
20A
100
AcDbEntity
8
0
100
AcDbLine
62
7
6
CONTINUOUS
10
153.5188218214
20
115.7519526045
11
68.5188218214
21
115.7519526045
0
LINE
5
20B
100
AcDbEntity
8
0
100
AcDbLine
62
7
6
CONTINUOUS
10
153.5188218214
20
123.7519526045
11
68.5188218214
21
123.7519526045
0
LINE
5
20C
100
AcDbEntity
8
0
100
AcDbLine
62
7
6
CONTINUOUS
10
66.0188218214
20
124.2519526045
11
156.0188218214
21
124.2519526045
0
LINE
5
20D
100
AcDbEntity
8
0
100
AcDbLine
62
7
6
CONTINUOUS
10
33.0188218214
20
324.3888981362
11
33.0188218214
21
171.2519526045
0
LINE
5
20E
100
AcDbEntity
8
0
100
AcDbLine
62
7
6
CONTINUOUS
10
159.0188218214
20
141.2519526045
11
158.5188218214
21
141.2519526045
0
LINE
5
20F
100
AcDbEntity
8
0
100
AcDbLine
62
7
6
CONTINUOUS
10
63.0188218214
20
141.2519526045
11
63.5188218214
21
141.2519526045
0
LINE
5
210
100
AcDbEntity
8
0
100
AcDbLine
62
7
6
CONTINUOUS
10
61.0188218214
20
312.5013307101
11
61.0188218214
21
189.2519526045
0
LINE
5
211
100
AcDbEntity
8
0
100
AcDbLine
62
7
6
CONTINUOUS
10
63.5188218214
20
126.7519526045
11
63.5188218214
21
191.7519526045
0
LINE
5
212
100
AcDbEntity
8
0
100
AcDbLine
62
7
6
CONTINUOUS
10
61.0188218214
20
312.5013307101
11
61.0326804679
21
313.0778855248
0
LINE
5
213
100
AcDbEntity
8
DEFAULT_1
100
AcDbLine
62
2
6
CENTER
10
53.3074061173
20
159.2519526045
11
167.3527802582
21
159.2519526045
0
LINE
5
214
100
AcDbEntity
8
0
100
AcDbLine
62
7
6
CONTINUOUS
10
68.5188218214
20
202.7519526045
11
68.5188218214
21
194.7519526045
0
LINE
5
215
100
AcDbEntity
8
0
100
AcDbLine
62
7
6
CONTINUOUS
10
68.5188218214
20
123.7519526045
11
68.5188218214
21
115.7519526045
0
LINE
5
216
100
AcDbEntity
8
0
100
AcDbLine
62
7
6
CONTINUOUS
10
73.4910543241
20
203.2519526045
11
73.4910543241
21
225.8491696865
0
LINE
5
217
100
AcDbEntity
8
0
100
AcDbLine
62
7
6
CONTINUOUS
10
81.0188218214
20
194.7519526045
11
81.0188218214
21
194.2519526045
0
LINE
5
218
100
AcDbEntity
8
0
100
AcDbLine
62
7
6
CONTINUOUS
10
81.0188218214
20
124.2519526045
11
81.0188218214
21
123.7519526045
0
LINE
5
219
100
AcDbEntity
8
0
100
AcDbLine
62
7
6
CONTINUOUS
10
81.0688218214
20
202.7519526045
11
81.0688218214
21
203.2519526045
0
LINE
5
21A
100
AcDbEntity
8
0
100
AcDbLine
62
7
6
CONTINUOUS
10
84.7353393652
20
228.7519526045
11
84.7353393652
21
228.9519526045
0
LINE
5
21B
100
AcDbEntity
8
0
100
AcDbLine
62
7
6
CONTINUOUS
10
73.4910543241
20
225.8491696865
11
78.5188218214
21
228.7519526045
0
LINE
5
21C
100
AcDbEntity
8
0
100
AcDbLine
62
7
6
CONTINUOUS
10
90.0188218214
20
56.7519526045
11
90.0188218214
21
115.7519526045
0
LINE
5
21D
100
AcDbEntity
8
0
100
AcDbLine
62
7
6
CONTINUOUS
10
92.2549380727
20
203.2519526045
11
92.2549380727
21
225.8491696865
0
LINE
5
21E
100
AcDbEntity
8
0
100
AcDbLine
62
7
6
CONTINUOUS
10
92.6775136607
20
228.7519526045
11
92.6775136607
21
228.9519526045
0
LINE
5
21F
100
AcDbEntity
8
0
100
AcDbLine
62
7
6
CONTINUOUS
10
92.7605454230
20
228.7519526045
11
92.7605454230
21
228.9519526045
0
LINE
5
220
100
AcDbEntity
8
0
100
AcDbLine
62
2
6
CONTINUOUS
10
92.7793218214
20
115.7519526045
11
92.7793218214
21
52.7519526045
0
LINE
5
221
100
AcDbEntity
8
0
100
AcDbLine
62
7
6
CONTINUOUS
10
93.1065110861
20
228.7519526045
11
93.1065110861
21
228.9519526045
0
LINE
5
222
100
AcDbEntity
8
0
100
AcDbLine
62
7
6
CONTINUOUS
10
93.2033815018
20
228.7519526045
11
93.2033815018
21
228.9519526045
0
LINE
5
223
100
AcDbEntity
8
0
100
AcDbLine
62
7
6
CONTINUOUS
10
93.3144103953
20
228.7519526045
11
93.3144103953
21
228.9519526045
0
LINE
5
224
100
AcDbEntity
8
0
100
AcDbLine
62
7
6
CONTINUOUS
10
93.8090972775
20
228.7519526045
11
93.8090972775
21
228.9519526045
0
LINE
5
225
100
AcDbEntity
8
0
100
AcDbLine
62
7
6
CONTINUOUS
10
94.1928159927
20
228.7519526045
11
94.1928159927
21
228.9519526045
0
LINE
5
226
100
AcDbEntity
8
0
100
AcDbLine
62
7
6
CONTINUOUS
10
94.3746499607
20
228.7519526045
11
94.3746499607
21
228.9519526045
0
LINE
5
227
100
AcDbEntity
8
0
100
AcDbLine
62
7
6
CONTINUOUS
10
94.4455157754
20
228.7519526045
11
94.4455157754
21
228.9519526045
0
LINE
5
228
100
AcDbEntity
8
0
100
AcDbLine
62
7
6
CONTINUOUS
10
95.5707865448
20
228.7519526045
11
95.5707865448
21
228.9519526045
0
LINE
5
229
100
AcDbEntity
8
0
100
AcDbLine
62
7
6
CONTINUOUS
10
97.3461619239
20
228.7519526045
11
97.3461619239
21
228.9519526045
0
LINE
5
22A
100
AcDbEntity
8
0
100
AcDbLine
62
7
6
CONTINUOUS
10
97.5854650001
20
228.7519526045
11
97.5854650001
21
228.9519526045
0
LINE
5
22B
100
AcDbEntity
8
0
100
AcDbLine
62
7
6
CONTINUOUS
10
97.6202264496
20
228.7519526045
11
97.6202264496
21
228.9519526045
0
LINE
5
22C
100
AcDbEntity
8
0
100
AcDbLine
62
7
6
CONTINUOUS
10
66.0188218214
20
194.2519526045
11
156.0188218214
21
194.2519526045
0
LINE
5
22D
100
AcDbEntity
8
0
100
AcDbLine
62
7
6
CONTINUOUS
10
153.5188218214
20
194.7519526045
11
68.5188218214
21
194.7519526045
0
LINE
5
22E
100
AcDbEntity
8
0
100
AcDbLine
62
7
6
CONTINUOUS
10
102.0737808483
20
228.7519526045
11
102.0737808483
21
228.9519526045
0
LINE
5
22F
100
AcDbEntity
8
0
100
AcDbLine
62
7
6
CONTINUOUS
10
103.9838145801
20
228.7519526045
11
103.9838145801
21
228.9519526045
0
LINE
5
230
100
AcDbEntity
8
0
100
AcDbLine
62
7
6
CONTINUOUS
10
104.6556378199
20
228.7519526045
11
104.6556378199
21
228.9519526045
0
LINE
5
231
100
AcDbEntity
8
0
100
AcDbLine
62
7
6
CONTINUOUS
10
106.2232245252
20
228.7519526045
11
106.2232245252
21
228.9519526045
0
LINE
5
232
100
AcDbEntity
8
0
100
AcDbLine
62
7
6
CONTINUOUS
10
107.1189905535
20
228.7519526045
11
107.1189905535
21
228.9519526045
0
LINE
5
233
100
AcDbEntity
8
0
100
AcDbLine
62
7
6
CONTINUOUS
10
107.1829336342
20
228.7519526045
11
107.1829336342
21
228.9519526045
0
LINE
5
234
100
AcDbEntity
8
0
100
AcDbLine
62
7
6
CONTINUOUS
10
108.6865772587
20
228.7519526045
11
108.6865772587
21
228.9519526045
0
LINE
5
235
100
AcDbEntity
8
0
100
AcDbLine
62
7
6
CONTINUOUS
10
109.3584004985
20
228.7519526045
11
109.3584004985
21
228.9519526045
0
LINE
5
236
100
AcDbEntity
8
0
100
AcDbLine
62
7
6
CONTINUOUS
10
110.5352066952
20
228.7519526045
11
110.5352066952
21
228.9519526045
0
LINE
5
237
100
AcDbEntity
8
DEFAULT_1
100
AcDbLine
62
2
6
CENTER
10
111.0188218214
20
205.7519526045
11
111.0188218214
21
49.7519526045
0
LINE
5
238
100
AcDbEntity
8
0
100
AcDbLine
62
7
6
CONTINUOUS
10
153.5188218214
20
202.7519526045
11
68.5188218214
21
202.7519526045
0
LINE
5
239
100
AcDbEntity
8
0
100
AcDbLine
62
7
6
CONTINUOUS
10
73.4910543241
20
203.2519526045
11
148.5465893187
21
203.2519526045
0
LINE
5
23A
100
AcDbEntity
8
0
100
AcDbLine
62
7
6
CONTINUOUS
10
113.0819207449
20
228.7519526045
11
113.0819207449
21
228.9519526045
0
LINE
5
23B
100
AcDbEntity
8
0
100
AcDbLine
62
7
6
CONTINUOUS
10
113.7710637422
20
228.7519526045
11
113.7710637422
21
228.9519526045
0
LINE
5
23C
100
AcDbEntity
8
0
100
AcDbLine
62
7
6
CONTINUOUS
10
113.9809216816
20
228.7519526045
11
113.9809216816
21
228.9519526045
0
LINE
5
23D
100
AcDbEntity
8
0
100
AcDbLine
62
7
6
CONTINUOUS
10
115.1294942201
20
228.7519526045
11
115.1294942201
21
228.9519526045
0
LINE
5
23E
100
AcDbEntity
8
0
100
AcDbLine
62
7
6
CONTINUOUS
10
115.2194333489
20
228.7519526045
11
115.2194333489
21
228.9519526045
0
LINE
5
23F
100
AcDbEntity
8
0
100
AcDbLine
62
7
6
CONTINUOUS
10
115.8361247692
20
228.7519526045
11
115.8361247692
21
228.9519526045
0
LINE
5
240
100
AcDbEntity
8
0
100
AcDbLine
62
7
6
CONTINUOUS
10
119.6918444692
20
228.7519526045
11
119.6918444692
21
228.9519526045
0
LINE
5
241
100
AcDbEntity
8
0
100
AcDbLine
62
7
6
CONTINUOUS
10
120.0070868747
20
228.7519526045
11
120.0070868747
21
228.9519526045
0
LINE
5
242
100
AcDbEntity
8
0
100
AcDbLine
62
7
6
CONTINUOUS
10
121.0728434218
20
228.7519526045
11
121.0728434218
21
228.9519526045
0
LINE
5
243
100
AcDbEntity
8
0
100
AcDbLine
62
7
6
CONTINUOUS
10
121.4761971228
20
228.7519526045
11
121.4761971228
21
228.9519526045
0
LINE
5
244
100
AcDbEntity
8
0
100
AcDbLine
62
7
6
CONTINUOUS
10
121.8354927026
20
228.7519526045
11
121.8354927026
21
228.9519526045
0
LINE
5
245
100
AcDbEntity
8
0
100
AcDbLine
62
7
6
CONTINUOUS
10
121.9615898237
20
228.7519526045
11
121.9615898237
21
228.9519526045
0
LINE
5
246
100
AcDbEntity
8
0
100
AcDbLine
62
7
6
CONTINUOUS
10
122.1066820220
20
228.7519526045
11
122.1066820220
21
228.9519526045
0
LINE
5
247
100
AcDbEntity
8
0
100
AcDbLine
62
7
6
CONTINUOUS
10
125.1234273889
20
228.7519526045
11
125.1234273889
21
228.9519526045
0
LINE
5
248
100
AcDbEntity
8
0
100
AcDbLine
62
7
6
CONTINUOUS
10
125.5610168862
20
228.7519526045
11
125.5610168862
21
228.9519526045
0
LINE
5
249
100
AcDbEntity
8
0
100
AcDbLine
62
7
6
CONTINUOUS
10
126.9827576137
20
228.7519526045
11
126.9827576137
21
228.9519526045
0
LINE
5
24A
100
AcDbEntity
8
0
100
AcDbLine
62
7
6
CONTINUOUS
10
127.1527515876
20
228.7519526045
11
127.1527515876
21
228.9519526045
0
LINE
5
24B
100
AcDbEntity
8
0
100
AcDbLine
62
7
6
CONTINUOUS
10
127.6243601386
20
228.7519526045
11
127.6243601386
21
228.9519526045
0
LINE
5
24C
100
AcDbEntity
8
0
100
AcDbLine
62
7
6
CONTINUOUS
10
128.3206456825
20
228.7519526045
11
128.3206456825
21
228.9519526045
0
LINE
5
24D
100
AcDbEntity
8
0
100
AcDbLine
62
7
6
CONTINUOUS
10
128.4919581587
20
228.7519526045
11
128.4919581587
21
228.9519526045
0
LINE
5
24E
100
AcDbEntity
8
0
100
AcDbLine
62
7
6
CONTINUOUS
10
129.0672511075
20
228.7519526045
11
129.0672511075
21
228.9519526045
0
LINE
5
24F
100
AcDbEntity
8
0
100
AcDbLine
62
7
6
CONTINUOUS
10
129.1230345323
20
228.7519526045
11
129.1230345323
21
228.9519526045
0
LINE
5
250
100
AcDbEntity
8
0
100
AcDbLine
62
2
6
CONTINUOUS
10
129.2583218214
20
115.7519526045
11
129.2583218214
21
52.7519526045
0
LINE
5
251
100
AcDbEntity
8
0
100
AcDbLine
62
7
6
CONTINUOUS
10
129.3617260901
20
228.7519526045
11
129.3617260901
21
228.9519526045
0
LINE
5
252
100
AcDbEntity
8
0
100
AcDbLine
62
7
6
CONTINUOUS
10
129.7827055701
20
203.2519526045
11
129.7827055701
21
225.8491696865
0
LINE
5
253
100
AcDbEntity
8
0
100
AcDbLine
62
7
6
CONTINUOUS
10
129.9383447551
20
228.7519526045
11
129.9383447551
21
228.9519526045
0
LINE
5
254
100
AcDbEntity
8
0
100
AcDbLine
62
7
6
CONTINUOUS
10
130.6560349420
20
228.7519526045
11
130.6560349420
21
228.9519526045
0
LINE
5
255
100
AcDbEntity
8
0
100
AcDbLine
62
7
6
CONTINUOUS
10
131.5287428707
20
228.7519526045
11
131.5287428707
21
228.9519526045
0
LINE
5
256
100
AcDbEntity
8
0
100
AcDbLine
62
7
6
CONTINUOUS
10
132.0188218214
20
56.7519526045
11
132.0188218214
21
115.7519526045
0
LINE
5
257
100
AcDbEntity
8
0
100
AcDbLine
62
7
6
CONTINUOUS
10
132.7254311815
20
228.7519526045
11
132.7254311815
21
228.9519526045
0
LINE
5
258
100
AcDbEntity
8
0
100
AcDbLine
62
7
6
CONTINUOUS
10
133.9081737186
20
228.7519526045
11
133.9081737186
21
228.9519526045
0
LINE
5
259
100
AcDbEntity
8
0
100
AcDbLine
62
7
6
CONTINUOUS
10
135.0769707187
20
228.7519526045
11
135.0769707187
21
228.9519526045
0
LINE
5
25A
100
AcDbEntity
8
0
100
AcDbLine
62
7
6
CONTINUOUS
10
135.8938955776
20
228.7519526045
11
135.8938955776
21
228.9519526045
0
LINE
5
25B
100
AcDbEntity
8
0
100
AcDbLine
62
7
6
CONTINUOUS
10
78.5188218214
20
228.7519526045
11
143.5188218214
21
228.7519526045
0
LINE
5
25C
100
AcDbEntity
8
0
100
AcDbLine
62
7
6
CONTINUOUS
10
84.7353393652
20
228.9519526045
11
97.6202264496
21
228.9519526045
0
LINE
5
25D
100
AcDbEntity
8
0
100
AcDbLine
62
7
6
CONTINUOUS
10
102.0737808483
20
228.9519526045
11
109.3584004985
21
228.9519526045
0
LINE
5
25E
100
AcDbEntity
8
0
100
AcDbLine
62
7
6
CONTINUOUS
10
110.5352066952
20
228.9519526045
11
115.2194333489
21
228.9519526045
0
LINE
5
25F
100
AcDbEntity
8
0
100
AcDbLine
62
7
6
CONTINUOUS
10
115.8361247692
20
228.9519526045
11
122.1066820220
21
228.9519526045
0
LINE
5
260
100
AcDbEntity
8
0
100
AcDbLine
62
7
6
CONTINUOUS
10
125.1234273889
20
228.9519526045
11
137.0643067996
21
228.9519526045
0
LINE
5
261
100
AcDbEntity
8
0
100
AcDbLine
62
7
6
CONTINUOUS
10
136.5279112065
20
228.7519526045
11
136.5279112065
21
228.9519526045
0
LINE
5
262
100
AcDbEntity
8
0
100
AcDbLine
62
7
6
CONTINUOUS
10
136.9650719035
20
228.7519526045
11
136.9650719035
21
228.9519526045
0
LINE
5
263
100
AcDbEntity
8
0
100
AcDbLine
62
7
6
CONTINUOUS
10
137.0643067996
20
228.7519526045
11
137.0643067996
21
228.9519526045
0
LINE
5
264
100
AcDbEntity
8
0
100
AcDbLine
62
7
6
CONTINUOUS
10
140.9688218214
20
202.7519526045
11
140.9688218214
21
203.2519526045
0
LINE
5
265
100
AcDbEntity
8
0
100
AcDbLine
62
7
6
CONTINUOUS
10
141.0188218214
20
194.7519526045
11
141.0188218214
21
194.2519526045
0
LINE
5
266
100
AcDbEntity
8
0
100
AcDbLine
62
7
6
CONTINUOUS
10
141.0188218214
20
124.2519526045
11
141.0188218214
21
123.7519526045
0
LINE
5
267
100
AcDbEntity
8
0
100
AcDbLine
62
7
6
CONTINUOUS
10
148.5465893187
20
225.8491696865
11
143.5188218214
21
228.7519526045
0
LINE
5
268
100
AcDbEntity
8
0
100
AcDbLine
62
7
6
CONTINUOUS
10
148.5465893187
20
203.2519526045
11
148.5465893187
21
225.8491696865
0
LINE
5
269
100
AcDbEntity
8
0
100
AcDbLine
62
7
6
CONTINUOUS
10
153.5188218214
20
202.7519526045
11
153.5188218214
21
194.7519526045
0
LINE
5
26A
100
AcDbEntity
8
0
100
AcDbLine
62
7
6
CONTINUOUS
10
153.5188218214
20
123.7519526045
11
153.5188218214
21
115.7519526045
0
LINE
5
26B
100
AcDbEntity
8
0
100
AcDbLine
62
7
6
CONTINUOUS
10
158.5188218214
20
191.7519526045
11
158.5188218214
21
126.7519526045
0
LINE
5
26C
100
AcDbEntity
8
0
100
AcDbLine
62
7
6
CONTINUOUS
10
161.0188218214
20
189.2519526045
11
161.0188218214
21
312.5013307101
0
LINE
5
26D
100
AcDbEntity
8
0
100
AcDbLine
62
7
6
CONTINUOUS
10
189.0188218214
20
324.3888981362
11
189.0188218214
21
171.2519526045
0
LINE
5
26E
100
AcDbEntity
8
0
100
AcDbLine
62
7
6
CONTINUOUS
10
128.0188218214
20
52.7519526045
11
132.0188218214
21
56.7519526045
0
LINE
5
26F
100
AcDbEntity
8
0
100
AcDbLine
62
7
6
CONTINUOUS
10
298.9171266151
20
52.7519526045
11
262.4381266151
21
52.7519526045
0
LINE
5
270
100
AcDbEntity
8
0
100
AcDbLine
62
7
6
CONTINUOUS
10
259.6776266151
20
56.7519526045
11
301.6776266151
21
56.7519526045
0
LINE
5
271
100
AcDbEntity
8
0
100
AcDbLine
62
7
6
CONTINUOUS
10
263.6776266151
20
52.7519526045
11
259.6776266151
21
56.7519526045
0
LINE
5
272
100
AcDbEntity
8
0
100
AcDbLine
62
7
6
CONTINUOUS
10
238.1776266151
20
115.7519526045
11
323.1776266151
21
115.7519526045
0
LINE
5
273
100
AcDbEntity
8
0
100
AcDbLine
62
7
6
CONTINUOUS
10
238.1776266151
20
123.7519526045
11
323.1776266151
21
123.7519526045
0
LINE
5
274
100
AcDbEntity
8
0
100
AcDbLine
62
7
6
CONTINUOUS
10
228.1776266184
20
124.2519526045
11
330.6776266151
21
124.2519526045
0
LINE
5
275
100
AcDbEntity
8
0
100
AcDbLine
62
7
6
CONTINUOUS
10
225.1776266151
20
144.1214510104
11
225.1776266151
21
145.3980467818
0
LINE
5
276
100
AcDbEntity
8
0
100
AcDbLine
62
7
6
CONTINUOUS
10
225.1776266151
20
150.5044296882
11
225.1776266151
21
151.7810252807
0
LINE
5
277
100
AcDbEntity
8
0
100
AcDbLine
62
7
6
CONTINUOUS
10
225.1776266151
20
154.8448554179
11
225.1776266151
21
156.1214510104
0
LINE
5
278
100
AcDbEntity
8
0
100
AcDbLine
62
7
6
CONTINUOUS
10
225.1797454427
20
166.4848890555
11
225.1797454427
21
168.0168039454
0
LINE
5
279
100
AcDbEntity
8
0
100
AcDbLine
62
7
6
CONTINUOUS
10
225.2179940247
20
166.4848890555
11
225.2179940247
21
178.4848890555
0
LINE
5
27A
100
AcDbEntity
8
0
100
AcDbLine
62
7
6
CONTINUOUS
10
225.2564674191
20
151.7810252807
11
225.2564674191
21
154.8448554179
0
LINE
5
27B
100
AcDbEntity
8
0
100
AcDbLine
62
7
6
CONTINUOUS
10
225.2782256542
20
168.0168039454
11
225.2782256542
21
171.8465912593
0
LINE
5
27C
100
AcDbEntity
8
0
100
AcDbLine
62
7
6
CONTINUOUS
10
225.2782256542
20
173.3785059703
11
225.2782256542
21
176.9529743445
0
LINE
5
27D
100
AcDbEntity
8
0
100
AcDbLine
62
7
6
CONTINUOUS
10
225.3243351923
20
147.6959190271
11
225.3243351923
21
148.2065572641
0
LINE
5
27E
100
AcDbEntity
8
0
100
AcDbLine
62
7
6
CONTINUOUS
10
225.3890296489
20
154.8448554179
11
225.3890296489
21
156.1214510104
0
LINE
5
27F
100
AcDbEntity
8
0
100
AcDbLine
62
7
6
CONTINUOUS
10
225.4387535161
20
147.4405999086
11
225.4387535161
21
148.4618763826
0
LINE
5
280
100
AcDbEntity
8
0
100
AcDbLine
62
7
6
CONTINUOUS
10
225.6776266151
20
126.7519526045
11
225.6776266151
21
144.1214510104
0
LINE
5
281
100
AcDbEntity
8
0
100
AcDbLine
62
7
6
CONTINUOUS
10
225.6776266151
20
151.7810252807
11
225.6776266151
21
154.8448554179
0
LINE
5
282
100
AcDbEntity
8
0
100
AcDbLine
62
7
6
CONTINUOUS
10
225.6776266151
20
156.1214510104
11
225.6776266151
21
166.4848890555
0
LINE
5
283
100
AcDbEntity
8
0
100
AcDbLine
62
7
6
CONTINUOUS
10
225.6776266151
20
178.4848890555
11
225.6776266151
21
191.7519526045
0
LINE
5
284
100
AcDbEntity
8
0
100
AcDbLine
62
7
6
CONTINUOUS
10
225.6907864031
20
151.2703870437
11
225.6907864031
21
152.2916635177
0
LINE
5
285
100
AcDbEntity
8
0
100
AcDbLine
62
7
6
CONTINUOUS
10
225.7792868508
20
168.6730960992
11
225.7792868508
21
171.1902992458
0
LINE
5
286
100
AcDbEntity
8
0
100
AcDbLine
62
7
6
CONTINUOUS
10
225.7792868508
20
174.0347979838
11
225.7792868508
21
176.2966823311
0
LINE
5
287
100
AcDbEntity
8
0
100
AcDbLine
62
7
6
CONTINUOUS
10
225.8234029863
20
169.5487188352
11
225.8234029863
21
170.3146761907
0
LINE
5
288
100
AcDbEntity
8
0
100
AcDbLine
62
7
6
CONTINUOUS
10
225.8234029863
20
174.9104206813
11
225.8234029863
21
175.4210589183
0
LINE
5
289
100
AcDbEntity
8
0
100
AcDbLine
62
7
6
CONTINUOUS
10
225.8912649450
20
154.8448554179
11
225.8912649450
21
156.1214510104
0
LINE
5
28A
100
AcDbEntity
8
0
100
AcDbLine
62
7
6
CONTINUOUS
10
225.9415174954
20
147.4405999086
11
225.9415174954
21
148.4618763826
0
LINE
5
28B
100
AcDbEntity
8
0
100
AcDbLine
62
7
6
CONTINUOUS
10
226.0260648480
20
169.2933997167
11
226.0260648480
21
170.5699953092
0
LINE
5
28C
100
AcDbEntity
8
0
100
AcDbLine
62
7
6
CONTINUOUS
10
226.0260648480
20
174.6551015628
11
226.0260648480
21
175.6763787521
0
LINE
5
28D
100
AcDbEntity
8
0
100
AcDbLine
62
7
6
CONTINUOUS
10
226.0289256786
20
146.1640041373
11
226.0289256786
21
151.2703870437
0
LINE
5
28E
100
AcDbEntity
8
0
100
AcDbLine
62
7
6
CONTINUOUS
10
226.0289256786
20
152.2916635177
11
226.0289256786
21
154.3342171809
0
LINE
5
28F
100
AcDbEntity
8
0
100
AcDbLine
62
7
6
CONTINUOUS
10
226.2847965686
20
146.6746425531
11
226.2847965686
21
151.2703870437
0
LINE
5
290
100
AcDbEntity
8
0
100
AcDbLine
62
7
6
CONTINUOUS
10
226.2847965686
20
152.2916635177
11
226.2847965686
21
154.3342171809
0
LINE
5
291
100
AcDbEntity
8
0
100
AcDbLine
62
7
6
CONTINUOUS
10
226.3406249558
20
170.5699953092
11
226.3406249558
21
174.3997824443
0
LINE
5
292
100
AcDbEntity
8
0
100
AcDbLine
62
7
6
CONTINUOUS
10
226.6103646703
20
170.5699953092
11
226.6103646703
21
174.3997824443
0
LINE
5
293
100
AcDbEntity
8
0
100
AcDbLine
62
7
6
CONTINUOUS
10
226.7967306581
20
146.6746425531
11
226.7967306581
21
151.2703870437
0
LINE
5
294
100
AcDbEntity
8
0
100
AcDbLine
62
7
6
CONTINUOUS
10
226.7967306581
20
152.2916635177
11
226.7967306581
21
154.3342171809
0
LINE
5
295
100
AcDbEntity
8
0
100
AcDbLine
62
7
6
CONTINUOUS
10
226.8338027341
20
144.1214510104
11
226.8338027341
21
145.1427275738
0
LINE
5
296
100
AcDbEntity
8
0
100
AcDbLine
62
7
6
CONTINUOUS
10
329.1454714573
20
141.2519526045
11
332.2097817730
21
141.2519526045
0
LINE
5
297
100
AcDbEntity
8
0
100
AcDbLine
62
7
6
CONTINUOUS
10
225.1939054234
20
144.1214510104
11
225.6940768384
21
144.1214510104
0
LINE
5
298
100
AcDbEntity
8
0
100
AcDbLine
62
7
6
CONTINUOUS
10
226.8338027341
20
144.1214510104
11
227.3518695355
21
144.1214510104
0
LINE
5
299
100
AcDbEntity
8
0
100
AcDbLine
62
7
6
CONTINUOUS
10
225.2427749809
20
144.3767701513
11
225.7434617000
21
144.3767701513
0
LINE
5
29A
100
AcDbEntity
8
0
100
AcDbLine
62
7
6
CONTINUOUS
10
226.9715665407
20
151.2703870437
11
226.9715665407
21
152.2916635177
0
LINE
5
29B
100
AcDbEntity
8
0
100
AcDbLine
62
7
6
CONTINUOUS
10
227.1259177974
20
170.5699953092
11
227.1259177974
21
174.3997824443
0
LINE
5
29C
100
AcDbEntity
8
0
100
AcDbLine
62
7
6
CONTINUOUS
10
227.3518695355
20
144.1214510104
11
227.3518695355
21
145.1427275738
0
LINE
5
29D
100
AcDbEntity
8
0
100
AcDbLine
62
7
6
CONTINUOUS
10
227.4911955048
20
151.2703870437
11
227.4911955048
21
152.2916635177
0
LINE
5
29E
100
AcDbEntity
8
0
100
AcDbLine
62
7
6
CONTINUOUS
10
227.5992491920
20
171.5912721408
11
227.5992491920
21
173.1231868518
0
LINE
5
29F
100
AcDbEntity
8
0
100
AcDbLine
62
7
6
CONTINUOUS
10
228.1988727838
20
169.5487188352
11
228.1988727838
21
171.5912721408
0
LINE
5
2A0
100
AcDbEntity
8
0
100
AcDbLine
62
7
6
CONTINUOUS
10
228.6394259513
20
169.2933997167
11
228.6394259513
21
173.1231868518
0
LINE
5
2A1
100
AcDbEntity
8
0
100
AcDbLine
62
7
6
CONTINUOUS
10
229.1787480116
20
169.2933997167
11
229.1787480116
21
173.1231868518
0
LINE
5
2A2
100
AcDbEntity
8
0
100
AcDbLine
62
7
6
CONTINUOUS
10
238.1776266151
20
202.7519526045
11
238.1776266151
21
194.7519526045
0
LINE
5
2A3
100
AcDbEntity
8
0
100
AcDbLine
62
7
6
CONTINUOUS
10
238.1776266151
20
123.7519526045
11
238.1776266151
21
115.7519526045
0
LINE
5
2A4
100
AcDbEntity
8
0
100
AcDbLine
62
7
6
CONTINUOUS
10
225.3243351923
20
145.1427275738
11
225.8258843030
21
145.1427275738
0
LINE
5
2A5
100
AcDbEntity
8
0
100
AcDbLine
62
7
6
CONTINUOUS
10
226.8338027341
20
145.1427275738
11
227.3518695355
21
145.1427275738
0
LINE
5
2A6
100
AcDbEntity
8
0
100
AcDbLine
62
7
6
CONTINUOUS
10
225.1776267022
20
145.3980467818
11
225.1939054234
21
145.3980467818
0
LINE
5
2A7
100
AcDbEntity
8
0
100
AcDbLine
62
7
6
CONTINUOUS
10
226.5146059242
20
145.3980467818
11
227.0290892602
21
145.3980467818
0
LINE
5
2A8
100
AcDbEntity
8
0
100
AcDbLine
62
7
6
CONTINUOUS
10
225.1939054234
20
145.6533659003
11
225.2303899899
21
145.6533659003
0
LINE
5
2A9
100
AcDbEntity
8
0
100
AcDbLine
62
7
6
CONTINUOUS
10
226.3401416272
20
145.9086850188
11
226.8526873275
21
145.9086850188
0
LINE
5
2AA
100
AcDbEntity
8
0
100
AcDbLine
62
7
6
CONTINUOUS
10
225.3890296489
20
146.1640041373
11
225.8912649450
21
146.1640041373
0
LINE
5
2AB
100
AcDbEntity
8
0
100
AcDbLine
62
7
6
CONTINUOUS
10
225.2193113920
20
146.1640041373
11
225.2714683471
21
146.1640041373
0
LINE
5
2AC
100
AcDbEntity
8
0
100
AcDbLine
62
7
6
CONTINUOUS
10
226.2847965686
20
146.6746425531
11
226.7967306581
21
146.6746425531
0
LINE
5
2AD
100
AcDbEntity
8
0
100
AcDbLine
62
7
6
CONTINUOUS
10
225.2427749809
20
147.1852807901
11
225.3115754788
21
147.1852807901
0
LINE
5
2AE
100
AcDbEntity
8
0
100
AcDbLine
62
7
6
CONTINUOUS
10
225.4387535161
20
147.4405999086
11
225.9415174954
21
147.4405999086
0
LINE
5
2AF
100
AcDbEntity
8
0
100
AcDbLine
62
7
6
CONTINUOUS
10
225.4387535161
20
148.4618763826
11
225.9415174954
21
148.4618763826
0
LINE
5
2B0
100
AcDbEntity
8
0
100
AcDbLine
62
7
6
CONTINUOUS
10
225.2303899899
20
149.4831532142
11
225.2822329442
21
149.4831532142
0
LINE
5
2B1
100
AcDbEntity
8
0
100
AcDbLine
62
7
6
CONTINUOUS
10
225.3890296489
20
149.7384723327
11
225.8912649450
21
149.7384723327
0
LINE
5
2B2
100
AcDbEntity
8
0
100
AcDbLine
62
7
6
CONTINUOUS
10
225.1939054234
20
150.2491105697
11
225.2303899899
21
150.2491105697
0
LINE
5
2B3
100
AcDbEntity
8
0
100
AcDbLine
62
7
6
CONTINUOUS
10
225.1776267022
20
150.5044296882
11
225.1939054234
21
150.5044296882
0
LINE
5
2B4
100
AcDbEntity
8
0
100
AcDbLine
62
7
6
CONTINUOUS
10
225.3243351923
20
150.7597488067
11
225.8258843030
21
150.7597488067
0
LINE
5
2B5
100
AcDbEntity
8
0
100
AcDbLine
62
7
6
CONTINUOUS
10
225.6907864031
20
151.2703870437
11
226.0289256786
21
151.2703870437
0
LINE
5
2B6
100
AcDbEntity
8
0
100
AcDbLine
62
7
6
CONTINUOUS
10
226.2847965686
20
151.2703870437
11
227.4911955048
21
151.2703870437
0
LINE
5
2B7
100
AcDbEntity
8
0
100
AcDbLine
62
7
6
CONTINUOUS
10
225.2427749809
20
151.5257061622
11
225.6907864031
21
151.5257061622
0
LINE
5
2B8
100
AcDbEntity
8
0
100
AcDbLine
62
7
6
CONTINUOUS
10
225.1939054234
20
151.7810252807
11
225.6940768384
21
151.7810252807
0
LINE
5
2B9
100
AcDbEntity
8
0
100
AcDbLine
62
7
6
CONTINUOUS
10
225.6907864031
20
152.2916635177
11
226.0289256786
21
152.2916635177
0
LINE
5
2BA
100
AcDbEntity
8
0
100
AcDbLine
62
7
6
CONTINUOUS
10
226.2847965686
20
152.2916635177
11
227.4911955048
21
152.2916635177
0
LINE
5
2BB
100
AcDbEntity
8
0
100
AcDbLine
62
7
6
CONTINUOUS
10
226.0289256786
20
154.3342171809
11
226.7967306581
21
154.3342171809
0
LINE
5
2BC
100
AcDbEntity
8
0
100
AcDbLine
62
7
6
CONTINUOUS
10
225.1776373293
20
154.8448554179
11
225.8912649450
21
154.8448554179
0
LINE
5
2BD
100
AcDbEntity
8
0
100
AcDbLine
62
7
6
CONTINUOUS
10
225.1776278919
20
156.1214510104
11
225.8912649450
21
156.1214510104
0
LINE
5
2BE
100
AcDbEntity
8
0
100
AcDbLine
62
7
6
CONTINUOUS
10
248.1776266151
20
203.2519526045
11
248.1776266151
21
228.7519526047
0
LINE
5
2BF
100
AcDbEntity
8
DEFAULT_1
100
AcDbLine
62
2
6
CENTER
10
330.6776266151
20
159.2519526045
11
302.4821731479
21
159.2519526045
0
LINE
5
2C0
100
AcDbEntity
8
DEFAULT_1
100
AcDbLine
62
2
6
CENTER
10
330.6776266151
20
159.2519526045
11
354.2338555312
21
159.2519526045
0
LINE
5
2C1
100
AcDbEntity
8
0
100
AcDbLine
62
7
6
CONTINUOUS
10
225.1797454427
20
166.4848890555
11
226.1271801820
21
166.4848890555
0
LINE
5
2C2
100
AcDbEntity
8
0
100
AcDbLine
62
7
6
CONTINUOUS
10
227.1258719662
20
166.4848890555
11
228.1899296765
21
166.4848890555
0
LINE
5
2C3
100
AcDbEntity
8
0
100
AcDbLine
62
7
6
CONTINUOUS
10
225.7621090515
20
166.7402081964
11
226.2683385601
21
166.7402081964
0
LINE
5
2C4
100
AcDbEntity
8
0
100
AcDbLine
62
7
6
CONTINUOUS
10
227.9909501469
20
166.7402081964
11
228.5224395676
21
166.7402081964
0
LINE
5
2C5
100
AcDbEntity
8
0
100
AcDbLine
62
7
6
CONTINUOUS
10
228.2699956814
20
167.2508465005
11
228.8048273336
21
167.2508465005
0
LINE
5
2C6
100
AcDbEntity
8
0
100
AcDbLine
62
7
6
CONTINUOUS
10
225.8878183676
20
167.5061656190
11
226.3954081547
21
167.5061656190
0
LINE
5
2C7
100
AcDbEntity
8
0
100
AcDbLine
62
7
6
CONTINUOUS
10
250.6776266151
20
194.7519526045
11
250.6776266151
21
194.2519526045
0
LINE
5
2C8
100
AcDbEntity
8
0
100
AcDbLine
62
7
6
CONTINUOUS
10
250.6776266151
20
124.2519526045
11
250.6776266151
21
123.7519526045
0
LINE
5
2C9
100
AcDbEntity
8
0
100
AcDbLine
62
7
6
CONTINUOUS
10
250.7276266151
20
202.7519526045
11
250.7276266151
21
203.2519526045
0
LINE
5
2CA
100
AcDbEntity
8
0
100
AcDbLine
62
7
6
CONTINUOUS
10
254.5649087907
20
228.7519526045
11
254.5649087907
21
228.9519526045
0
LINE
5
2CB
100
AcDbEntity
8
0
100
AcDbLine
62
7
6
CONTINUOUS
10
254.8126751328
20
228.7519526045
11
254.8126751328
21
228.9519526045
0
LINE
5
2CC
100
AcDbEntity
8
0
100
AcDbLine
62
7
6
CONTINUOUS
10
255.6385629398
20
228.7519526045
11
255.6385629398
21
228.9519526045
0
LINE
5
2CD
100
AcDbEntity
8
0
100
AcDbLine
62
7
6
CONTINUOUS
10
255.8863292819
20
228.7519526045
11
255.8863292819
21
228.9519526045
0
LINE
5
2CE
100
AcDbEntity
8
0
100
AcDbLine
62
7
6
CONTINUOUS
10
259.6776266151
20
56.7519526045
11
259.6776266151
21
115.7519526045
0
LINE
5
2CF
100
AcDbEntity
8
0
100
AcDbLine
62
7
6
CONTINUOUS
10
225.1797454427
20
168.0168039454
11
225.2179940247
21
168.0168039454
0
LINE
5
2D0
100
AcDbEntity
8
0
100
AcDbLine
62
7
6
CONTINUOUS
10
225.2782256542
20
168.0168039454
11
225.6488381372
21
168.0168039454
0
LINE
5
2D1
100
AcDbEntity
8
0
100
AcDbLine
62
7
6
CONTINUOUS
10
227.1258719662
20
168.0168039454
11
227.6623228608
21
168.0168039454
0
LINE
5
2D2
100
AcDbEntity
8
0
100
AcDbLine
62
7
6
CONTINUOUS
10
226.9096510174
20
168.2721230639
11
227.4285767243
21
168.2721230639
0
LINE
5
2D3
100
AcDbEntity
8
0
100
AcDbLine
62
7
6
CONTINUOUS
10
228.5636823350
20
168.2721230639
11
229.1020775631
21
168.2721230639
0
LINE
5
2D4
100
AcDbEntity
8
0
100
AcDbLine
62
7
6
CONTINUOUS
10
225.9903220824
20
168.5274421824
11
226.4494598611
21
168.5274421824
0
LINE
5
2D5
100
AcDbEntity
8
0
100
AcDbLine
62
7
6
CONTINUOUS
10
226.7562801198
20
168.7827614797
11
227.2734720053
21
168.7827614797
0
LINE
5
2D6
100
AcDbEntity
8
0
100
AcDbLine
62
7
6
CONTINUOUS
10
226.0260648480
20
169.2933997167
11
226.3835519370
21
169.2933997167
0
LINE
5
2D7
100
AcDbEntity
8
0
100
AcDbLine
62
7
6
CONTINUOUS
10
228.6394259513
20
169.2933997167
11
229.1787480116
21
169.2933997167
0
LINE
5
2D8
100
AcDbEntity
8
0
100
AcDbLine
62
7
6
CONTINUOUS
10
226.6581789908
20
169.5487188352
11
227.1742679630
21
169.5487188352
0
LINE
5
2D9
100
AcDbEntity
8
0
100
AcDbLine
62
7
6
CONTINUOUS
10
226.0260648480
20
170.5699953092
11
226.3406249558
21
170.5699953092
0
LINE
5
2DA
100
AcDbEntity
8
0
100
AcDbLine
62
7
6
CONTINUOUS
10
226.6103646703
20
170.5699953092
11
227.1259177974
21
170.5699953092
0
LINE
5
2DB
100
AcDbEntity
8
0
100
AcDbLine
62
7
6
CONTINUOUS
10
225.9903220824
20
171.3359530223
11
226.3406249558
21
171.3359530223
0
LINE
5
2DC
100
AcDbEntity
8
0
100
AcDbLine
62
7
6
CONTINUOUS
10
227.5992491920
20
171.5912721408
11
228.1988727838
21
171.5912721408
0
LINE
5
2DD
100
AcDbEntity
8
0
100
AcDbLine
62
7
6
CONTINUOUS
10
225.2782256542
20
171.8465912593
11
225.6488381372
21
171.8465912593
0
LINE
5
2DE
100
AcDbEntity
8
0
100
AcDbLine
62
7
6
CONTINUOUS
10
225.8878183676
20
172.3572294963
11
226.3406249558
21
172.3572294963
0
LINE
5
2DF
100
AcDbEntity
8
0
100
AcDbLine
62
7
6
CONTINUOUS
10
225.8234029863
20
172.6125486148
11
226.3302948289
21
172.6125486148
0
LINE
5
2E0
100
AcDbEntity
8
0
100
AcDbLine
62
7
6
CONTINUOUS
10
225.8878183676
20
172.8678677333
11
226.3406249558
21
172.8678677333
0
LINE
5
2E1
100
AcDbEntity
8
0
100
AcDbLine
62
7
6
CONTINUOUS
10
227.5992491920
20
173.1231868518
11
229.1787480116
21
173.1231868518
0
LINE
5
2E2
100
AcDbEntity
8
0
100
AcDbLine
62
7
6
CONTINUOUS
10
225.2782256542
20
173.3785059703
11
225.6488381372
21
173.3785059703
0
LINE
5
2E3
100
AcDbEntity
8
0
100
AcDbLine
62
7
6
CONTINUOUS
10
225.9903220824
20
173.8891442073
11
226.3406249558
21
173.8891442073
0
LINE
5
2E4
100
AcDbEntity
8
0
100
AcDbLine
62
7
6
CONTINUOUS
10
226.6103646703
20
174.3997824443
11
227.1259177974
21
174.3997824443
0
LINE
5
2E5
100
AcDbEntity
8
0
100
AcDbLine
62
7
6
CONTINUOUS
10
226.0260648480
20
174.6551015628
11
226.3491498096
21
174.6551015628
0
LINE
5
2E6
100
AcDbEntity
8
0
100
AcDbLine
62
7
6
CONTINUOUS
10
226.6581789908
20
175.4210589183
11
227.1742679630
21
175.4210589183
0
LINE
5
2E7
100
AcDbEntity
8
0
100
AcDbLine
62
7
6
CONTINUOUS
10
228.1988727838
20
175.4210589183
11
229.1787480116
21
175.4210589183
0
LINE
5
2E8
100
AcDbEntity
8
0
100
AcDbLine
62
7
6
CONTINUOUS
10
226.0260648480
20
175.6763787521
11
226.3835519370
21
175.6763787521
0
LINE
5
2E9
100
AcDbEntity
8
0
100
AcDbLine
62
7
6
CONTINUOUS
10
226.7562801198
20
176.1870169891
11
227.2734720053
21
176.1870169891
0
LINE
5
2EA
100
AcDbEntity
8
0
100
AcDbLine
62
7
6
CONTINUOUS
10
225.9903220824
20
176.4423361075
11
226.4494598572
21
176.4423361075
0
LINE
5
2EB
100
AcDbEntity
8
0
100
AcDbLine
62
7
6
CONTINUOUS
10
226.9096510174
20
176.6976552260
11
227.4285767243
21
176.6976552260
0
LINE
5
2EC
100
AcDbEntity
8
0
100
AcDbLine
62
7
6
CONTINUOUS
10
228.5636823350
20
176.6976552260
11
229.1020775631
21
176.6976552260
0
LINE
5
2ED
100
AcDbEntity
8
0
100
AcDbLine
62
7
6
CONTINUOUS
10
225.2782256542
20
176.9529743445
11
225.6488381372
21
176.9529743445
0
LINE
5
2EE
100
AcDbEntity
8
0
100
AcDbLine
62
7
6
CONTINUOUS
10
227.1258719662
20
176.9529743445
11
227.6623228608
21
176.9529743445
0
LINE
5
2EF
100
AcDbEntity
8
0
100
AcDbLine
62
7
6
CONTINUOUS
10
225.8878183676
20
177.4636125815
11
226.3954081547
21
177.4636125815
0
LINE
5
2F0
100
AcDbEntity
8
0
100
AcDbLine
62
7
6
CONTINUOUS
10
228.2699956814
20
177.7189317000
11
228.8048273336
21
177.7189317000
0
LINE
5
2F1
100
AcDbEntity
8
0
100
AcDbLine
62
7
6
CONTINUOUS
10
225.7621090515
20
178.2295699370
11
226.2683385601
21
178.2295699370
0
LINE
5
2F2
100
AcDbEntity
8
0
100
AcDbLine
62
7
6
CONTINUOUS
10
227.9909501469
20
178.2295699370
11
228.5224395676
21
178.2295699370
0
LINE
5
2F3
100
AcDbEntity
8
0
100
AcDbLine
62
7
6
CONTINUOUS
10
225.2179940247
20
178.4848890555
11
226.1271801820
21
178.4848890555
0
LINE
5
2F4
100
AcDbEntity
8
0
100
AcDbLine
62
7
6
CONTINUOUS
10
227.1258719662
20
178.4848890555
11
228.1899296765
21
178.4848890555
0
LINE
5
2F5
100
AcDbEntity
8
0
100
AcDbLine
62
2
6
CONTINUOUS
10
262.4381266151
20
115.7519526045
11
262.4381266151
21
52.7519526045
0
LINE
5
2F6
100
AcDbEntity
8
0
100
AcDbLine
62
7
6
CONTINUOUS
10
263.0403825099
20
228.7519526045
11
263.0403825099
21
228.9519526045
0
LINE
5
2F7
100
AcDbEntity
8
0
100
AcDbLine
62
7
6
CONTINUOUS
10
263.1757762253
20
228.7519526045
11
263.1757762253
21
228.9519526045
0
LINE
5
2F8
100
AcDbEntity
8
0
100
AcDbLine
62
7
6
CONTINUOUS
10
263.5088189932
20
228.7519526045
11
263.5088189932
21
228.9519526045
0
LINE
5
2F9
100
AcDbEntity
8
0
100
AcDbLine
62
7
6
CONTINUOUS
10
265.6315822255
20
228.7519526045
11
265.6315822255
21
228.9519526045
0
LINE
5
2FA
100
AcDbEntity
8
0
100
AcDbLine
62
7
6
CONTINUOUS
10
268.4370787678
20
228.7519526045
11
268.4370787678
21
228.9519526045
0
LINE
5
2FB
100
AcDbEntity
8
0
100
AcDbLine
62
7
6
CONTINUOUS
10
269.0728751829
20
228.7519526045
11
269.0728751829
21
228.9519526045
0
LINE
5
2FC
100
AcDbEntity
8
0
100
AcDbLine
62
7
6
CONTINUOUS
10
271.1531461024
20
228.7519526045
11
271.1531461024
21
228.9519526045
0
LINE
5
2FD
100
AcDbEntity
8
0
100
AcDbLine
62
7
6
CONTINUOUS
10
271.5275343914
20
228.7519526045
11
271.5275343914
21
228.9519526045
0
LINE
5
2FE
100
AcDbEntity
8
0
100
AcDbLine
62
7
6
CONTINUOUS
10
271.6160608432
20
228.7519526045
11
271.6160608432
21
228.9519526045
0
LINE
5
2FF
100
AcDbEntity
8
0
100
AcDbLine
62
7
6
CONTINUOUS
10
272.2518575615
20
228.7519526045
11
272.2518575615
21
228.9519526045
0
LINE
5
300
100
AcDbEntity
8
0
100
AcDbLine
62
7
6
CONTINUOUS
10
274.3321284810
20
228.7519526045
11
274.3321284810
21
228.9519526045
0
LINE
5
301
100
AcDbEntity
8
0
100
AcDbLine
62
7
6
CONTINUOUS
10
274.5616897319
20
228.7519526045
11
274.5616897319
21
228.9519526045
0
LINE
5
302
100
AcDbEntity
8
0
100
AcDbLine
62
7
6
CONTINUOUS
10
274.6181795572
20
228.7519526045
11
274.6181795572
21
228.9519526045
0
LINE
5
303
100
AcDbEntity
8
0
100
AcDbLine
62
7
6
CONTINUOUS
10
274.7384278018
20
228.7519526045
11
274.7384278018
21
228.9519526045
0
LINE
5
304
100
AcDbEntity
8
0
100
AcDbLine
62
7
6
CONTINUOUS
10
274.9913197673
20
228.7519526045
11
274.9913197673
21
228.9519526045
0
LINE
5
305
100
AcDbEntity
8
0
100
AcDbLine
62
7
6
CONTINUOUS
10
275.5418013625
20
228.7519526045
11
275.5418013625
21
228.9519526045
0
LINE
5
306
100
AcDbEntity
8
0
100
AcDbLine
62
7
6
CONTINUOUS
10
275.6961930408
20
228.7519526045
11
275.6961930408
21
228.9519526045
0
LINE
5
307
100
AcDbEntity
8
0
100
AcDbLine
62
7
6
CONTINUOUS
10
275.7493791638
20
228.7519526045
11
275.7493791638
21
228.9519526045
0
LINE
5
308
100
AcDbEntity
8
0
100
AcDbLine
62
7
6
CONTINUOUS
10
276.0110803258
20
228.7519526045
11
276.0110803258
21
228.9519526045
0
LINE
5
309
100
AcDbEntity
8
0
100
AcDbLine
62
7
6
CONTINUOUS
10
276.4076815834
20
228.7519526045
11
276.4076815834
21
228.9519526045
0
LINE
5
30A
100
AcDbEntity
8
0
100
AcDbLine
62
7
6
CONTINUOUS
10
276.9596117572
20
228.7519526045
11
276.9596117572
21
228.9519526045
0
LINE
5
30B
100
AcDbEntity
8
0
100
AcDbLine
62
7
6
CONTINUOUS
10
279.7069328342
20
228.7519526045
11
279.7069328342
21
228.9519526045
0
LINE
5
30C
100
AcDbEntity
8
0
100
AcDbLine
62
7
6
CONTINUOUS
10
280.6670721260
20
228.7519526045
11
280.6670721260
21
228.9519526045
0
LINE
5
30D
100
AcDbEntity
8
DEFAULT_1
100
AcDbLine
62
2
6
CENTER
10
280.6776266151
20
203.2519526045
11
280.6776266151
21
49.7519526045
0
LINE
5
30E
100
AcDbEntity
8
0
100
AcDbLine
62
7
6
CONTINUOUS
10
280.6776266151
20
203.2519526045
11
280.6776266151
21
225.8491696865
0
LINE
5
30F
100
AcDbEntity
8
0
100
AcDbLine
62
7
6
CONTINUOUS
10
316.3249726537
20
194.2519526045
11
228.1776266184
21
194.2519526045
0
LINE
5
310
100
AcDbEntity
8
0
100
AcDbLine
62
7
6
CONTINUOUS
10
238.1776266151
20
194.7519526045
11
316.3249726537
21
194.7519526045
0
LINE
5
311
100
AcDbEntity
8
0
100
AcDbLine
62
7
6
CONTINUOUS
10
238.1776266151
20
202.7519526045
11
316.3249726537
21
202.7519526045
0
LINE
5
312
100
AcDbEntity
8
0
100
AcDbLine
62
7
6
CONTINUOUS
10
248.1776266151
20
203.2519526045
11
313.1776266151
21
203.2519526045
0
LINE
5
313
100
AcDbEntity
8
0
100
AcDbLine
62
2
6
CONTINUOUS
10
298.9171266151
20
115.7519526045
11
298.9171266151
21
52.7519526045
0
LINE
5
314
100
AcDbEntity
8
0
100
AcDbLine
62
7
6
CONTINUOUS
10
301.6776266151
20
56.7519526045
11
301.6776266151
21
115.7519526045
0
LINE
5
315
100
AcDbEntity
8
0
100
AcDbLine
62
7
6
CONTINUOUS
10
312.7083907032
20
156.7894673212
11
312.7077578665
21
156.7996239782
0
LINE
5
316
100
AcDbEntity
8
0
100
AcDbLine
62
7
6
CONTINUOUS
10
310.6276266151
20
202.7519526045
11
310.6276266151
21
203.2519526045
0
LINE
5
317
100
AcDbEntity
8
0
100
AcDbLine
62
7
6
CONTINUOUS
10
310.6776266151
20
194.7519526045
11
310.6776266151
21
194.2519526045
0
LINE
5
318
100
AcDbEntity
8
0
100
AcDbLine
62
7
6
CONTINUOUS
10
310.6776266151
20
124.2519526045
11
310.6776266151
21
123.7519526045
0
LINE
5
319
100
AcDbEntity
8
0
100
AcDbLine
62
7
6
CONTINUOUS
10
312.6776266151
20
356.2904381353
11
312.6776266151
21
355.2519526045
0
LINE
5
31A
100
AcDbEntity
8
0
100
AcDbLine
62
7
6
CONTINUOUS
10
312.6776266151
20
157.7648487194
11
312.6776266151
21
164.6298854366
0
LINE
5
31B
100
AcDbEntity
8
0
100
AcDbLine
62
7
6
CONTINUOUS
10
313.1776266151
20
203.2519526045
11
313.1776266151
21
228.7519526047
0
LINE
5
31C
100
AcDbEntity
8
0
100
AcDbLine
62
7
6
CONTINUOUS
10
316.3249726537
20
189.2519526045
11
316.3249726537
21
218.5310530875
0
LINE
5
31D
100
AcDbEntity
8
0
100
AcDbLine
62
7
6
CONTINUOUS
10
316.6776266151
20
316.2511547605
11
316.6776266151
21
287.4473149935
0
LINE
5
31E
100
AcDbEntity
8
0
100
AcDbLine
62
7
6
CONTINUOUS
10
317.1776266151
20
227.4477305929
11
317.1776266151
21
239.4477305929
0
LINE
5
31F
100
AcDbEntity
8
0
100
AcDbLine
62
7
6
CONTINUOUS
10
317.1776266151
20
245.4769297491
11
317.1776266151
21
257.4769297491
0
LINE
5
320
100
AcDbEntity
8
0
100
AcDbLine
62
7
6
CONTINUOUS
10
317.1776266151
20
263.2022659982
11
317.1776266151
21
275.2022659982
0
LINE
5
321
100
AcDbEntity
8
0
100
AcDbLine
62
7
6
CONTINUOUS
10
317.6776266151
20
221.8963199329
11
317.6776266151
21
284.4875852761
0
LINE
5
322
100
AcDbEntity
8
0
100
AcDbLine
62
7
6
CONTINUOUS
10
317.6776266151
20
227.4477305929
11
317.1776266151
21
227.4477305929
0
LINE
5
323
100
AcDbEntity
8
0
100
AcDbLine
62
7
6
CONTINUOUS
10
317.6776266151
20
227.7030497338
11
317.1776266151
21
227.7030497338
0
LINE
5
324
100
AcDbEntity
8
0
100
AcDbLine
62
7
6
CONTINUOUS
10
317.6776266151
20
228.2136880378
11
317.1776266151
21
228.2136880378
0
LINE
5
325
100
AcDbEntity
8
0
100
AcDbLine
62
7
6
CONTINUOUS
10
248.1776266151
20
228.7519526045
11
313.1776266152
21
228.7519526045
0
LINE
5
326
100
AcDbEntity
8
0
100
AcDbLine
62
7
6
CONTINUOUS
10
254.5649087907
20
228.9519526045
11
274.6181795572
21
228.9519526045
0
LINE
5
327
100
AcDbEntity
8
0
100
AcDbLine
62
7
6
CONTINUOUS
10
274.7384278018
20
228.9519526045
11
275.5418013625
21
228.9519526045
0
LINE
5
328
100
AcDbEntity
8
0
100
AcDbLine
62
7
6
CONTINUOUS
10
275.6961930408
20
228.9519526045
11
280.6670721260
21
228.9519526045
0
LINE
5
329
100
AcDbEntity
8
0
100
AcDbLine
62
7
6
CONTINUOUS
10
317.6776266151
20
229.2349646012
11
317.1776266151
21
229.2349646012
0
LINE
5
32A
100
AcDbEntity
8
0
100
AcDbLine
62
7
6
CONTINUOUS
10
317.6776266151
20
230.2562412541
11
317.1776266151
21
230.2562412541
0
LINE
5
32B
100
AcDbEntity
8
0
100
AcDbLine
62
7
6
CONTINUOUS
10
317.6776266151
20
231.5328368465
11
317.1776266151
21
231.5328368465
0
LINE
5
32C
100
AcDbEntity
8
0
100
AcDbLine
62
7
6
CONTINUOUS
10
317.6776266151
20
235.3626239817
11
317.1776266151
21
235.3626239817
0
LINE
5
32D
100
AcDbEntity
8
0
100
AcDbLine
62
7
6
CONTINUOUS
10
317.6776266151
20
236.6392202894
11
317.1776266151
21
236.6392202894
0
LINE
5
32E
100
AcDbEntity
8
0
100
AcDbLine
62
7
6
CONTINUOUS
10
317.6776266151
20
237.6604967634
11
317.1776266151
21
237.6604967634
0
LINE
5
32F
100
AcDbEntity
8
0
100
AcDbLine
62
7
6
CONTINUOUS
10
312.7762324985
20
353.3704402657
11
316.6776266151
21
316.2511547605
0
LINE
5
330
100
AcDbEntity
8
0
100
AcDbLine
62
7
6
CONTINUOUS
10
323.1776266151
20
123.7519526045
11
323.1776266151
21
115.7519526045
0
LINE
5
331
100
AcDbEntity
8
DEFAULT_1
100
AcDbLine
62
2
6
CENTER
10
330.6776266151
20
159.2519526045
11
330.6776266151
21
136.3557249963
0
LINE
5
332
100
AcDbEntity
8
DEFAULT_1
100
AcDbLine
62
2
6
CENTER
10
330.6776266151
20
159.2519526045
11
330.6776266151
21
178.5237624938
0
LINE
5
333
100
AcDbEntity
8
0
100
AcDbLine
62
7
6
CONTINUOUS
10
317.6776266151
20
238.6817732374
11
317.1776266151
21
238.6817732374
0
LINE
5
334
100
AcDbEntity
8
0
100
AcDbLine
62
7
6
CONTINUOUS
10
317.6776266151
20
239.1924114744
11
317.1776266151
21
239.1924114744
0
LINE
5
335
100
AcDbEntity
8
0
100
AcDbLine
62
7
6
CONTINUOUS
10
317.6776266151
20
239.4477305929
11
317.1776266151
21
239.4477305929
0
LINE
5
336
100
AcDbEntity
8
0
100
AcDbLine
62
7
6
CONTINUOUS
10
317.6776266151
20
245.4769297491
11
317.1776266151
21
245.4769297491
0
LINE
5
337
100
AcDbEntity
8
0
100
AcDbLine
62
7
6
CONTINUOUS
10
317.6776266151
20
245.7322488900
11
317.1776266151
21
245.7322488900
0
LINE
5
338
100
AcDbEntity
8
0
100
AcDbLine
62
7
6
CONTINUOUS
10
317.6776266151
20
246.2428871940
11
317.1776266151
21
246.2428871940
0
LINE
5
339
100
AcDbEntity
8
0
100
AcDbLine
62
7
6
CONTINUOUS
10
317.6776266151
20
247.2641637574
11
317.1776266151
21
247.2641637574
0
LINE
5
33A
100
AcDbEntity
8
0
100
AcDbLine
62
7
6
CONTINUOUS
10
317.6776266151
20
248.2854404103
11
317.1776266151
21
248.2854404103
0
LINE
5
33B
100
AcDbEntity
8
0
100
AcDbLine
62
7
6
CONTINUOUS
10
348.5790207318
20
353.3704402657
11
344.6776266151
21
316.2511547605
0
LINE
5
33C
100
AcDbEntity
8
0
100
AcDbLine
62
7
6
CONTINUOUS
10
317.6776266151
20
249.5620360028
11
317.1776266151
21
249.5620360028
0
LINE
5
33D
100
AcDbEntity
8
0
100
AcDbLine
62
7
6
CONTINUOUS
10
317.6776266151
20
257.4769297491
11
317.1776266151
21
257.4769297491
0
LINE
5
33E
100
AcDbEntity
8
0
100
AcDbLine
62
7
6
CONTINUOUS
10
343.6776266151
20
221.8963199329
11
343.6776266151
21
284.4875852761
0
LINE
5
33F
100
AcDbEntity
8
0
100
AcDbLine
62
7
6
CONTINUOUS
10
344.6776266151
20
316.2511547605
11
344.6776266151
21
287.4473149935
0
LINE
5
340
100
AcDbEntity
8
0
100
AcDbLine
62
7
6
CONTINUOUS
10
345.0302805766
20
218.5310530875
11
345.0302805766
21
189.2519526045
0
LINE
5
341
100
AcDbEntity
8
0
100
AcDbLine
62
7
6
CONTINUOUS
10
348.6776266151
20
356.2904353317
11
348.6776266151
21
355.2519526045
0
LINE
5
342
100
AcDbEntity
8
0
100
AcDbLine
62
7
6
CONTINUOUS
10
348.6776266151
20
157.7648487194
11
348.6776266151
21
164.6298854366
0
LINE
5
343
100
AcDbEntity
8
0
100
AcDbLine
62
7
6
CONTINUOUS
10
348.6468625271
20
156.7894673212
11
348.6474953638
21
156.7996239782
0
LINE
5
344
100
AcDbEntity
8
0
100
AcDbLine
62
7
6
CONTINUOUS
10
317.6776266151
20
263.2022659982
11
317.1776266151
21
263.2022659982
0
LINE
5
345
100
AcDbEntity
8
0
100
AcDbLine
62
7
6
CONTINUOUS
10
317.6776266151
20
269.0746064390
11
317.1776266151
21
269.0746064390
0
LINE
5
346
100
AcDbEntity
8
0
100
AcDbLine
62
7
6
CONTINUOUS
10
317.6776266151
20
269.5852446760
11
317.1776266151
21
269.5852446760
0
LINE
5
347
100
AcDbEntity
8
0
100
AcDbLine
62
7
6
CONTINUOUS
10
317.6776266151
20
270.6065211500
11
317.1776266151
21
270.6065211500
0
LINE
5
348
100
AcDbEntity
8
0
100
AcDbLine
62
7
6
CONTINUOUS
10
317.6776266151
20
271.3724785055
11
317.1776266151
21
271.3724785055
0
LINE
5
349
100
AcDbEntity
8
0
100
AcDbLine
62
7
6
CONTINUOUS
10
317.6776266151
20
272.3937556947
11
317.1776266151
21
272.3937556947
0
LINE
5
34A
100
AcDbEntity
8
0
100
AcDbLine
62
7
6
CONTINUOUS
10
317.6776266151
20
273.1597130502
11
317.1776266151
21
273.1597130502
0
LINE
5
34B
100
AcDbEntity
8
0
100
AcDbLine
62
7
6
CONTINUOUS
10
317.6776266151
20
274.1809895242
11
317.1776266151
21
274.1809895242
0
LINE
5
34C
100
AcDbEntity
8
0
100
AcDbLine
62
7
6
CONTINUOUS
10
317.6776266151
20
274.9469468797
11
317.1776266151
21
274.9469468797
0
LINE
5
34D
100
AcDbEntity
8
0
100
AcDbLine
62
7
6
CONTINUOUS
10
317.6776266151
20
275.2022659982
11
317.1776266151
21
275.2022659982
0
LINE
5
34E
100
AcDbEntity
8
0
100
AcDbLine
62
7
6
CONTINUOUS
10
297.6776266151
20
52.7519526045
11
301.6776266151
21
56.7519526045
0
LINE
5
34F
100
AcDbEntity
8
0
100
AcDbLine
62
7
6
CONTINUOUS
10
331.6783901489
20
373.2519526045
11
329.6768630814
21
373.2519526045
0
LINE
5
350
100
AcDbEntity
8
0
100
AcDbLine
62
7
6
CONTINUOUS
10
37.2142302163
20
-91.2426585208
11
36.5396256808
21
-90.0742091904
0
LINE
5
351
100
AcDbEntity
8
0
100
AcDbLine
62
7
6
CONTINUOUS
10
33.0188218214
20
-81.0263719538
11
33.0188218214
21
-77.9589450877
0
LINE
5
352
100
AcDbEntity
8
0
100
AcDbLine
62
7
6
CONTINUOUS
10
66.0188218214
20
-114.4926585208
11
156.0188218214
21
-114.4926585208
0
LINE
5
353
100
AcDbEntity
8
0
100
AcDbLine
62
7
6
CONTINUOUS
10
160.5372918975
20
-96.4230159035
11
158.5188218214
21
-96.7789266377
0
LINE
5
354
100
AcDbEntity
8
0
100
AcDbLine
62
7
6
CONTINUOUS
10
165.9457459606
20
-96.1077565157
11
165.9456238914
21
-96.1077641751
0
LINE
5
355
100
AcDbEntity
8
0
100
AcDbLine
62
7
6
CONTINUOUS
10
56.0918976822
20
-96.1077565157
11
56.0920197991
21
-96.1077641781
0
LINE
5
356
100
AcDbEntity
8
0
100
AcDbLine
62
7
6
CONTINUOUS
10
63.5188218214
20
-96.7789266377
11
61.5003517453
21
-96.4230159035
0
LINE
5
357
100
AcDbEntity
8
0
100
AcDbLine
62
7
6
CONTINUOUS
10
37.2142302163
20
-67.7426585208
11
36.5397959649
21
-68.9108129105
0
LINE
5
358
100
AcDbEntity
8
0
100
AcDbLine
62
7
6
CONTINUOUS
10
130.8914859840
20
-97.4801207989
11
130.8912885620
21
-97.4801241505
0
LINE
5
359
100
AcDbEntity
8
0
100
AcDbLine
62
7
6
CONTINUOUS
10
92.6787513761
20
-97.4926585208
11
129.3588922667
21
-97.4926585208
0
LINE
5
35A
100
AcDbEntity
8
0
100
AcDbLine
62
7
6
CONTINUOUS
10
39.4312244663
20
-92.4926585208
11
39.3792937257
21
-92.4926585208
0
LINE
5
35B
100
AcDbEntity
8
0
100
AcDbLine
62
7
6
CONTINUOUS
10
182.6064366015
20
-92.4926585208
11
182.6583499171
21
-92.4926585208
0
LINE
5
35C
100
AcDbEntity
8
0
100
AcDbLine
62
7
6
CONTINUOUS
10
91.1461576588
20
-97.4801207989
11
91.1463550808
21
-97.4801241505
0
LINE
5
35D
100
AcDbEntity
8
0
100
AcDbLine
62
7
6
CONTINUOUS
10
63.5188218214
20
-111.9922750191
11
63.5188218214
21
-96.5310400128
0
LINE
5
35E
100
AcDbEntity
8
0
100
AcDbLine
62
7
6
CONTINUOUS
10
63.5188218214
20
-62.4542770288
11
63.5188218214
21
-21.9926585208
0
LINE
5
35F
100
AcDbEntity
8
0
100
AcDbLine
62
7
6
CONTINUOUS
10
92.2549380727
20
3.0073414792
11
73.4910543241
21
-29.4926585208
0
LINE
5
360
100
AcDbEntity
8
0
100
AcDbLine
62
7
6
CONTINUOUS
10
91.2095091244
20
-12.3238508989
11
89.4341337452
21
-14.4466141311
0
LINE
5
361
100
AcDbEntity
8
0
100
AcDbLine
62
7
6
CONTINUOUS
10
90.6613799817
20
-14.5711227805
11
91.9929115160
21
-12.9790503563
0
LINE
5
362
100
AcDbEntity
8
0
100
AcDbLine
62
7
6
CONTINUOUS
10
91.7099463425
20
-11.9908081310
11
91.2095091244
21
-12.3238508989
0
LINE
5
363
100
AcDbEntity
8
0
100
AcDbLine
62
7
6
CONTINUOUS
10
91.9929115160
20
-12.9790503563
11
92.4193741956
21
-12.7344567313
0
LINE
5
364
100
AcDbEntity
8
0
100
AcDbLine
62
7
6
CONTINUOUS
10
85.0674664144
20
-25.7746436628
11
84.7353393652
21
-28.5219647399
0
LINE
5
365
100
AcDbEntity
8
0
100
AcDbLine
62
7
6
CONTINUOUS
10
85.6632831858
20
-27.9372769363
11
85.9262170866
21
-25.7623145261
0
LINE
5
366
100
AcDbEntity
8
0
100
AcDbLine
62
7
6
CONTINUOUS
10
87.7499421769
20
-17.2521106734
11
87.4771913549
21
-17.8879070885
0
LINE
5
367
100
AcDbEntity
8
0
100
AcDbLine
62
7
6
CONTINUOUS
10
86.3861880671
20
-20.4310927489
11
86.1134371151
21
-21.0668894671
0
LINE
5
368
100
AcDbEntity
8
0
100
AcDbLine
62
7
6
CONTINUOUS
10
85.3056419745
20
-25.2227134891
11
85.0674664144
21
-25.7746436628
0
LINE
5
369
100
AcDbEntity
8
0
100
AcDbLine
62
7
6
CONTINUOUS
10
85.9262170866
20
-25.7623145261
11
86.1367153795
21
-25.4393278846
0
LINE
5
36A
100
AcDbEntity
8
0
100
AcDbLine
62
7
6
CONTINUOUS
10
96.5627594408
20
-16.8010477270
11
95.2312279065
21
-18.3931201512
0
LINE
5
36B
100
AcDbEntity
8
0
100
AcDbLine
62
7
6
CONTINUOUS
10
95.5707865448
20
-19.5790104932
11
97.3461619239
21
-17.4562472609
0
LINE
5
36C
100
AcDbEntity
8
0
100
AcDbLine
62
7
6
CONTINUOUS
10
93.2542572637
20
-22.1227584721
11
92.9159971192
21
-22.4795168402
0
LINE
5
36D
100
AcDbEntity
8
0
100
AcDbLine
62
7
6
CONTINUOUS
10
85.8679437046
20
-24.8261122315
11
85.3056419745
21
-25.2227134891
0
LINE
5
36E
100
AcDbEntity
8
0
100
AcDbLine
62
7
6
CONTINUOUS
10
119.2528778517
20
-5.1088106562
11
118.5722722969
21
-5.5703916371
0
LINE
5
36F
100
AcDbEntity
8
0
100
AcDbLine
62
7
6
CONTINUOUS
10
86.1367153795
20
-25.4393278846
11
86.5023574701
21
-25.2512413387
0
LINE
5
370
100
AcDbEntity
8
0
100
AcDbLine
62
7
6
CONTINUOUS
10
119.1518437747
20
-5.9847578679
11
119.5992506942
21
-5.7966778674
0
LINE
5
371
100
AcDbEntity
8
0
100
AcDbLine
62
7
6
CONTINUOUS
10
88.4609537351
20
-26.0687419804
11
88.1980198344
21
-28.2437043905
0
LINE
5
372
100
AcDbEntity
8
0
100
AcDbLine
62
7
6
CONTINUOUS
10
89.2119143044
20
-28.3662753494
11
89.4471709577
21
-26.4202563077
0
LINE
5
373
100
AcDbEntity
8
0
100
AcDbLine
62
7
6
CONTINUOUS
10
96.7280879899
20
-16.3380542827
11
96.5627594408
21
-16.8010477270
0
LINE
5
374
100
AcDbEntity
8
0
100
AcDbLine
62
7
6
CONTINUOUS
10
93.4360912317
20
-21.6988939933
11
93.2542572637
21
-22.1227584721
0
LINE
5
375
100
AcDbEntity
8
0
100
AcDbLine
62
7
6
CONTINUOUS
10
94.1928159927
20
-22.5253915458
11
94.3746499607
21
-22.1015270669
0
LINE
5
376
100
AcDbEntity
8
0
100
AcDbLine
62
7
6
CONTINUOUS
10
97.3461619239
20
-17.4562472609
11
97.5854650001
21
-16.9048046643
0
LINE
5
377
100
AcDbEntity
8
0
100
AcDbLine
62
7
6
CONTINUOUS
10
113.7864438407
20
-3.4251098743
11
110.6251458240
21
-7.7592931706
0
LINE
5
378
100
AcDbEntity
8
0
100
AcDbLine
62
7
6
CONTINUOUS
10
111.4291468638
20
-7.8303740039
11
113.6665250302
21
-4.7815212135
0
LINE
5
379
100
AcDbEntity
8
0
100
AcDbLine
62
7
6
CONTINUOUS
10
93.8090972775
20
-22.9881161792
11
94.1928159927
21
-22.5253915458
0
LINE
5
37A
100
AcDbEntity
8
0
100
AcDbLine
62
7
6
CONTINUOUS
10
118.7484900736
20
-6.3736526272
11
119.1518437747
21
-5.9847578679
0
LINE
5
37B
100
AcDbEntity
8
0
100
AcDbLine
62
7
6
CONTINUOUS
10
120.7264730307
20
-8.2619084840
11
116.1513671746
21
-11.0186550557
0
LINE
5
37C
100
AcDbEntity
8
0
100
AcDbLine
62
7
6
CONTINUOUS
10
117.0081954089
20
-11.3603370200
11
121.0728434218
21
-8.9497747177
0
LINE
5
37D
100
AcDbEntity
8
0
100
AcDbLine
62
7
6
CONTINUOUS
10
93.3144103953
20
-23.2777696316
11
93.8090972775
21
-22.9881161792
0
LINE
5
37E
100
AcDbEntity
8
0
100
AcDbLine
62
7
6
CONTINUOUS
10
92.9159971192
20
-22.4795168402
11
92.4667687255
21
-22.6632039919
0
LINE
5
37F
100
AcDbEntity
8
0
100
AcDbLine
62
7
6
CONTINUOUS
10
86.5853892324
20
-24.5644110694
11
85.8679437046
21
-24.8261122315
0
LINE
5
380
100
AcDbEntity
8
0
100
AcDbLine
62
7
6
CONTINUOUS
10
39.4312070413
20
-66.4926585208
11
39.3792937257
21
-66.4926585208
0
LINE
5
381
100
AcDbEntity
8
0
100
AcDbLine
62
7
6
CONTINUOUS
10
182.6064191765
20
-66.4926585208
11
182.6583499171
21
-66.4926585208
0
LINE
5
382
100
AcDbEntity
8
0
100
AcDbLine
62
7
6
CONTINUOUS
10
73.4910543241
20
-29.4926585208
11
91.9678450426
21
-61.4953988060
0
LINE
5
383
100
AcDbEntity
8
0
100
AcDbLine
62
7
6
CONTINUOUS
10
93.1205347070
20
22.5455421430
11
93.1205347070
21
22.0062200827
0
LINE
5
384
100
AcDbEntity
8
0
100
AcDbLine
62
7
6
CONTINUOUS
10
93.3101805476
20
22.6212857594
11
93.3101805476
21
22.0828905312
0
LINE
5
385
100
AcDbEntity
8
0
100
AcDbLine
62
7
6
CONTINUOUS
10
94.0687573992
20
22.9149724130
11
94.0687573992
21
22.3801407608
0
LINE
5
386
100
AcDbEntity
8
0
100
AcDbLine
62
7
6
CONTINUOUS
10
94.8273342508
20
23.1940179475
11
94.8273342508
21
22.6625285267
0
LINE
5
387
100
AcDbEntity
8
0
100
AcDbLine
62
7
6
CONTINUOUS
10
95.7755569430
20
23.5226452335
11
95.7755569430
21
22.9950384179
0
LINE
5
388
100
AcDbEntity
8
0
100
AcDbLine
62
7
6
CONTINUOUS
10
97.4823564868
20
24.0590961281
11
97.4823564868
21
23.5377061411
0
LINE
5
389
100
AcDbEntity
8
0
100
AcDbLine
62
7
6
CONTINUOUS
10
93.4614987631
20
-21.2079240100
11
93.4360912317
21
-21.6988939933
0
LINE
5
38A
100
AcDbEntity
8
0
100
AcDbLine
62
7
6
CONTINUOUS
10
97.5854650001
20
-16.9048046643
11
97.6202264496
21
-16.3326112818
0
LINE
5
38B
100
AcDbEntity
8
0
100
AcDbLine
62
7
6
CONTINUOUS
10
94.3746499607
20
-22.1015270669
11
94.4455157754
21
-21.5045914128
0
LINE
5
38C
100
AcDbEntity
8
0
100
AcDbLine
62
7
6
CONTINUOUS
10
92.6775136607
20
-29.4821040317
11
92.7605454230
21
-28.7952737624
0
LINE
5
38D
100
AcDbEntity
8
0
100
AcDbLine
62
7
6
CONTINUOUS
10
93.1065110861
20
-25.9334810830
11
93.2033815018
21
-25.1321788839
0
LINE
5
38E
100
AcDbEntity
8
0
100
AcDbLine
62
7
6
CONTINUOUS
10
104.0906185911
20
-17.4926585208
11
97.1624153609
21
-29.4926585208
0
LINE
5
38F
100
AcDbEntity
8
0
100
AcDbLine
62
7
6
CONTINUOUS
10
118.5722722969
20
-5.5703916371
11
118.2129742658
21
-6.1601021327
0
LINE
5
390
100
AcDbEntity
8
0
100
AcDbLine
62
7
6
CONTINUOUS
10
121.1928727526
20
-7.7149075008
11
120.7264730307
21
-8.2619084840
0
LINE
5
391
100
AcDbEntity
8
0
100
AcDbLine
62
7
6
CONTINUOUS
10
121.0728434218
20
-8.9497747177
11
121.4761971228
21
-8.5608799585
0
LINE
5
392
100
AcDbEntity
8
0
100
AcDbLine
62
7
6
CONTINUOUS
10
130.4129519322
20
-16.9998604163
11
129.0556864541
21
-17.7102075877
0
LINE
5
393
100
AcDbEntity
8
0
100
AcDbLine
62
7
6
CONTINUOUS
10
129.4738289307
20
-18.1420794267
11
130.5294798581
21
-17.5895871823
0
LINE
5
394
100
AcDbEntity
8
0
100
AcDbLine
62
7
6
CONTINUOUS
10
130.5294798581
20
-17.5895871823
11
131.4877895713
21
-17.2181803913
0
LINE
5
395
100
AcDbEntity
8
0
100
AcDbLine
62
7
6
CONTINUOUS
10
130.8639661030
20
-20.7982245762
11
129.9056561785
21
-21.1696314778
0
LINE
5
396
100
AcDbEntity
8
0
100
AcDbLine
62
7
6
CONTINUOUS
10
131.2204543701
20
-16.7073810888
11
130.4129519322
21
-16.9998604163
0
LINE
5
397
100
AcDbEntity
8
0
100
AcDbLine
62
7
6
CONTINUOUS
10
130.1729913797
20
-21.6804307803
11
130.9804940289
21
-21.3879513422
0
LINE
5
398
100
AcDbEntity
8
0
100
AcDbLine
62
7
6
CONTINUOUS
10
129.1332681818
20
-23.5534597074
11
128.3206456825
21
-23.8063516729
0
LINE
5
399
100
AcDbEntity
8
0
100
AcDbLine
62
7
6
CONTINUOUS
10
128.4919581587
20
-24.3568332681
11
129.3045806580
21
-24.1039413026
0
LINE
5
39A
100
AcDbEntity
8
0
100
AcDbLine
62
7
6
CONTINUOUS
10
56.0918976822
20
-62.8775605258
11
56.0920197514
21
-62.8775528665
0
LINE
5
39B
100
AcDbEntity
8
0
100
AcDbLine
62
7
6
CONTINUOUS
10
91.1461576588
20
-61.5051962427
11
91.1463550808
21
-61.5051928911
0
LINE
5
39C
100
AcDbEntity
8
0
100
AcDbLine
62
7
6
CONTINUOUS
10
129.3588922667
20
-61.4926585208
11
92.6787513761
21
-61.4926585208
0
LINE
5
39D
100
AcDbEntity
8
0
100
AcDbLine
62
7
6
CONTINUOUS
10
130.8914859840
20
-61.5051962427
11
130.8912885620
21
-61.5051928911
0
LINE
5
39E
100
AcDbEntity
8
0
100
AcDbLine
62
7
6
CONTINUOUS
10
165.9457459606
20
-62.8775605258
11
165.9456238437
21
-62.8775528635
0
LINE
5
39F
100
AcDbEntity
8
0
100
AcDbLine
62
7
6
CONTINUOUS
10
88.3334872046
20
-25.7048983526
11
88.4609537351
21
-26.0687419804
0
LINE
5
3A0
100
AcDbEntity
8
0
100
AcDbLine
62
7
6
CONTINUOUS
10
96.6888756903
20
-15.8543089831
11
96.7280879899
21
-16.3380542827
0
LINE
5
3A1
100
AcDbEntity
8
0
100
AcDbLine
62
7
6
CONTINUOUS
10
98.4305791790
20
24.3272739832
11
98.4305791790
21
23.8089369446
0
LINE
5
3A2
100
AcDbEntity
8
0
100
AcDbLine
62
7
6
CONTINUOUS
10
99.1891560306
20
24.5267891036
11
99.1891560306
21
24.0107001314
0
LINE
5
3A3
100
AcDbEntity
8
0
100
AcDbLine
62
7
6
CONTINUOUS
10
99.9477328822
20
24.7131333010
11
99.9477328822
21
24.1991263516
0
LINE
5
3A4
100
AcDbEntity
8
0
100
AcDbLine
62
7
6
CONTINUOUS
10
100.3270223932
20
24.8014161574
11
100.3270223932
21
24.2883897062
0
LINE
5
3A5
100
AcDbEntity
8
0
100
AcDbLine
62
7
6
CONTINUOUS
10
100.5166660635
20
24.8443431385
11
100.5166660635
21
24.3317920905
0
LINE
5
3A6
100
AcDbEntity
8
0
100
AcDbLine
62
7
6
CONTINUOUS
10
100.7688222982
20
24.9001715258
11
100.7688222982
21
24.3882374362
0
LINE
5
3A7
100
AcDbEntity
8
0
100
AcDbLine
62
7
6
CONTINUOUS
10
102.0188218214
20
25.1560424157
11
102.0188218214
21
24.6469169490
0
LINE
5
3A8
100
AcDbEntity
8
0
100
AcDbLine
62
7
6
CONTINUOUS
10
102.0338219370
20
25.1589032463
11
102.0338219370
21
24.6498090070
0
LINE
5
3A9
100
AcDbEntity
8
0
100
AcDbLine
62
7
6
CONTINUOUS
10
102.2234656073
20
25.1946460120
11
102.2234656073
21
24.6859415982
0
LINE
5
3AA
100
AcDbEntity
8
0
100
AcDbLine
62
7
6
CONTINUOUS
10
102.7923987886
20
25.2971497267
11
102.7923987886
21
24.7895599397
0
LINE
5
3AB
100
AcDbEntity
8
0
100
AcDbLine
62
7
6
CONTINUOUS
10
103.5509778105
20
25.4228590429
11
103.5509778105
21
24.9166295342
0
LINE
5
3AC
100
AcDbEntity
8
0
100
AcDbLine
62
7
6
CONTINUOUS
10
104.4991983324
20
25.5625147999
11
104.4991983324
21
25.0577879124
0
LINE
5
3AD
100
AcDbEntity
8
0
100
AcDbLine
62
7
6
CONTINUOUS
10
116.1513671746
20
-11.0186550557
11
115.8361247692
21
-11.8091813983
0
LINE
5
3AE
100
AcDbEntity
8
0
100
AcDbLine
62
7
6
CONTINUOUS
10
121.4761971228
20
-8.5608799585
11
121.8354927026
21
-7.9711684853
0
LINE
5
3AF
100
AcDbEntity
8
0
100
AcDbLine
62
7
6
CONTINUOUS
10
128.3551159275
20
-18.2070030056
11
127.9561626102
21
-18.5459480625
0
LINE
5
3B0
100
AcDbEntity
8
0
100
AcDbLine
62
7
6
CONTINUOUS
10
129.9593906175
20
-13.1323601246
11
128.9046801846
21
-13.9936495322
0
LINE
5
3B1
100
AcDbEntity
8
0
100
AcDbLine
62
7
6
CONTINUOUS
10
130.2651396876
20
-13.7758788311
11
125.1234273889
21
-17.9746638261
0
LINE
5
3B2
100
AcDbEntity
8
0
100
AcDbLine
62
7
6
CONTINUOUS
10
125.5610168862
20
-18.5105234385
11
131.7574392484
21
-13.4504493374
0
LINE
5
3B3
100
AcDbEntity
8
0
100
AcDbLine
62
7
6
CONTINUOUS
10
129.0556864541
20
-17.7102075877
11
128.3551159275
21
-18.2070030056
0
LINE
5
3B4
100
AcDbEntity
8
0
100
AcDbLine
62
7
6
CONTINUOUS
10
132.3377595069
20
-20.6776041708
11
133.0383298224
21
-20.1808088635
0
LINE
5
3B5
100
AcDbEntity
8
0
100
AcDbLine
62
7
6
CONTINUOUS
10
128.6224511287
20
-18.7178023081
11
129.4738289307
21
-18.1420794267
0
LINE
5
3B6
100
AcDbEntity
8
0
100
AcDbLine
62
7
6
CONTINUOUS
10
132.7709946212
20
-19.6700095610
11
131.9196170304
21
-20.2457323318
0
LINE
5
3B7
100
AcDbEntity
8
0
100
AcDbLine
62
7
6
CONTINUOUS
10
131.9196170304
20
-20.2457323318
11
130.8639661030
21
-20.7982245762
0
LINE
5
3B8
100
AcDbEntity
8
0
100
AcDbLine
62
7
6
CONTINUOUS
10
130.9804940289
20
-21.3879513422
11
132.3377595069
21
-20.6776041708
0
LINE
5
3B9
100
AcDbEntity
8
0
100
AcDbLine
62
7
6
CONTINUOUS
10
133.9130163844
20
-24.6123680375
11
133.0960919989
21
-24.9442203402
0
LINE
5
3BA
100
AcDbEntity
8
0
100
AcDbLine
62
7
6
CONTINUOUS
10
130.7306066880
20
-25.2324331479
11
130.2376624479
21
-25.4086500075
0
LINE
5
3BB
100
AcDbEntity
8
0
100
AcDbLine
62
7
6
CONTINUOUS
10
133.6587644441
20
-25.3402935545
11
134.1517085658
21
-25.1640767093
0
LINE
5
3BC
100
AcDbEntity
8
0
100
AcDbLine
62
7
6
CONTINUOUS
10
135.3312231324
20
-27.8081525679
11
134.8382785373
21
-27.9843694707
0
LINE
5
3BD
100
AcDbEntity
8
0
100
AcDbLine
62
7
6
CONTINUOUS
10
63.5188218214
20
-62.2063904039
11
61.5003517453
21
-62.5623011380
0
LINE
5
3BE
100
AcDbEntity
8
0
100
AcDbLine
62
7
6
CONTINUOUS
10
160.5372918975
20
-62.5623011380
11
158.5188218214
21
-62.2063904039
0
LINE
5
3BF
100
AcDbEntity
8
0
100
AcDbLine
62
7
6
CONTINUOUS
10
89.1922379164
20
-25.6925688884
11
88.9096275881
21
-25.1938251651
0
LINE
5
3C0
100
AcDbEntity
8
0
100
AcDbLine
62
7
6
CONTINUOUS
10
93.2850211914
20
-20.7558147466
11
93.4614987631
21
-21.2079240100
0
LINE
5
3C1
100
AcDbEntity
8
0
100
AcDbLine
62
7
6
CONTINUOUS
10
94.4455157754
20
-21.5045914128
11
94.3144968291
21
-20.9465159075
0
LINE
5
3C2
100
AcDbEntity
8
0
100
AcDbLine
62
7
6
CONTINUOUS
10
106.4406319070
20
-3.6277070384
11
106.4679124572
21
-10.9828400733
0
LINE
5
3C3
100
AcDbEntity
8
0
100
AcDbLine
62
7
6
CONTINUOUS
10
109.0506648677
20
25.9669740696
11
109.0506648677
21
25.4665487862
0
LINE
5
3C4
100
AcDbEntity
8
0
100
AcDbLine
62
7
6
CONTINUOUS
10
110.5678196561
20
26.0052226517
11
110.5678196561
21
25.5052003472
0
LINE
5
3C5
100
AcDbEntity
8
DEFAULT_1
100
AcDbLine
62
2
6
CENTER
10
111.0188218214
20
-29.4926585208
11
111.0188218214
21
-63.2426585208
0
LINE
5
3C6
100
AcDbEntity
8
DEFAULT_1
100
AcDbLine
62
2
6
CENTER
10
111.0188218214
20
-29.4926585208
11
111.0188218214
21
4.2573414792
0
LINE
5
3C7
100
AcDbEntity
8
0
100
AcDbLine
62
7
6
CONTINUOUS
10
107.1189905535
20
-11.6991725954
11
107.1829336342
21
-5.1980202389
0
LINE
5
3C8
100
AcDbEntity
8
0
100
AcDbLine
62
7
6
CONTINUOUS
10
110.6251458240
20
-7.7592931706
11
110.5352066952
21
-8.7766019125
0
LINE
5
3C9
100
AcDbEntity
8
0
100
AcDbLine
62
7
6
CONTINUOUS
10
113.6665250302
20
-4.7815212135
11
113.3817178132
21
-8.0029986193
0
LINE
5
3CA
100
AcDbEntity
8
0
100
AcDbLine
62
7
6
CONTINUOUS
10
113.2917786843
20
-9.0203073612
11
113.0819207449
21
-11.3940274424
0
LINE
5
3CB
100
AcDbEntity
8
0
100
AcDbLine
62
7
6
CONTINUOUS
10
113.7710637422
20
-11.4549538046
11
113.9809216816
21
-9.0812337234
0
LINE
5
3CC
100
AcDbEntity
8
0
100
AcDbLine
62
7
6
CONTINUOUS
10
114.0708608105
20
-8.0639249814
11
114.4755868380
21
-3.4860362365
0
LINE
5
3CD
100
AcDbEntity
8
0
100
AcDbLine
62
7
6
CONTINUOUS
10
121.3189698737
20
-7.3986965651
11
121.1928727526
21
-7.7149075008
0
LINE
5
3CE
100
AcDbEntity
8
0
100
AcDbLine
62
7
6
CONTINUOUS
10
119.6918444692
20
-13.3467473052
11
120.0070868747
21
-12.5562209626
0
LINE
5
3CF
100
AcDbEntity
8
0
100
AcDbLine
62
7
6
CONTINUOUS
10
121.8354927026
20
-7.9711684853
11
121.9615898237
21
-7.6549575496
0
LINE
5
3D0
100
AcDbEntity
8
0
100
AcDbLine
62
7
6
CONTINUOUS
10
127.9314740635
20
-19.6000037804
11
128.6224511287
21
-18.7178023081
0
LINE
5
3D1
100
AcDbEntity
8
0
100
AcDbLine
62
7
6
CONTINUOUS
10
127.9561626102
20
-18.5459480625
11
127.4598655257
21
-19.0659739515
0
LINE
5
3D2
100
AcDbEntity
8
0
100
AcDbLine
62
7
6
CONTINUOUS
10
133.4372835621
20
-19.8418635855
11
133.9335805410
21
-19.3218377517
0
LINE
5
3D3
100
AcDbEntity
8
0
100
AcDbLine
62
7
6
CONTINUOUS
10
133.0383298224
20
-20.1808088635
11
133.4372835621
21
-19.8418635855
0
LINE
5
3D4
100
AcDbEntity
8
0
100
AcDbLine
62
7
6
CONTINUOUS
10
130.2376624479
20
-25.4086500075
11
129.6036467598
21
-25.8343726544
0
LINE
5
3D5
100
AcDbEntity
8
0
100
AcDbLine
62
7
6
CONTINUOUS
10
133.0960919989
20
-24.9442203402
11
132.4620763699
21
-25.3699429799
0
LINE
5
3D6
100
AcDbEntity
8
0
100
AcDbLine
62
7
6
CONTINUOUS
10
135.8938955776
20
-28.2042257821
11
136.5279112065
21
-27.7785031424
0
LINE
5
3D7
100
AcDbEntity
8
0
100
AcDbLine
62
7
6
CONTINUOUS
10
130.3213369467
20
-26.0954022704
11
130.8003350114
21
-25.8047232073
0
LINE
5
3D8
100
AcDbEntity
8
0
100
AcDbLine
62
7
6
CONTINUOUS
10
133.1797664977
20
-25.6309726031
11
133.6587644441
21
-25.3402935545
0
LINE
5
3D9
100
AcDbEntity
8
0
100
AcDbLine
62
7
6
CONTINUOUS
10
135.8102210788
20
-27.5174735192
11
135.3312231324
21
-27.8081525679
0
LINE
5
3DA
100
AcDbEntity
8
0
100
AcDbLine
62
7
6
CONTINUOUS
10
135.0769707187
20
-28.5360781425
11
135.8938955776
21
-28.2042257821
0
LINE
5
3DB
100
AcDbEntity
8
0
100
AcDbLine
62
7
6
CONTINUOUS
10
88.0231996486
20
-25.4350978341
11
88.3334872046
21
-25.7048983526
0
LINE
5
3DC
100
AcDbEntity
8
0
100
AcDbLine
62
7
6
CONTINUOUS
10
94.3144968291
20
-20.9465159075
11
93.8706249961
21
-20.2542293874
0
LINE
5
3DD
100
AcDbEntity
8
0
100
AcDbLine
62
7
6
CONTINUOUS
10
97.1624153609
20
-29.4926585208
11
104.0906185911
21
-41.4926585208
0
LINE
5
3DE
100
AcDbEntity
8
0
100
AcDbLine
62
7
6
CONTINUOUS
10
96.4451227249
20
-15.3498119809
11
96.6888756903
21
-15.8543089831
0
LINE
5
3DF
100
AcDbEntity
8
0
100
AcDbLine
62
7
6
CONTINUOUS
10
97.6202264496
20
-16.3326112818
11
97.3938537571
21
-15.5420180706
0
LINE
5
3E0
100
AcDbEntity
8
0
100
AcDbLine
62
7
6
CONTINUOUS
10
102.0737808483
20
-4.7013611875
11
103.9838145801
21
-12.4700014252
0
LINE
5
3E1
100
AcDbEntity
8
0
100
AcDbLine
62
7
6
CONTINUOUS
10
116.2571514688
20
25.7206509694
11
116.2571514688
21
25.2176147522
0
LINE
5
3E2
100
AcDbEntity
8
0
100
AcDbLine
62
7
6
CONTINUOUS
10
117.3950178313
20
25.5819578670
11
117.3950178313
21
25.0774394655
0
LINE
5
3E3
100
AcDbEntity
8
0
100
AcDbLine
62
7
6
CONTINUOUS
10
118.5188218214
20
25.4177833671
11
118.5188218214
21
24.9114990774
0
LINE
5
3E4
100
AcDbEntity
8
0
100
AcDbLine
62
7
6
CONTINUOUS
10
118.9121731622
20
25.3538831123
11
118.9121731622
21
24.8469081362
0
LINE
5
3E5
100
AcDbEntity
8
0
100
AcDbLine
62
7
6
CONTINUOUS
10
115.1294942201
20
-9.1827777378
11
115.2194333489
21
-8.1654689959
0
LINE
5
3E6
100
AcDbEntity
8
0
100
AcDbLine
62
7
6
CONTINUOUS
10
121.9615898237
20
-7.6549575496
11
122.1066820220
21
-6.9798270517
0
LINE
5
3E7
100
AcDbEntity
8
0
100
AcDbLine
62
7
6
CONTINUOUS
10
127.4598655257
20
-19.0659739515
11
127.1678442781
21
-19.6092350158
0
LINE
5
3E8
100
AcDbEntity
8
0
100
AcDbLine
62
7
6
CONTINUOUS
10
117.9470250517
20
-41.4926585208
11
124.8752282820
21
-29.4926585208
0
LINE
5
3E9
100
AcDbEntity
8
0
100
AcDbLine
62
7
6
CONTINUOUS
10
129.6036467598
20
-25.8343726544
11
129.1664860185
21
-26.4684278399
0
LINE
5
3EA
100
AcDbEntity
8
0
100
AcDbLine
62
7
6
CONTINUOUS
10
132.4620763699
20
-25.3699429799
11
132.0249150346
21
-26.0039929205
0
LINE
5
3EB
100
AcDbEntity
8
0
100
AcDbLine
62
7
6
CONTINUOUS
10
130.0252477569
20
-26.4799516559
11
130.3213369467
21
-26.0954022704
0
LINE
5
3EC
100
AcDbEntity
8
0
100
AcDbLine
62
7
6
CONTINUOUS
10
132.8836773079
20
-26.0155219887
11
133.1797664977
21
-25.6309726031
0
LINE
5
3ED
100
AcDbEntity
8
0
100
AcDbLine
62
7
6
CONTINUOUS
10
133.4619720032
20
-18.7878079228
11
132.7709946212
21
-19.6700095610
0
LINE
5
3EE
100
AcDbEntity
8
0
100
AcDbLine
62
7
6
CONTINUOUS
10
104.0906185911
20
-41.4926585208
11
117.9470250517
21
-41.4926585208
0
LINE
5
3EF
100
AcDbEntity
8
0
100
AcDbLine
62
7
6
CONTINUOUS
10
88.9096275881
20
-25.1938251651
11
88.2752138226
21
-24.7686960580
0
LINE
5
3F0
100
AcDbEntity
8
0
100
AcDbLine
62
7
6
CONTINUOUS
10
93.8706249961
20
-20.2542293874
11
93.3358359941
21
-19.7738753864
0
LINE
5
3F1
100
AcDbEntity
8
0
100
AcDbLine
62
7
6
CONTINUOUS
10
92.9066587356
20
-20.3425662970
11
93.2850211914
21
-20.7558147466
0
LINE
5
3F2
100
AcDbEntity
8
0
100
AcDbLine
62
7
6
CONTINUOUS
10
95.9968281557
20
-14.8245642120
11
96.4451227249
21
-15.3498119809
0
LINE
5
3F3
100
AcDbEntity
8
0
100
AcDbLine
62
7
6
CONTINUOUS
10
97.3938537571
20
-15.5420180706
11
97.0195336350
21
-14.9283210824
0
LINE
5
3F4
100
AcDbEntity
8
0
100
AcDbLine
62
7
6
CONTINUOUS
10
104.6556378199
20
-12.3048238638
11
103.1519941954
21
-6.1890856073
0
LINE
5
3F5
100
AcDbEntity
8
0
100
AcDbLine
62
7
6
CONTINUOUS
10
107.1829336342
20
-5.1980202389
11
108.6865772587
21
-11.3137584955
0
LINE
5
3F6
100
AcDbEntity
8
0
100
AcDbLine
62
7
6
CONTINUOUS
10
109.3584004985
20
-11.1485809341
11
107.4483667667
21
-3.3799406963
0
LINE
5
3F7
100
AcDbEntity
8
0
100
AcDbLine
62
7
6
CONTINUOUS
10
121.2939094576
20
-6.8389608237
11
121.3189698737
21
-7.3986965651
0
LINE
5
3F8
100
AcDbEntity
8
0
100
AcDbLine
62
7
6
CONTINUOUS
10
120.0500395248
20
25.1500726983
11
120.0500395248
21
24.6408820567
0
LINE
5
3F9
100
AcDbEntity
8
0
100
AcDbLine
62
7
6
CONTINUOUS
10
122.7050609470
20
24.5630265789
11
122.7050609470
21
24.0473438152
0
LINE
5
3FA
100
AcDbEntity
8
0
100
AcDbLine
62
7
6
CONTINUOUS
10
125.3600823691
20
23.8148544646
11
125.3600823691
21
23.2906523774
0
LINE
5
3FB
100
AcDbEntity
8
0
100
AcDbLine
62
7
6
CONTINUOUS
10
127.1678442781
20
-19.6092350158
11
126.9827576137
21
-20.3568167295
0
LINE
5
3FC
100
AcDbEntity
8
0
100
AcDbLine
62
7
6
CONTINUOUS
10
127.7902601441
20
-20.0643373536
11
127.9314740635
21
-19.6000037804
0
LINE
5
3FD
100
AcDbEntity
8
0
100
AcDbLine
62
7
6
CONTINUOUS
10
133.6031859226
20
-18.3234743496
11
133.4619720032
21
-18.7878079228
0
LINE
5
3FE
100
AcDbEntity
8
0
100
AcDbLine
62
7
6
CONTINUOUS
10
129.8981217868
20
-26.8439144144
11
130.0252477569
21
-26.4799516559
0
LINE
5
3FF
100
AcDbEntity
8
0
100
AcDbLine
62
7
6
CONTINUOUS
10
132.7565513378
20
-26.3794847472
11
132.8836773079
21
-26.0155219887
0
LINE
5
400
100
AcDbEntity
8
0
100
AcDbLine
62
7
6
CONTINUOUS
10
133.9335805410
20
-19.3218377517
11
134.2256017358
21
-18.7785767151
0
LINE
5
401
100
AcDbEntity
8
0
100
AcDbLine
62
7
6
CONTINUOUS
10
136.5279112065
20
-27.7785031424
11
136.9650719035
21
-27.1444479624
0
LINE
5
402
100
AcDbEntity
8
0
100
AcDbLine
62
7
6
CONTINUOUS
10
136.1063102685
20
-27.1329241337
11
135.8102210788
21
-27.5174735192
0
LINE
5
403
100
AcDbEntity
8
0
100
AcDbLine
62
7
6
CONTINUOUS
10
133.9081737186
20
-28.7946414959
11
135.0769707187
21
-28.5360781425
0
LINE
5
404
100
AcDbEntity
8
0
100
AcDbLine
62
7
6
CONTINUOUS
10
132.7254311815
20
-28.9387478854
11
133.9081737186
21
-28.7946414959
0
LINE
5
405
100
AcDbEntity
8
0
100
AcDbLine
62
7
6
CONTINUOUS
10
132.9936286588
20
-28.3252793323
11
132.6557022197
21
-28.3664525865
0
LINE
5
406
100
AcDbEntity
8
0
100
AcDbLine
62
7
6
CONTINUOUS
10
134.8382785373
20
-27.9843694707
11
134.5003520981
21
-28.0255427248
0
LINE
5
407
100
AcDbEntity
8
0
100
AcDbLine
62
7
6
CONTINUOUS
10
131.5287428707
20
-28.9683973396
11
132.7254311815
21
-28.9387478854
0
LINE
5
408
100
AcDbEntity
8
DEFAULT_1
100
AcDbLine
62
2
6
CENTER
10
111.0188218214
20
-29.4926585208
11
77.2688218214
21
-29.4926585208
0
LINE
5
409
100
AcDbEntity
8
DEFAULT_1
100
AcDbLine
62
2
6
CENTER
10
111.0188218214
20
-29.4926585208
11
144.7688218214
21
-29.4926585208
0
LINE
5
40A
100
AcDbEntity
8
0
100
AcDbLine
62
7
6
CONTINUOUS
10
84.7353393652
20
-28.5219647399
11
92.6775136607
21
-29.4821040317
0
LINE
5
40B
100
AcDbEntity
8
0
100
AcDbLine
62
7
6
CONTINUOUS
10
92.7605454230
20
-28.7952737624
11
89.2119143044
21
-28.3662753494
0
LINE
5
40C
100
AcDbEntity
8
0
100
AcDbLine
62
7
6
CONTINUOUS
10
88.1980198344
20
-28.2437043905
11
85.6632831858
21
-27.9372769363
0
LINE
5
40D
100
AcDbEntity
8
0
100
AcDbLine
62
7
6
CONTINUOUS
10
90.9626573064
20
-23.1471603866
11
91.7902480464
21
-23.3767216375
0
LINE
5
40E
100
AcDbEntity
8
0
100
AcDbLine
62
7
6
CONTINUOUS
10
87.5300910274
20
-25.2593407523
11
88.0231996486
21
-25.4350978341
0
LINE
5
40F
100
AcDbEntity
8
0
100
AcDbLine
62
7
6
CONTINUOUS
10
88.2752138226
20
-24.7686960580
11
87.7821052014
21
-24.5929389762
0
LINE
5
410
100
AcDbEntity
8
0
100
AcDbLine
62
7
6
CONTINUOUS
10
86.1134371151
20
-21.0668894671
11
90.9626573064
21
-23.1471603866
0
LINE
5
411
100
AcDbEntity
8
0
100
AcDbLine
62
7
6
CONTINUOUS
10
91.2354082585
20
-22.5113636684
11
86.3861880671
21
-20.4310927489
0
LINE
5
412
100
AcDbEntity
8
0
100
AcDbLine
62
7
6
CONTINUOUS
10
87.4771913549
20
-17.8879070885
11
92.3264115463
21
-19.9681780080
0
LINE
5
413
100
AcDbEntity
8
0
100
AcDbLine
62
7
6
CONTINUOUS
10
93.3358359941
20
-19.7738753864
11
92.5991623682
21
-19.3323815929
0
LINE
5
414
100
AcDbEntity
8
0
100
AcDbLine
62
7
6
CONTINUOUS
10
92.3264115463
20
-19.9681780080
11
92.9066587356
21
-20.3425662970
0
LINE
5
415
100
AcDbEntity
8
0
100
AcDbLine
62
7
6
CONTINUOUS
10
89.4341337452
20
-14.4466141311
11
95.5707865448
21
-19.5790104932
0
LINE
5
416
100
AcDbEntity
8
0
100
AcDbLine
62
7
6
CONTINUOUS
10
95.2312279065
20
-18.3931201512
11
90.6613799817
21
-14.5711227805
0
LINE
5
417
100
AcDbEntity
8
0
100
AcDbLine
62
7
6
CONTINUOUS
10
94.0383219937
20
-13.1865654153
11
95.9968281557
21
-14.8245642120
0
LINE
5
418
100
AcDbEntity
8
0
100
AcDbLine
62
7
6
CONTINUOUS
10
96.4406720005
20
-14.2938734039
11
94.4821658385
21
-12.6558746073
0
LINE
5
419
100
AcDbEntity
8
0
100
AcDbLine
62
7
6
CONTINUOUS
10
97.0195336350
20
-14.9283210824
11
96.4406720005
21
-14.2938734039
0
LINE
5
41A
100
AcDbEntity
8
0
100
AcDbLine
62
7
6
CONTINUOUS
10
103.1519941954
20
-6.1890856073
11
106.2232245252
21
-11.9194097640
0
LINE
5
41B
100
AcDbEntity
8
0
100
AcDbLine
62
7
6
CONTINUOUS
10
106.4679124572
20
-10.9828400733
11
103.0815157080
21
-4.4535948454
0
LINE
5
41C
100
AcDbEntity
8
0
100
AcDbLine
62
7
6
CONTINUOUS
10
126.4979487317
20
23.4429732025
11
126.4979487317
21
22.9144303416
0
LINE
5
41D
100
AcDbEntity
8
0
100
AcDbLine
62
7
6
CONTINUOUS
10
129.1664860185
20
-26.4684278399
11
129.0672511075
21
-27.0613045281
0
LINE
5
41E
100
AcDbEntity
8
0
100
AcDbLine
62
7
6
CONTINUOUS
10
132.0249150346
20
-26.0039929205
11
131.9256805402
21
-26.5968748753
0
LINE
5
41F
100
AcDbEntity
8
0
100
AcDbLine
62
7
6
CONTINUOUS
10
134.2256017358
20
-18.7785767151
11
134.4106883606
21
-18.0309950221
0
LINE
5
420
100
AcDbEntity
8
0
100
AcDbLine
62
7
6
CONTINUOUS
10
136.2334362387
20
-26.7689613752
11
136.1063102685
21
-27.1329241337
0
LINE
5
421
100
AcDbEntity
8
0
100
AcDbLine
62
7
6
CONTINUOUS
10
129.6671010450
20
-21.8150505044
11
130.1729913797
21
-21.6804307803
0
LINE
5
422
100
AcDbEntity
8
0
100
AcDbLine
62
7
6
CONTINUOUS
10
131.7263451274
20
-16.5727611436
11
131.2204543701
21
-16.7073810888
0
LINE
5
423
100
AcDbEntity
8
0
100
AcDbLine
62
7
6
CONTINUOUS
10
128.9569397155
20
-21.9264444338
11
129.6671010450
21
-21.8150505044
0
LINE
5
424
100
AcDbEntity
8
0
100
AcDbLine
62
7
6
CONTINUOUS
10
93.2033815018
20
-25.1321788839
11
89.1922379164
21
-25.6925688884
0
LINE
5
425
100
AcDbEntity
8
0
100
AcDbLine
62
7
6
CONTINUOUS
10
89.4471709577
20
-26.4202563077
11
93.1065110861
21
-25.9334810830
0
LINE
5
426
100
AcDbEntity
8
0
100
AcDbLine
62
7
6
CONTINUOUS
10
134.1517085658
20
-25.1640767093
11
134.4896350050
21
-25.1229034552
0
LINE
5
427
100
AcDbEntity
8
0
100
AcDbLine
62
7
6
CONTINUOUS
10
134.5888692628
20
-24.5300215292
11
133.9130163844
21
-24.6123680375
0
LINE
5
428
100
AcDbEntity
8
0
100
AcDbLine
62
7
6
CONTINUOUS
10
86.5023574701
20
-25.2512413387
11
87.0231433190
21
-25.1980552157
0
LINE
5
429
100
AcDbEntity
8
0
100
AcDbLine
62
7
6
CONTINUOUS
10
129.9056561785
20
-21.1696314778
11
128.7869457284
21
-21.2345596779
0
LINE
5
42A
100
AcDbEntity
8
0
100
AcDbLine
62
7
6
CONTINUOUS
10
92.4667687255
20
-22.6632039919
11
91.9065723017
21
-22.6738200212
0
LINE
5
42B
100
AcDbEntity
8
0
100
AcDbLine
62
7
6
CONTINUOUS
10
132.6557022197
20
-28.3664525865
11
131.6279771284
21
-28.3755154137
0
LINE
5
42C
100
AcDbEntity
8
0
100
AcDbLine
62
7
6
CONTINUOUS
10
91.7902480464
20
-23.3767216375
11
92.5068708863
21
-23.4332114628
0
LINE
5
42D
100
AcDbEntity
8
0
100
AcDbLine
62
7
6
CONTINUOUS
10
131.6279771284
20
-28.3755154137
11
131.1071419327
21
-28.3228183309
0
LINE
5
42E
100
AcDbEntity
8
0
100
AcDbLine
62
7
6
CONTINUOUS
10
134.5003520981
20
-28.0255427248
11
133.9795169023
21
-27.9728456420
0
LINE
5
42F
100
AcDbEntity
8
0
100
AcDbLine
62
7
6
CONTINUOUS
10
134.4896350050
20
-25.1229034552
11
135.0104706741
21
-25.1756004803
0
LINE
5
430
100
AcDbEntity
8
0
100
AcDbLine
62
7
6
CONTINUOUS
10
87.0231433190
20
-25.1980552157
11
87.5300910274
21
-25.2593407523
0
LINE
5
431
100
AcDbEntity
8
0
100
AcDbLine
62
7
6
CONTINUOUS
10
87.7821052014
20
-24.5929389762
11
87.1061750813
21
-24.5112249464
0
LINE
5
432
100
AcDbEntity
8
0
100
AcDbLine
62
7
6
CONTINUOUS
10
130.6560349420
20
-28.8424113219
11
131.5287428707
21
-28.9683973396
0
LINE
5
433
100
AcDbEntity
8
0
100
AcDbLine
62
7
6
CONTINUOUS
10
91.9065723017
20
-22.6738200212
11
91.2354082585
21
-22.5113636684
0
LINE
5
434
100
AcDbEntity
8
0
100
AcDbLine
62
7
6
CONTINUOUS
10
131.1071419327
20
-28.3228183309
11
130.5723604432
21
-28.1556590590
0
LINE
5
435
100
AcDbEntity
8
0
100
AcDbLine
62
7
6
CONTINUOUS
10
129.9383447551
20
-28.5813817059
11
130.6560349420
21
-28.8424113219
0
LINE
5
436
100
AcDbEntity
8
0
100
AcDbLine
62
7
6
CONTINUOUS
10
92.5991623682
20
-19.3323815929
11
87.7499421769
21
-17.2521106734
0
LINE
5
437
100
AcDbEntity
8
0
100
AcDbLine
62
7
6
CONTINUOUS
10
93.4420800406
20
-12.8382139076
11
94.0383219937
21
-13.1865654153
0
LINE
5
438
100
AcDbEntity
8
0
100
AcDbLine
62
7
6
CONTINUOUS
10
94.4821658385
20
-12.6558746073
11
93.7553564544
21
-12.1983228841
0
LINE
5
439
100
AcDbEntity
8
0
100
AcDbLine
62
7
6
CONTINUOUS
10
124.8752282820
20
-29.4926585208
11
117.9470250517
21
-17.4926585208
0
LINE
5
43A
100
AcDbEntity
8
0
100
AcDbLine
62
7
6
CONTINUOUS
10
126.9827576137
20
-20.3568167295
11
127.1527515876
21
-21.0487014923
0
LINE
5
43B
100
AcDbEntity
8
0
100
AcDbLine
62
7
6
CONTINUOUS
10
122.1066820220
20
-6.9798270517
11
121.9304617939
21
-6.1765650840
0
LINE
5
43C
100
AcDbEntity
8
0
100
AcDbLine
62
7
6
CONTINUOUS
10
127.9067880699
20
-20.6540641196
11
127.7902601441
21
-20.0643373536
0
LINE
5
43D
100
AcDbEntity
8
0
100
AcDbLine
62
7
6
CONTINUOUS
10
129.0672511075
20
-27.0613045281
11
129.1230345323
21
-27.5191428630
0
LINE
5
43E
100
AcDbEntity
8
0
100
AcDbLine
62
7
6
CONTINUOUS
10
129.9817962856
20
-27.5306666773
11
129.8981217868
21
-26.8439144144
0
LINE
5
43F
100
AcDbEntity
8
0
100
AcDbLine
62
7
6
CONTINUOUS
10
130.8003350114
20
-25.8047232073
11
130.7306066880
21
-25.2324331479
0
LINE
5
440
100
AcDbEntity
8
0
100
AcDbLine
62
7
6
CONTINUOUS
10
136.9650719035
20
-27.1444479624
11
137.0643067996
21
-26.5515712759
0
LINE
5
441
100
AcDbEntity
8
0
100
AcDbLine
62
7
6
CONTINUOUS
10
130.0697986002
20
-61.4953988060
11
148.5465893187
21
-29.4926585208
0
LINE
5
442
100
AcDbEntity
8
0
100
AcDbLine
62
7
6
CONTINUOUS
10
92.5068708863
20
-23.4332114628
11
93.3144103953
21
-23.2777696316
0
LINE
5
443
100
AcDbEntity
8
0
100
AcDbLine
62
7
6
CONTINUOUS
10
128.9046801846
20
-13.9936495322
11
130.2651396876
21
-13.7758788311
0
LINE
5
444
100
AcDbEntity
8
0
100
AcDbLine
62
7
6
CONTINUOUS
10
131.3198497511
20
-12.9145897250
11
129.9593906175
21
-13.1323601246
0
LINE
5
445
100
AcDbEntity
8
0
100
AcDbLine
62
7
6
CONTINUOUS
10
132.4365063512
20
-16.4613672695
11
131.7263451274
21
-16.5727611436
0
LINE
5
446
100
AcDbEntity
8
0
100
AcDbLine
62
7
6
CONTINUOUS
10
87.1061750813
20
-24.5112249464
11
86.5853892324
21
-24.5644110694
0
LINE
5
447
100
AcDbEntity
8
0
100
AcDbLine
62
7
6
CONTINUOUS
10
131.4877895713
20
-17.2181803913
11
132.6065003383
21
-17.1532520254
0
LINE
5
448
100
AcDbEntity
8
0
100
AcDbLine
62
7
6
CONTINUOUS
10
117.9470250517
20
-17.4926585208
11
104.0906185911
21
-17.4926585208
0
LINE
5
449
100
AcDbEntity
8
0
100
AcDbLine
62
7
6
CONTINUOUS
10
128.3441172055
20
-21.8567482057
11
128.9569397155
21
-21.9264444338
0
LINE
5
44A
100
AcDbEntity
8
0
100
AcDbLine
62
7
6
CONTINUOUS
10
135.4615775465
20
-24.6560075037
11
134.5888692628
21
-24.5300215292
0
LINE
5
44B
100
AcDbEntity
8
0
100
AcDbLine
62
7
6
CONTINUOUS
10
92.9024302486
20
-12.6875111464
11
93.4420800406
21
-12.8382139076
0
LINE
5
44C
100
AcDbEntity
8
0
100
AcDbLine
62
7
6
CONTINUOUS
10
133.9795169023
20
-27.9728456420
11
133.4447355312
21
-27.8056863557
0
LINE
5
44D
100
AcDbEntity
8
0
100
AcDbLine
62
7
6
CONTINUOUS
10
135.0104706741
20
-25.1756004803
11
135.5452520453
21
-25.3427597666
0
LINE
5
44E
100
AcDbEntity
8
0
100
AcDbLine
62
7
6
CONTINUOUS
10
128.7869457284
20
-21.2345596779
11
128.3249305465
21
-21.0859359586
0
LINE
5
44F
100
AcDbEntity
8
0
100
AcDbLine
62
7
6
CONTINUOUS
10
136.1792676742
20
-24.9170371269
11
135.4615775465
21
-24.6560075037
0
LINE
5
450
100
AcDbEntity
8
0
100
AcDbLine
62
7
6
CONTINUOUS
10
127.6243601386
20
-21.5827313143
11
128.3441172055
21
-21.8567482057
0
LINE
5
451
100
AcDbEntity
8
0
100
AcDbLine
62
7
6
CONTINUOUS
10
93.7553564544
20
-12.1983228841
11
93.0851399628
21
-11.9384205192
0
LINE
5
452
100
AcDbEntity
8
0
100
AcDbLine
62
7
6
CONTINUOUS
10
130.5723604432
20
-28.1556590590
11
130.1925967546
21
-27.8534561817
0
LINE
5
453
100
AcDbEntity
8
0
100
AcDbLine
62
7
6
CONTINUOUS
10
132.2341012817
20
-27.7208735777
11
132.9936286588
21
-28.3252793323
0
LINE
5
454
100
AcDbEntity
8
0
100
AcDbLine
62
7
6
CONTINUOUS
10
133.4447355312
20
-27.8056863557
11
133.0649718426
21
-27.5034834784
0
LINE
5
455
100
AcDbEntity
8
0
100
AcDbLine
62
7
6
CONTINUOUS
10
129.3617260901
20
-28.0708462936
11
129.9383447551
21
-28.5813817059
0
LINE
5
456
100
AcDbEntity
8
0
100
AcDbLine
62
7
6
CONTINUOUS
10
128.3249305465
20
-21.0859359586
11
127.9067880699
21
-20.6540641196
0
LINE
5
457
100
AcDbEntity
8
0
100
AcDbLine
62
7
6
CONTINUOUS
10
127.1527515876
20
-21.0487014923
11
127.6243601386
21
-21.5827313143
0
LINE
5
458
100
AcDbEntity
8
0
100
AcDbLine
62
7
6
CONTINUOUS
10
125.1234273889
20
-17.9746638261
11
125.5610168862
21
-18.5105234385
0
LINE
5
459
100
AcDbEntity
8
0
100
AcDbLine
62
7
6
CONTINUOUS
10
130.1925967546
20
-27.8534561817
11
129.9817962856
21
-27.5306666773
0
LINE
5
45A
100
AcDbEntity
8
0
100
AcDbLine
62
7
6
CONTINUOUS
10
133.0649718426
20
-27.5034834784
11
132.8541713736
21
-27.1806939740
0
LINE
5
45B
100
AcDbEntity
8
0
100
AcDbLine
62
7
6
CONTINUOUS
10
121.0986964271
20
-6.3946198387
11
121.2939094576
21
-6.8389608237
0
LINE
5
45C
100
AcDbEntity
8
0
100
AcDbLine
62
7
6
CONTINUOUS
10
129.1230345323
20
-27.5191428630
11
129.3617260901
21
-28.0708462936
0
LINE
5
45D
100
AcDbEntity
8
0
100
AcDbLine
62
7
6
CONTINUOUS
10
131.9954095020
20
-27.1691701742
11
132.2341012817
21
-27.7208735777
0
LINE
5
45E
100
AcDbEntity
8
0
100
AcDbLine
62
7
6
CONTINUOUS
10
128.3206456825
20
-23.8063516729
11
128.4919581587
21
-24.3568332681
0
LINE
5
45F
100
AcDbEntity
8
0
100
AcDbLine
62
7
6
CONTINUOUS
10
129.3045806580
20
-24.1039413026
11
129.1332681818
21
-23.5534597074
0
LINE
5
460
100
AcDbEntity
8
0
100
AcDbLine
62
7
6
CONTINUOUS
10
133.4866579968
20
-17.7337475836
11
133.6031859226
21
-18.3234743496
0
LINE
5
461
100
AcDbEntity
8
0
100
AcDbLine
62
7
6
CONTINUOUS
10
131.9256805402
20
-26.5968748753
11
131.9954095020
21
-27.1691701742
0
LINE
5
462
100
AcDbEntity
8
0
100
AcDbLine
62
7
6
CONTINUOUS
10
132.8541713736
20
-27.1806939740
11
132.7565513378
21
-26.3794847472
0
LINE
5
463
100
AcDbEntity
8
0
100
AcDbLine
62
7
6
CONTINUOUS
10
136.1358162029
20
-25.9677521483
11
136.2334362387
21
-26.7689613752
0
LINE
5
464
100
AcDbEntity
8
0
100
AcDbLine
62
7
6
CONTINUOUS
10
137.0643067996
20
-26.5515712759
11
136.9945778378
21
-25.9792759770
0
LINE
5
465
100
AcDbEntity
8
0
100
AcDbLine
62
7
6
CONTINUOUS
10
119.8073889133
20
-4.9634411456
11
119.2528778517
21
-5.1088106562
0
LINE
5
466
100
AcDbEntity
8
0
100
AcDbLine
62
7
6
CONTINUOUS
10
103.9838145801
20
-12.4700014252
11
104.6556378199
21
-12.3048238638
0
LINE
5
467
100
AcDbEntity
8
0
100
AcDbLine
62
7
6
CONTINUOUS
10
106.2232245252
20
-11.9194097640
11
107.1189905535
21
-11.6991725954
0
LINE
5
468
100
AcDbEntity
8
0
100
AcDbLine
62
7
6
CONTINUOUS
10
108.6865772587
20
-11.3137584955
11
109.3584004985
21
-11.1485809341
0
LINE
5
469
100
AcDbEntity
8
0
100
AcDbLine
62
7
6
CONTINUOUS
10
92.2669760874
20
-11.8554144155
11
91.7099463425
21
-11.9908081310
0
LINE
5
46A
100
AcDbEntity
8
0
100
AcDbLine
62
7
6
CONTINUOUS
10
92.4193741956
20
-12.7344567313
11
92.9024302486
21
-12.6875111464
0
LINE
5
46B
100
AcDbEntity
8
0
100
AcDbLine
62
7
6
CONTINUOUS
10
113.0819207449
20
-11.3940274424
11
113.7710637422
21
-11.4549538046
0
LINE
5
46C
100
AcDbEntity
8
0
100
AcDbLine
62
7
6
CONTINUOUS
10
110.5352066952
20
-8.7766019125
11
113.2917786843
21
-9.0203073612
0
LINE
5
46D
100
AcDbEntity
8
0
100
AcDbLine
62
7
6
CONTINUOUS
10
113.9809216816
20
-9.0812337234
11
115.1294942201
21
-9.1827777378
0
LINE
5
46E
100
AcDbEntity
8
0
100
AcDbLine
62
7
6
CONTINUOUS
10
93.0851399628
20
-11.9384205192
11
92.2669760874
21
-11.8554144155
0
LINE
5
46F
100
AcDbEntity
8
0
100
AcDbLine
62
7
6
CONTINUOUS
10
133.0493288084
20
-16.5310635252
11
132.4365063512
21
-16.4613672695
0
LINE
5
470
100
AcDbEntity
8
0
100
AcDbLine
62
7
6
CONTINUOUS
10
132.6065003383
20
-17.1532520254
11
133.0685155202
21
-17.3018757446
0
LINE
5
471
100
AcDbEntity
8
0
100
AcDbLine
62
7
6
CONTINUOUS
10
133.7690858357
20
-16.8050804373
11
133.0493288084
21
-16.5310635252
0
LINE
5
472
100
AcDbEntity
8
0
100
AcDbLine
62
7
6
CONTINUOUS
10
115.8361247692
20
-11.8091813983
11
119.6918444692
21
-13.3467473052
0
LINE
5
473
100
AcDbEntity
8
0
100
AcDbLine
62
7
6
CONTINUOUS
10
120.0070868747
20
-12.5562209626
11
117.0081954089
21
-11.3603370200
0
LINE
5
474
100
AcDbEntity
8
0
100
AcDbLine
62
7
6
CONTINUOUS
10
135.5452520453
20
-25.3427597666
11
135.9250157339
21
-25.6449626439
0
LINE
5
475
100
AcDbEntity
8
0
100
AcDbLine
62
7
6
CONTINUOUS
10
136.7558856564
20
-25.4275673052
11
136.1792676742
21
-24.9170371269
0
LINE
5
476
100
AcDbEntity
8
0
100
AcDbLine
62
7
6
CONTINUOUS
10
133.0685155202
20
-17.3018757446
11
133.4866579968
21
-17.7337475836
0
LINE
5
477
100
AcDbEntity
8
0
100
AcDbLine
62
7
6
CONTINUOUS
10
134.2406943735
20
-17.3391102662
11
133.7690858357
21
-16.8050804373
0
LINE
5
478
100
AcDbEntity
8
0
100
AcDbLine
62
7
6
CONTINUOUS
10
131.7574392484
20
-13.4504493374
11
131.3198497511
21
-12.9145897250
0
LINE
5
479
100
AcDbEntity
8
0
100
AcDbLine
62
7
6
CONTINUOUS
10
135.9250157339
20
-25.6449626439
11
136.1358162029
21
-25.9677521483
0
LINE
5
47A
100
AcDbEntity
8
0
100
AcDbLine
62
7
6
CONTINUOUS
10
121.9304617939
20
-6.1765650840
11
121.6281446212
21
-5.6895136091
0
LINE
5
47B
100
AcDbEntity
8
0
100
AcDbLine
62
7
6
CONTINUOUS
10
136.9945778378
20
-25.9792759770
11
136.7558856564
21
-25.4275673052
0
LINE
5
47C
100
AcDbEntity
8
0
100
AcDbLine
62
7
6
CONTINUOUS
10
134.4106883606
20
-18.0309950221
11
134.2406943735
21
-17.3391102662
0
LINE
5
47D
100
AcDbEntity
8
0
100
AcDbLine
62
7
6
CONTINUOUS
10
107.4483667667
20
-3.3799406963
11
106.4406319070
21
-3.6277070384
0
LINE
5
47E
100
AcDbEntity
8
0
100
AcDbLine
62
7
6
CONTINUOUS
10
103.0815157080
20
-4.4535948454
11
102.0737808483
21
-4.7013611875
0
LINE
5
47F
100
AcDbEntity
8
0
100
AcDbLine
62
7
6
CONTINUOUS
10
115.2194333489
20
-8.1654689959
11
114.0708608105
21
-8.0639249814
0
LINE
5
480
100
AcDbEntity
8
0
100
AcDbLine
62
7
6
CONTINUOUS
10
113.3817178132
20
-8.0029986193
11
111.4291468638
21
-7.8303740039
0
LINE
5
481
100
AcDbEntity
8
0
100
AcDbLine
62
7
6
CONTINUOUS
10
114.4755868380
20
-3.4860362365
11
113.7864438407
21
-3.4251098743
0
LINE
5
482
100
AcDbEntity
8
0
100
AcDbLine
62
7
6
CONTINUOUS
10
119.5992506942
20
-5.7966778674
11
120.1978149743
21
-5.8521231156
0
LINE
5
483
100
AcDbEntity
8
0
100
AcDbLine
62
7
6
CONTINUOUS
10
120.6201614777
20
-5.1043073736
11
119.8073889133
21
-4.9634411456
0
LINE
5
484
100
AcDbEntity
8
0
100
AcDbLine
62
7
6
CONTINUOUS
10
118.2129742658
20
-6.1601021327
11
118.7484900736
21
-6.3736526272
0
LINE
5
485
100
AcDbEntity
8
0
100
AcDbLine
62
7
6
CONTINUOUS
10
120.1978149743
20
-5.8521231156
11
120.6262290915
21
-6.0229640978
0
LINE
5
486
100
AcDbEntity
8
0
100
AcDbLine
62
7
6
CONTINUOUS
10
121.0485731435
20
-5.2751473782
11
120.6201614777
21
-5.1043073736
0
LINE
5
487
100
AcDbEntity
8
0
100
AcDbLine
62
7
6
CONTINUOUS
10
121.6281446212
20
-5.6895136091
11
121.0485731435
21
-5.2751473782
0
LINE
5
488
100
AcDbEntity
8
0
100
AcDbLine
62
7
6
CONTINUOUS
10
120.6262290915
20
-6.0229640978
11
121.0986964271
21
-6.3946198387
0
LINE
5
489
100
AcDbEntity
8
0
100
AcDbLine
62
7
6
CONTINUOUS
10
148.5465893187
20
-29.4926585208
11
129.7827055701
21
3.0073414792
0
LINE
5
48A
100
AcDbEntity
8
0
100
AcDbLine
62
7
6
CONTINUOUS
10
158.5188218214
20
-21.9926585208
11
158.5188218214
21
-62.4542770288
0
LINE
5
48B
100
AcDbEntity
8
0
100
AcDbLine
62
7
6
CONTINUOUS
10
158.5188218214
20
-96.5310400128
11
158.5188218214
21
-111.9922750191
0
LINE
5
48C
100
AcDbEntity
8
0
100
AcDbLine
62
7
6
CONTINUOUS
10
129.7827055701
20
3.0073414792
11
92.2549380727
21
3.0073414792
0
LINE
5
48D
100
AcDbEntity
8
0
100
AcDbLine
62
7
6
CONTINUOUS
10
184.8234134265
20
-67.7426585208
11
185.4980179620
21
-68.9111078512
0
LINE
5
48E
100
AcDbEntity
8
0
100
AcDbLine
62
7
6
CONTINUOUS
10
189.0188218214
20
-81.0263719538
11
189.0188218214
21
-77.9589450877
0
LINE
5
48F
100
AcDbEntity
8
0
100
AcDbLine
62
7
6
CONTINUOUS
10
184.8234134265
20
-91.2426585208
11
185.4978476779
21
-90.0745041310
0
ARC
5
490
100
AcDbEntity
8
0
100
AcDbCircle
62
7
6
CONTINUOUS
10
156.0188218214
20
126.7519526045
40
2.5000000000
100
AcDbArc
50
270.0000000000
51
360.0000000000
0
ARC
5
491
100
AcDbEntity
8
0
100
AcDbCircle
62
7
6
CONTINUOUS
10
156.0188218214
20
191.7519526045
40
2.5000000000
100
AcDbArc
50
0.0000000000
51
90.0000000000
0
ARC
5
492
100
AcDbEntity
8
0
100
AcDbCircle
62
7
6
CONTINUOUS
10
66.0188218214
20
126.7519526045
40
2.5000000000
100
AcDbArc
50
180.0000000000
51
270.0000000000
0
ARC
5
493
100
AcDbEntity
8
0
100
AcDbCircle
62
7
6
CONTINUOUS
10
66.0188218214
20
191.7519526045
40
2.5000000000
100
AcDbArc
50
90.0000000000
51
180.0000000000
0
ARC
5
494
100
AcDbEntity
8
0
100
AcDbCircle
62
7
6
CONTINUOUS
10
149.0188218214
20
189.2519526045
40
12.0000000000
100
AcDbArc
50
322.3439327476
51
360.0000000000
0
ARC
5
495
100
AcDbEntity
8
0
100
AcDbCircle
62
7
6
CONTINUOUS
10
149.0188218214
20
312.5013307101
40
12.0000000000
100
AcDbArc
50
0.0000000000
51
52.9023981987
0
ARC
5
496
100
AcDbEntity
8
0
100
AcDbCircle
62
7
6
CONTINUOUS
10
69.0188218214
20
324.3888981362
40
36.0000000000
100
AcDbArc
50
124.0557977426
51
180.0000000000
0
ARC
5
497
100
AcDbEntity
8
0
100
AcDbCircle
62
7
6
CONTINUOUS
10
63.0188218214
20
171.2519526045
40
30.0000000000
100
AcDbArc
50
180.0000000000
51
270.0000000000
0
ARC
5
498
100
AcDbEntity
8
0
100
AcDbCircle
62
7
6
CONTINUOUS
10
111.0188218214
20
262.2519526045
40
75.0000000000
100
AcDbArc
50
52.9023981987
51
127.0976018013
0
ARC
5
499
100
AcDbEntity
8
0
100
AcDbCircle
62
7
6
CONTINUOUS
10
73.0188218214
20
312.5013307101
40
12.0000000000
100
AcDbArc
50
127.0976018013
51
180.0000000000
0
ARC
5
49A
100
AcDbEntity
8
0
100
AcDbCircle
62
7
6
CONTINUOUS
10
73.0188218214
20
189.2519526045
40
12.0000000000
100
AcDbArc
50
180.0000000000
51
217.6560672524
0
ARC
5
49B
100
AcDbEntity
8
0
100
AcDbCircle
62
7
6
CONTINUOUS
10
111.0188218214
20
262.2519526045
40
111.0000000000
100
AcDbArc
50
55.9442022574
51
124.0557977426
0
ARC
5
49C
100
AcDbEntity
8
0
100
AcDbCircle
62
7
6
CONTINUOUS
10
153.0188218214
20
324.3888981362
40
36.0000000000
100
AcDbArc
50
0.0000000000
51
55.9442022574
0
ARC
5
49D
100
AcDbEntity
8
0
100
AcDbCircle
62
7
6
CONTINUOUS
10
159.0188218214
20
171.2519526045
40
30.0000000000
100
AcDbArc
50
270.0000000000
51
360.0000000000
0
ARC
5
49E
100
AcDbEntity
8
0
100
AcDbCircle
62
7
6
CONTINUOUS
10
330.6776266151
20
355.2519526045
40
18.0000000000
100
AcDbArc
50
180.0000000000
51
186.0000000000
0
ARC
5
49F
100
AcDbEntity
8
0
100
AcDbCircle
62
7
6
CONTINUOUS
10
344.8976266151
20
221.8963199329
40
1.2200000000
100
AcDbArc
50
180.0000000000
51
223.6620093383
0
ARC
5
4A0
100
AcDbEntity
8
0
100
AcDbCircle
62
7
6
CONTINUOUS
10
320.3376266151
20
287.4473149935
40
3.6600000000
100
AcDbArc
50
180.0000000000
51
217.3370016598
0
ARC
5
4A1
100
AcDbEntity
8
0
100
AcDbCircle
62
7
6
CONTINUOUS
10
316.4576266151
20
284.4875852761
40
1.2200000000
100
AcDbArc
50
0.0000000000
51
37.3370016598
0
ARC
5
4A2
100
AcDbEntity
8
0
100
AcDbCircle
62
7
6
CONTINUOUS
10
341.0176203016
20
287.4473340952
40
3.6600124537
100
AcDbArc
50
322.6628205324
51
359.9997009716
0
ARC
5
4A3
100
AcDbEntity
8
0
100
AcDbCircle
62
7
6
CONTINUOUS
10
316.4576266151
20
221.8963199329
40
1.2200000000
100
AcDbArc
50
316.3379906602
51
360.0000000000
0
ARC
5
4A4
100
AcDbEntity
8
0
100
AcDbCircle
62
7
6
CONTINUOUS
10
344.8976266151
20
284.4875852761
40
1.2200000000
100
AcDbArc
50
142.6629983402
51
180.0000000000
0
ARC
5
4A5
100
AcDbEntity
8
0
100
AcDbCircle
62
7
6
CONTINUOUS
10
330.6776266151
20
355.2519526045
40
18.0000000000
100
AcDbArc
50
354.0000000000
51
360.0000000000
0
ARC
5
4A6
100
AcDbEntity
8
0
100
AcDbCircle
62
7
6
CONTINUOUS
10
228.1776266151
20
191.7519526045
40
2.5000000000
100
AcDbArc
50
90.0000000000
51
180.0000000000
0
ARC
5
4A7
100
AcDbEntity
8
0
100
AcDbCircle
62
7
6
CONTINUOUS
10
228.1776266151
20
126.7519526045
40
2.5000000000
100
AcDbArc
50
180.0000000000
51
270.0000000000
0
ARC
5
4A8
100
AcDbEntity
8
0
100
AcDbCircle
62
7
6
CONTINUOUS
10
330.6776266151
20
159.2519526045
40
20.0000000000
100
AcDbArc
50
147.0495560320
51
32.9504439680
0
ARC
5
4A9
100
AcDbEntity
8
0
100
AcDbCircle
62
7
6
CONTINUOUS
10
330.6776266151
20
159.2519526045
40
35.0000000000
100
AcDbArc
50
269.9999999996
51
65.7883881643
0
ARC
5
4AA
100
AcDbEntity
8
0
100
AcDbCircle
62
7
6
CONTINUOUS
10
111.0188218214
20
-29.4926585208
40
32.5000000000
100
AcDbArc
50
279.8993519257
51
260.1006480743
0
ARC
5
4AB
100
AcDbEntity
8
0
100
AcDbCircle
62
7
6
CONTINUOUS
10
111.0188218214
20
-29.4926585208
40
42.5000000000
100
AcDbArc
50
310.7524398642
51
229.2475601358
0
ARC
5
4AC
100
AcDbEntity
8
0
100
AcDbCircle
62
7
6
CONTINUOUS
10
39.3792937257
20
-68.9926585208
40
2.5000000000
100
AcDbArc
50
90.0000000000
51
150.0000000000
0
ARC
5
4AD
100
AcDbEntity
8
0
100
AcDbCircle
62
7
6
CONTINUOUS
10
182.6583499171
20
-89.9926585208
40
2.5000000000
100
AcDbArc
50
270.0000000000
51
330.0000000000
0
ARC
5
4AE
100
AcDbEntity
8
0
100
AcDbCircle
62
7
6
CONTINUOUS
10
39.3792937257
20
-89.9926585208
40
2.5000000000
100
AcDbArc
50
210.0000000000
51
270.0000000000
0
ARC
5
4AF
100
AcDbEntity
8
0
100
AcDbCircle
62
7
6
CONTINUOUS
10
182.6583499171
20
-68.9926585208
40
2.5000000000
100
AcDbArc
50
30.0000000000
51
90.0000000000
0
ARC
5
4B0
100
AcDbEntity
8
0
100
AcDbCircle
62
7
6
CONTINUOUS
10
66.0188218214
20
-111.9926585208
40
2.5000000000
100
AcDbArc
50
180.0000000000
51
270.0000000000
0
ARC
5
4B1
100
AcDbEntity
8
0
100
AcDbCircle
62
7
6
CONTINUOUS
10
156.0188218214
20
-111.9926585208
40
2.5000000000
100
AcDbArc
50
270.0000000000
51
360.0000000000
0
ARC
5
4B2
100
AcDbEntity
8
0
100
AcDbCircle
62
7
6
CONTINUOUS
10
111.0188218214
20
-21.9926585208
40
47.5000000000
100
AcDbArc
50
0.0000000000
51
180.0000000000
0
ARC
5
4B3
100
AcDbEntity
8
0
100
AcDbCircle
62
7
6
CONTINUOUS
10
111.0188218214
20
-21.9926585208
40
48.0000000000
100
AcDbArc
50
71.1869191451
51
100.7886950718
0
ARC
5
4B4
100
AcDbEntity
8
0
100
AcDbCircle
62
7
6
CONTINUOUS
10
111.0188218214
20
-21.9926585208
40
48.0000000000
100
AcDbArc
50
100.8069228749
51
111.8934049716
0
SPLINE
5
4B5
100
AcDbEntity
8
0
100
AcDbSpline
62
7
6
CONTINUOUS
70
0
71
3
72
12
73
8
74
6
42
0.0000001000
43
0.0000001000
44
0.0000000001
40
0.0000000000
40
0.0000000000
40
0.0000000000
40
0.0000000000
40
0.1856877156
40
0.3745052358
40
0.5699775748
40
0.7763940122
40
1.0000000000
40
1.0000000000
40
1.0000000000
40
1.0000000000
10
82.8729961985
20
228.7519526046
30
0.0000000000
10
83.4877669364
20
228.7519526045
30
0.0000000000
10
84.7291180581
20
228.6698489404
30
0.0000000000
10
86.5853265873
20
228.3062961028
30
0.0000000000
10
88.4524971770
20
227.7119095259
30
0.0000000000
10
90.3565813108
20
226.8907831671
30
0.0000000000
10
91.6138110608
20
226.2193245395
30
0.0000000000
10
92.2549380727
20
225.8491696865
30
0.0000000000
11
82.8729961985
21
228.7519526046
31
0.0000000000
11
84.7134031421
21
228.6319950166
31
0.0000000000
11
86.5547737414
21
228.2763635303
31
0.0000000000
11
88.4068003503
21
227.6937783238
31
0.0000000000
11
90.2923159898
21
226.8887083849
31
0.0000000000
11
92.2549380727
21
225.8491696865
31
0.0000000000
0
SPLINE
5
4B6
100
AcDbEntity
8
0
100
AcDbSpline
62
7
6
CONTINUOUS
70
0
71
3
72
12
73
8
74
6
42
0.0000001000
43
0.0000001000
44
0.0000000001
40
0.0000000000
40
0.0000000000
40
0.0000000000
40
0.0000000000
40
0.2119285342
40
0.4139998802
40
0.6110430241
40
0.8058712205
40
1.0000000000
40
1.0000000000
40
1.0000000000
40
1.0000000000
10
92.2549380727
20
225.8491696865
30
0.0000000000
10
93.5478077355
20
226.2223890104
30
0.0000000000
10
96.0889233542
20
226.8995147891
30
0.0000000000
10
99.8835291837
20
227.7162497007
30
0.0000000000
10
103.6101978538
20
228.3083433971
30
0.0000000000
10
107.3157131328
20
228.6704194750
30
0.0000000000
10
109.7861817340
20
228.7519526046
30
0.0000000000
10
111.0188218214
20
228.7519526047
30
0.0000000000
11
92.2549380727
21
225.8491696865
31
0.0000000000
11
96.1572466713
21
226.8832051109
31
0.0000000000
11
99.9213444019
21
227.6882124825
31
0.0000000000
11
103.6289448665
21
228.2729997518
31
0.0000000000
11
107.3228798336
21
228.6310101058
31
0.0000000000
11
111.0188218214
21
228.7519526047
31
0.0000000000
0
SPLINE
5
4B7
100
AcDbEntity
8
0
100
AcDbSpline
62
7
6
CONTINUOUS
70
0
71
3
72
12
73
8
74
6
42
0.0000001000
43
0.0000001000
44
0.0000000001
40
0.0000000000
40
0.0000000000
40
0.0000000000
40
0.0000000000
40
0.1951318849
40
0.3907034347
40
0.5879968532
40
0.7895832323
40
1.0000000000
40
1.0000000000
40
1.0000000000
40
1.0000000000
10
111.0188218214
20
228.7519526047
30
0.0000000000
10
112.2578308879
20
228.7519526046
30
0.0000000000
10
114.7393993755
20
228.6696256957
30
0.0000000000
10
118.4573919655
20
228.3046543955
30
0.0000000000
10
122.1869267660
20
227.7100141605
30
0.0000000000
10
125.9703153193
20
226.8939526044
30
0.0000000000
10
128.4990587874
20
226.2197265943
30
0.0000000000
10
129.7827055701
20
225.8491696865
30
0.0000000000
11
111.0188218214
21
228.7519526047
31
0.0000000000
11
114.7338400949
21
228.6297624646
31
0.0000000000
11
118.4417105048
21
228.2687649188
31
0.0000000000
11
122.1537014115
21
227.6812239842
31
0.0000000000
11
125.9084059888
21
226.8764749558
31
0.0000000000
11
129.7827055701
21
225.8491696865
31
0.0000000000
0
SPLINE
5
4B8
100
AcDbEntity
8
0
100
AcDbSpline
62
7
6
CONTINUOUS
70
0
71
3
72
12
73
8
74
6
42
0.0000001000
43
0.0000001000
44
0.0000000001
40
0.0000000000
40
0.0000000000
40
0.0000000000
40
0.0000000000
40
0.2236101576
40
0.4300770875
40
0.6255530448
40
0.8143503317
40
1.0000000000
40
1.0000000000
40
1.0000000000
40
1.0000000000
10
129.7827055701
20
225.8491696865
30
0.0000000000
10
130.4238445583
20
226.2193314540
30
0.0000000000
10
131.6812344510
20
226.8908746260
30
0.0000000000
10
133.5855072095
20
227.7120562030
30
0.0000000000
10
135.4528037591
20
228.3064196348
30
0.0000000000
10
137.3088452779
20
228.6698789181
30
0.0000000000
10
138.5500026530
20
228.7519526045
30
0.0000000000
10
139.1646474445
20
228.7519526046
30
0.0000000000
11
129.7827055701
21
225.8491696865
31
0.0000000000
11
131.7453650904
21
226.8887263391
31
0.0000000000
11
133.6313528033
21
227.6939679722
31
0.0000000000
11
135.4834317173
21
228.2765068698
31
0.0000000000
11
137.3246159620
21
228.6320438013
31
0.0000000000
11
139.1646474445
21
228.7519526046
31
0.0000000000
0
SPLINE
5
4B9
100
AcDbEntity
8
0
100
AcDbSpline
62
7
6
CONTINUOUS
70
0
71
3
72
12
73
8
74
6
42
0.0000001000
43
0.0000001000
44
0.0000000001
40
0.0000000000
40
0.0000000000
40
0.0000000000
40
0.0000000000
40
0.1856877156
40
0.3745052358
40
0.5699775748
40
0.7763940122
40
1.0000000000
40
1.0000000000
40
1.0000000000
40
1.0000000000
10
139.1646474445
20
228.7519526046
30
0.0000000000
10
139.7794181824
20
228.7519526045
30
0.0000000000
10
141.0207693040
20
228.6698489404
30
0.0000000000
10
142.8769778333
20
228.3062961028
30
0.0000000000
10
144.7441484230
20
227.7119095259
30
0.0000000000
10
146.6482325568
20
226.8907831671
30
0.0000000000
10
147.9054623067
20
226.2193245395
30
0.0000000000
10
148.5465893187
20
225.8491696865
30
0.0000000000
11
139.1646474445
21
228.7519526046
31
0.0000000000
11
141.0050543881
21
228.6319950166
31
0.0000000000
11
142.8464249874
21
228.2763635303
31
0.0000000000
11
144.6984515963
21
227.6937783238
31
0.0000000000
11
146.5839672357
21
226.8887083849
31
0.0000000000
11
148.5465893187
21
225.8491696865
31
0.0000000000
0
SPLINE
5
4BA
100
AcDbEntity
8
0
100
AcDbSpline
62
7
6
CONTINUOUS
70
0
71
3
72
12
73
8
74
6
42
0.0000001000
43
0.0000001000
44
0.0000000001
40
0.0000000000
40
0.0000000000
40
0.0000000000
40
0.0000000000
40
0.2236101576
40
0.4300770875
40
0.6255530448
40
0.8143503317
40
1.0000000000
40
1.0000000000
40
1.0000000000
40
1.0000000000
10
73.4910543241
20
225.8491696865
30
0.0000000000
10
74.1321933123
20
226.2193314540
30
0.0000000000
10
75.3895832049
20
226.8908746260
30
0.0000000000
10
77.2938559634
20
227.7120562029
30
0.0000000000
10
79.1611525130
20
228.3064196347
30
0.0000000000
10
81.0171940318
20
228.6698789181
30
0.0000000000
10
82.2583514069
20
228.7519526044
30
0.0000000000
10
82.8729961985
20
228.7519526046
30
0.0000000000
11
73.4910543241
21
225.8491696865
31
0.0000000000
11
75.4537138443
21
226.8887263391
31
0.0000000000
11
77.3397015572
21
227.6939679721
31
0.0000000000
11
79.1917804712
21
228.2765068697
31
0.0000000000
11
81.0329647158
21
228.6320438013
31
0.0000000000
11
82.8729961985
21
228.7519526046
31
0.0000000000
0
SPLINE
5
4BB
100
AcDbEntity
8
DEFAULT_2
100
AcDbSpline
62
8
6
HIDDEN
70
0
71
3
72
18
73
14
74
12
42
0.0000001000
43
0.0000001000
44
0.0000000001
40
0.0000000000
40
0.0000000000
40
0.0000000000
40
0.0000000000
40
0.0908804325
40
0.1818183483
40
0.2728273895
40
0.3636823434
40
0.4546819978
40
0.5455053388
40
0.6364976095
40
0.7273354887
40
0.8182903795
40
0.9091848707
40
1.0000000000
40
1.0000000000
40
1.0000000000
40
1.0000000000
10
328.8777867957
20
337.2519525081
30
0.0000000000
10
328.1676121963
20
337.2519524930
30
0.0000000000
10
326.7450004527
20
337.3466297562
30
0.0000000000
10
324.6494799587
20
337.7706686500
30
0.0000000000
10
322.6287179803
20
338.4695290162
30
0.0000000000
10
320.7185262459
20
339.4310942112
30
0.0000000000
10
318.9543722100
20
340.6374232801
30
0.0000000000
10
317.3656074560
20
342.0684076935
30
0.0000000000
10
315.9820988617
20
343.6970703432
30
0.0000000000
10
314.8269348613
20
345.4960650733
30
0.0000000000
10
313.9214110651
20
347.4320466043
30
0.0000000000
10
313.2812288346
20
349.4706002660
30
0.0000000000
10
313.0385472889
20
350.8746830186
30
0.0000000000
10
312.9643671599
20
351.5804596972
30
0.0000000000
11
328.8777867957
21
337.2519525081
31
0.0000000000
11
326.7519734579
21
337.3935480867
31
0.0000000000
11
324.6624490737
21
337.8163523619
31
0.0000000000
11
322.6461079576
21
338.5137448453
31
0.0000000000
11
320.7436329859
21
339.4714378394
31
0.0000000000
11
318.9826594140
21
340.6756059784
31
0.0000000000
11
317.4005890428
21
342.1005564267
31
0.0000000000
11
316.0195433926
21
343.7262941714
31
0.0000000000
11
314.8689148940
21
345.5182026390
31
0.0000000000
11
313.9654686468
21
347.4496159550
31
0.0000000000
11
313.3270701710
21
349.4825900087
31
0.0000000000
11
312.9643671599
21
351.5804596972
31
0.0000000000
0
SPLINE
5
4BC
100
AcDbEntity
8
DEFAULT_2
100
AcDbSpline
62
8
6
HIDDEN
70
0
71
3
72
18
73
14
74
12
42
0.0000001000
43
0.0000001000
44
0.0000000001
40
0.0000000000
40
0.0000000000
40
0.0000000000
40
0.0000000000
40
0.0908356366
40
0.1817758528
40
0.2727530483
40
0.3636101571
40
0.4545883506
40
0.5454117625
40
0.6364077860
40
0.7272445877
40
0.8182229320
40
0.9091176753
40
1.0000000000
40
1.0000000000
40
1.0000000000
40
1.0000000000
10
348.3908860704
20
351.5804596972
30
0.0000000000
10
348.3166891904
20
350.8745236444
30
0.0000000000
10
348.0738978739
20
349.4699308905
30
0.0000000000
10
347.4333759068
20
347.4307495253
30
0.0000000000
10
346.5273411565
20
345.4942489878
30
0.0000000000
10
345.3717996855
20
343.6952371183
30
0.0000000000
10
343.9880251323
20
342.0667500858
30
0.0000000000
10
342.3991658213
20
340.6360767789
30
0.0000000000
10
340.6349896115
20
339.4300824841
30
0.0000000000
10
338.7250531109
20
338.4689308695
30
0.0000000000
10
336.7049185387
20
337.7704756525
30
0.0000000000
10
334.6099452064
20
337.3466103923
30
0.0000000000
10
333.1876558201
20
337.2519524930
30
0.0000000000
10
332.4774664346
20
337.2519525081
30
0.0000000000
11
348.3908860704
21
351.5804596972
31
0.0000000000
11
348.0280696027
21
349.4821217359
31
0.0000000000
11
347.3892205340
21
347.4481656333
31
0.0000000000
11
346.4853332481
21
345.5163813647
31
0.0000000000
11
345.3342027709
21
343.7242595178
31
0.0000000000
11
343.9531301900
21
342.0989776905
31
0.0000000000
11
342.3708623085
21
340.6742440771
31
0.0000000000
11
340.6097963045
21
339.4703619436
31
0.0000000000
11
338.7075874226
21
338.5130868094
31
0.0000000000
11
336.6918684419
21
337.8160971719
31
0.0000000000
11
334.6033238361
21
337.3935539838
31
0.0000000000
11
332.4774664346
21
337.2519525081
31
0.0000000000
0
SPLINE
5
4BD
100
AcDbEntity
8
0
100
AcDbSpline
62
7
6
CONTINUOUS
70
0
71
3
72
8
73
4
74
2
42
0.0000001000
43
0.0000001000
44
0.0000000001
40
0.0000000000
40
0.0000000000
40
0.0000000000
40
0.0000000000
40
1.0000000000
40
1.0000000000
40
1.0000000000
40
1.0000000000
10
345.0302520454
20
218.5240409292
30
0.0000000000
10
345.0302483743
20
218.5558089113
30
0.0000000000
10
345.0298320807
20
218.5875837470
30
0.0000000000
10
345.0290033181
20
218.6193527290
30
0.0000000000
11
345.0302520454
21
218.5240409292
31
0.0000000000
11
345.0290033181
21
218.6193527290
31
0.0000000000
0
SPLINE
5
4BE
100
AcDbEntity
8
0
100
AcDbSpline
62
7
6
CONTINUOUS
70
0
71
3
72
11
73
7
74
5
42
0.0000001000
43
0.0000001000
44
0.0000000001
40
0.0000000000
40
0.0000000000
40
0.0000000000
40
0.0000000000
40
0.1728714962
40
0.5040328438
40
0.8351838110
40
1.0000000000
40
1.0000000000
40
1.0000000000
40
1.0000000000
10
345.0290033181
20
218.6193527290
30
0.0000000000
10
345.0255259027
20
218.7526526051
30
0.0000000000
10
344.9942141124
20
219.1410079606
30
0.0000000000
10
344.8401990975
20
219.7698394239
30
0.0000000000
10
344.5617747646
20
220.3474057440
30
0.0000000000
10
344.3433198375
20
220.6623857818
30
0.0000000000
10
344.2655465762
20
220.7629623783
30
0.0000000000
11
345.0290033181
21
218.6193527290
31
0.0000000000
11
344.9967970311
21
219.0180044840
31
0.0000000000
11
344.8149942432
21
219.7607986101
31
0.0000000000
11
344.4828227855
21
220.4495807449
31
0.0000000000
11
344.2655465762
21
220.7629623783
31
0.0000000000
0
SPLINE
5
4BF
100
AcDbEntity
8
0
100
AcDbSpline
62
7
6
CONTINUOUS
70
0
71
3
72
8
73
4
74
2
42
0.0000001000
43
0.0000001000
44
0.0000000001
40
0.0000000000
40
0.0000000000
40
0.0000000000
40
0.0000000000
40
1.0000000000
40
1.0000000000
40
1.0000000000
40
1.0000000000
10
344.2655465762
20
220.7629623783
30
0.0000000000
10
344.1873554768
20
220.8640793240
30
0.0000000000
10
344.1039306784
20
220.9610568745
30
0.0000000000
10
344.0157902786
20
221.0532507815
30
0.0000000000
11
344.2655465762
21
220.7629623783
31
0.0000000000
11
344.0157902786
21
221.0532507815
31
0.0000000000
0
SPLINE
5
4C0
100
AcDbEntity
8
0
100
AcDbSpline
62
7
6
CONTINUOUS
70
0
71
3
72
8
73
4
74
2
42
0.0000001000
43
0.0000001000
44
0.0000000001
40
0.0000000000
40
0.0000000000
40
0.0000000000
40
0.0000000000
40
1.0000000000
40
1.0000000000
40
1.0000000000
40
1.0000000000
10
348.6776400683
20
164.2511614667
30
0.0000000000
10
348.6776363186
20
164.2546498697
30
0.0000000000
10
348.6776312804
20
164.2582734400
30
0.0000000000
10
348.6776248566
20
164.2620135034
30
0.0000000000
11
348.6776400683
21
164.2511614667
31
0.0000000000
11
348.6776248566
21
164.2620135034
31
0.0000000000
0
SPLINE
5
4C1
100
AcDbEntity
8
0
100
AcDbSpline
62
7
6
CONTINUOUS
70
0
71
3
72
8
73
4
74
2
42
0.0000001000
43
0.0000001000
44
0.0000000001
40
0.0000000000
40
0.0000000000
40
0.0000000000
40
0.0000000000
40
1.0000000000
40
1.0000000000
40
1.0000000000
40
1.0000000000
10
312.7064435078
20
156.7893521505
30
0.0000000000
10
312.6969759191
20
156.9497668654
30
0.0000000000
10
312.6897813182
20
157.1103263608
30
0.0000000000
10
312.6850079019
20
157.2709569249
30
0.0000000000
11
312.7064435078
21
156.7893521505
31
0.0000000000
11
312.6850079019
21
157.2709569249
31
0.0000000000
0
SPLINE
5
4C2
100
AcDbEntity
8
0
100
AcDbSpline
62
7
6
CONTINUOUS
70
0
71
3
72
8
73
4
74
2
42
0.0000001000
43
0.0000001000
44
0.0000000001
40
0.0000000000
40
0.0000000000
40
0.0000000000
40
0.0000000000
40
1.0000000000
40
1.0000000000
40
1.0000000000
40
1.0000000000
10
312.6850079019
20
157.2709569249
30
0.0000000000
10
312.6801169985
20
157.4355410560
30
0.0000000000
10
312.6777679305
20
157.6001997972
30
0.0000000000
10
312.6776266151
20
157.7648487194
30
0.0000000000
11
312.6850079019
21
157.2709569249
31
0.0000000000
11
312.6776266151
21
157.7648487194
31
0.0000000000
0
SPLINE
5
4C3
100
AcDbEntity
8
0
100
AcDbSpline
62
7
6
CONTINUOUS
70
0
71
3
72
8
73
4
74
2
42
0.0000001000
43
0.0000001000
44
0.0000000001
40
0.0000000000
40
0.0000000000
40
0.0000000000
40
0.0000000000
40
1.0000000000
40
1.0000000000
40
1.0000000000
40
1.0000000000
10
348.6760987436
20
356.5581321645
30
0.0000000000
10
348.6703732791
20
356.9999804831
30
0.0000000000
10
348.6471653881
20
357.4419966464
30
0.0000000000
10
348.6066146256
20
357.8825618936
30
0.0000000000
11
348.6760987436
21
356.5581321645
31
0.0000000000
11
348.6066146256
21
357.8825618936
31
0.0000000000
0
SPLINE
5
4C4
100
AcDbEntity
8
0
100
AcDbSpline
62
7
6
CONTINUOUS
70
0
71
3
72
8
73
4
74
2
42
0.0000001000
43
0.0000001000
44
0.0000000001
40
0.0000000000
40
0.0000000000
40
0.0000000000
40
0.0000000000
40
1.0000000000
40
1.0000000000
40
1.0000000000
40
1.0000000000
10
348.6066146256
20
357.8825618936
30
0.0000000000
10
348.5660506544
20
358.3232706460
30
0.0000000000
10
348.5081325117
20
358.7625275370
30
0.0000000000
10
348.4329998887
20
359.1987122236
30
0.0000000000
11
348.6066146256
21
357.8825618936
31
0.0000000000
11
348.4329998887
21
359.1987122236
31
0.0000000000
0
SPLINE
5
4C5
100
AcDbEntity
8
0
100
AcDbSpline
62
7
6
CONTINUOUS
70
0
71
3
72
8
73
4
74
2
42
0.0000001000
43
0.0000001000
44
0.0000000001
40
0.0000000000
40
0.0000000000
40
0.0000000000
40
0.0000000000
40
1.0000000000
40
1.0000000000
40
1.0000000000
40
1.0000000000
10
348.4329998887
20
359.1987122236
30
0.0000000000
10
348.3577096248
20
359.6358120990
30
0.0000000000
10
348.2651323618
20
360.0698265127
30
0.0000000000
10
348.1556191653
20
360.4994856416
30
0.0000000000
11
348.4329998887
21
359.1987122236
31
0.0000000000
11
348.1556191653
21
360.4994856416
31
0.0000000000
0
SPLINE
5
4C6
100
AcDbEntity
8
0
100
AcDbSpline
62
7
6
CONTINUOUS
70
0
71
3
72
8
73
4
74
2
42
0.0000001000
43
0.0000001000
44
0.0000000001
40
0.0000000000
40
0.0000000000
40
0.0000000000
40
0.0000000000
40
1.0000000000
40
1.0000000000
40
1.0000000000
40
1.0000000000
10
348.1556191653
20
360.4994856416
30
0.0000000000
10
348.0463736180
20
360.9280946872
30
0.0000000000
10
347.9202748188
20
361.3523697110
30
0.0000000000
10
347.7776712660
20
361.7710501786
30
0.0000000000
11
348.1556191653
21
360.4994856416
31
0.0000000000
11
347.7776712660
21
361.7710501786
31
0.0000000000
0
SPLINE
5
4C7
100
AcDbEntity
8
0
100
AcDbSpline
62
7
6
CONTINUOUS
70
0
71
3
72
8
73
4
74
2
42
0.0000001000
43
0.0000001000
44
0.0000000001
40
0.0000000000
40
0.0000000000
40
0.0000000000
40
0.0000000000
40
1.0000000000
40
1.0000000000
40
1.0000000000
40
1.0000000000
10
347.7776712660
20
361.7710501786
30
0.0000000000
10
347.6347591864
20
362.1906364729
30
0.0000000000
10
347.4752700882
20
362.6046040118
30
0.0000000000
10
347.2997602568
20
363.0116747652
30
0.0000000000
11
347.7776712660
21
361.7710501786
31
0.0000000000
11
347.2997602568
21
363.0116747652
31
0.0000000000
0
SPLINE
5
4C8
100
AcDbEntity
8
0
100
AcDbSpline
62
7
6
CONTINUOUS
70
0
71
3
72
8
73
4
74
2
42
0.0000001000
43
0.0000001000
44
0.0000000001
40
0.0000000000
40
0.0000000000
40
0.0000000000
40
0.0000000000
40
1.0000000000
40
1.0000000000
40
1.0000000000
40
1.0000000000
10
347.2997602568
20
363.0116747652
30
0.0000000000
10
347.1244491946
20
363.4182845008
30
0.0000000000
10
346.9331536695
20
363.8180130635
30
0.0000000000
10
346.7264280875
20
364.2095867602
30
0.0000000000
11
347.2997602568
21
363.0116747652
31
0.0000000000
11
346.7264280875
21
364.2095867602
31
0.0000000000
0
SPLINE
5
4C9
100
AcDbEntity
8
0
100
AcDbSpline
62
7
6
CONTINUOUS
70
0
71
3
72
8
73
4
74
2
42
0.0000001000
43
0.0000001000
44
0.0000000001
40
0.0000000000
40
0.0000000000
40
0.0000000000
40
0.0000000000
40
1.0000000000
40
1.0000000000
40
1.0000000000
40
1.0000000000
10
346.7264280875
20
364.2095867602
30
0.0000000000
10
346.6435165901
20
364.3666353521
30
0.0000000000
10
346.5581229044
20
364.5223720718
30
0.0000000000
10
346.4702949801
20
364.6767230344
30
0.0000000000
11
346.7264280875
21
364.2095867602
31
0.0000000000
11
346.4702949801
21
364.6767230344
31
0.0000000000
0
SPLINE
5
4CA
100
AcDbEntity
8
0
100
AcDbSpline
62
7
6
CONTINUOUS
70
0
71
3
72
14
73
10
74
8
42
0.0000001000
43
0.0000001000
44
0.0000000001
40
0.0000000000
40
0.0000000000
40
0.0000000000
40
0.0000000000
40
0.1267114760
40
0.2848364347
40
0.4431683351
40
0.6018393754
40
0.7609551044
40
0.9205963067
40
1.0000000000
40
1.0000000000
40
1.0000000000
40
1.0000000000
10
346.4702949801
20
364.6767230344
30
0.0000000000
10
346.1181702609
20
365.2955557105
30
0.0000000000
10
345.2386674066
20
366.6365661235
30
0.0000000000
10
343.5869473203
20
368.5104457638
30
0.0000000000
10
341.5230145608
20
370.2169373269
30
0.0000000000
10
339.2123433511
20
371.5816601042
30
0.0000000000
10
336.7092323175
20
372.5699458897
30
0.0000000000
10
334.5188401288
20
373.0565577717
30
0.0000000000
10
333.1807370989
20
373.1917270656
30
0.0000000000
10
332.7353255324
20
373.2192544086
30
0.0000000000
11
346.4702949801
21
364.6767230344
31
0.0000000000
11
345.2996265406
21
366.4616352770
31
0.0000000000
11
343.5389784062
21
368.4592627460
31
0.0000000000
11
341.4842204295
21
370.1583618847
31
0.0000000000
11
339.1836224024
21
371.5172966731
31
0.0000000000
11
336.6914658826
21
372.5015145411
31
0.0000000000
11
334.0671507999
21
373.0846078451
31
0.0000000000
11
332.7353255324
21
373.2192544086
31
0.0000000000
0
SPLINE
5
4CB
100
AcDbEntity
8
0
100
AcDbSpline
62
7
6
CONTINUOUS
70
0
71
3
72
8
73
4
74
2
42
0.0000001000
43
0.0000001000
44
0.0000000001
40
0.0000000000
40
0.0000000000
40
0.0000000000
40
0.0000000000
40
1.0000000000
40
1.0000000000
40
1.0000000000
40
1.0000000000
10
332.7353255324
20
373.2192544086
30
0.0000000000
10
332.3831392058
20
373.2410202417
30
0.0000000000
10
332.0303695374
20
373.2519250706
30
0.0000000000
10
331.6778125795
20
373.2519435627
30
0.0000000000
11
332.7353255324
21
373.2192544086
31
0.0000000000
11
331.6778125795
21
373.2519435627
31
0.0000000000
0
SPLINE
5
4CC
100
AcDbEntity
8
0
100
AcDbSpline
62
7
6
CONTINUOUS
70
0
71
3
72
9
73
5
74
3
42
0.0000001000
43
0.0000001000
44
0.0000000001
40
0.0000000000
40
0.0000000000
40
0.0000000000
40
0.0000000000
40
0.3084402544
40
1.0000000000
40
1.0000000000
40
1.0000000000
40
1.0000000000
10
348.6764737280
20
356.5306933479
30
0.0000000000
10
348.6764491599
20
356.5326718382
30
0.0000000000
10
348.6763681023
20
356.5390936496
30
0.0000000000
10
348.6762824178
20
356.5455357560
30
0.0000000000
10
348.6762305493
20
356.5493476774
30
0.0000000000
11
348.6764737280
21
356.5306933479
31
0.0000000000
11
348.6763987169
21
356.5366352592
31
0.0000000000
11
348.6762305493
21
356.5493476774
31
0.0000000000
0
SPLINE
5
4CD
100
AcDbEntity
8
0
100
AcDbSpline
62
7
6
CONTINUOUS
70
0
71
3
72
8
73
4
74
2
42
0.0000001000
43
0.0000001000
44
0.0000000001
40
0.0000000000
40
0.0000000000
40
0.0000000000
40
0.0000000000
40
1.0000000000
40
1.0000000000
40
1.0000000000
40
1.0000000000
10
348.6762305493
20
356.5493476774
30
0.0000000000
10
348.6761462997
20
356.5555393516
30
0.0000000000
10
348.6760815406
20
356.5600341075
30
0.0000000000
10
348.6760774128
20
356.5600340588
30
0.0000000000
11
348.6762305493
21
356.5493476774
31
0.0000000000
11
348.6760774128
21
356.5600340588
31
0.0000000000
0
SPLINE
5
4CE
100
AcDbEntity
8
0
100
AcDbSpline
62
7
6
CONTINUOUS
70
0
71
3
72
8
73
4
74
2
42
0.0000001000
43
0.0000001000
44
0.0000000001
40
0.0000000000
40
0.0000000000
40
0.0000000000
40
0.0000000000
40
1.0000000000
40
1.0000000000
40
1.0000000000
40
1.0000000000
10
348.6760774128
20
356.5600340588
30
0.0000000000
10
348.6760759178
20
356.5600340400
30
0.0000000000
10
348.6760823765
20
356.5594443867
30
0.0000000000
10
348.6760987436
20
356.5581321645
30
0.0000000000
11
348.6760774128
21
356.5600340588
31
0.0000000000
11
348.6760987436
21
356.5581321645
31
0.0000000000
0
SPLINE
5
4CF
100
AcDbEntity
8
0
100
AcDbSpline
62
7
6
CONTINUOUS
70
0
71
3
72
8
73
4
74
2
42
0.0000001000
43
0.0000001000
44
0.0000000001
40
0.0000000000
40
0.0000000000
40
0.0000000000
40
0.0000000000
40
1.0000000000
40
1.0000000000
40
1.0000000000
40
1.0000000000
10
317.3394629532
20
221.0532507816
30
0.0000000000
10
317.2513236803
20
220.9610580448
30
0.0000000000
10
317.1678993385
20
220.8640801147
30
0.0000000000
10
317.0897076125
20
220.7629616370
30
0.0000000000
11
317.3394629532
21
221.0532507816
31
0.0000000000
11
317.0897076125
21
220.7629616370
31
0.0000000000
0
SPLINE
5
4D0
100
AcDbEntity
8
0
100
AcDbSpline
62
7
6
CONTINUOUS
70
0
71
3
72
21
73
17
74
15
42
0.0000001000
43
0.0000001000
44
0.0000000001
40
0.0000000000
40
0.0000000000
40
0.0000000000
40
0.0000000000
40
0.0046731518
40
0.0674904101
40
0.1352788955
40
0.2075138172
40
0.2837283125
40
0.3635036983
40
0.4464613990
40
0.5322561359
40
0.6205701364
40
0.7111081644
40
0.8035932140
40
0.8977627390
40
0.9933653127
40
1.0000000000
40
1.0000000000
40
1.0000000000
40
1.0000000000
10
312.6776266058
20
164.0188356756
30
0.0000000000
10
312.6776261365
20
164.0183343123
30
0.0000000000
10
312.6776193698
20
164.0110935424
30
0.0000000000
10
312.6776061997
20
163.9965800229
30
0.0000000000
10
312.6775887590
20
163.9748180753
30
0.0000000000
10
312.6775736254
20
163.9516187903
30
0.0000000000
10
312.6775620039
20
163.9271334771
30
0.0000000000
10
312.6775547916
20
163.9014977585
30
0.0000000000
10
312.6775525362
20
163.8748342136
30
0.0000000000
10
312.6775554130
20
163.8472545954
30
0.0000000000
10
312.6775632130
20
163.8188617154
30
0.0000000000
10
312.6775753371
20
163.7897510604
30
0.0000000000
10
312.6775908028
20
163.7600121914
30
0.0000000000
10
312.6776082330
20
163.7297299687
30
0.0000000000
10
312.6776203646
20
163.7086582827
30
0.0000000000
10
312.6776262673
20
163.6976896621
30
0.0000000000
10
312.6776266486
20
163.6969778534
30
0.0000000000
11
312.6776266058
21
164.0188356756
31
0.0000000000
11
312.6776252003
21
164.0173315856
31
0.0000000000
11
312.6776070273
21
163.9971133652
31
0.0000000000
11
312.6775896663
21
163.9752951150
31
0.0000000000
11
312.6775745740
21
163.9520457422
31
0.0000000000
11
312.6775629574
21
163.9275155103
31
0.0000000000
11
312.6775557132
21
163.9018391760
31
0.0000000000
11
312.6775533884
21
163.8751385878
31
0.0000000000
11
312.6775561577
21
163.8475248771
31
0.0000000000
11
312.6775638107
21
163.8191003225
31
0.0000000000
11
312.6775757477
21
163.7899599487
31
0.0000000000
11
312.6775909819
21
163.7601929120
31
0.0000000000
11
312.6776081452
21
163.7298837147
31
0.0000000000
11
312.6776254994
21
163.6991132794
31
0.0000000000
11
312.6776266486
21
163.6969778534
31
0.0000000000
0
SPLINE
5
4D1
100
AcDbEntity
8
0
100
AcDbSpline
62
7
6
CONTINUOUS
70
0
71
3
72
8
73
4
74
2
42
0.0000001000
43
0.0000001000
44
0.0000000001
40
0.0000000000
40
0.0000000000
40
0.0000000000
40
0.0000000000
40
1.0000000000
40
1.0000000000
40
1.0000000000
40
1.0000000000
10
312.6776464128
20
164.2773246439
30
0.0000000000
10
312.6776388339
20
164.2729705040
30
0.0000000000
10
312.6776330401
20
164.2686490225
30
0.0000000000
10
312.6776288714
20
164.2643903622
30
0.0000000000
11
312.6776464128
21
164.2773246439
31
0.0000000000
11
312.6776288714
21
164.2643903622
31
0.0000000000
0
SPLINE
5
4D2
100
AcDbEntity
8
0
100
AcDbSpline
62
7
6
CONTINUOUS
70
0
71
3
72
8
73
4
74
2
42
0.0000001000
43
0.0000001000
44
0.0000000001
40
0.0000000000
40
0.0000000000
40
0.0000000000
40
0.0000000000
40
1.0000000000
40
1.0000000000
40
1.0000000000
40
1.0000000000
10
312.6776288714
20
164.2643903622
30
0.0000000000
10
312.6776244751
20
164.2598991756
30
0.0000000000
10
312.6776218862
20
164.2554778576
30
0.0000000000
10
312.6776209170
20
164.2511617863
30
0.0000000000
11
312.6776288714
21
164.2643903622
31
0.0000000000
11
312.6776209170
21
164.2511617863
31
0.0000000000
0
SPLINE
5
4D3
100
AcDbEntity
8
0
100
AcDbSpline
62
7
6
CONTINUOUS
70
0
71
3
72
9
73
5
74
3
42
0.0000001000
43
0.0000001000
44
0.0000000001
40
0.0000000000
40
0.0000000000
40
0.0000000000
40
0.0000000000
40
0.7666949957
40
1.0000000000
40
1.0000000000
40
1.0000000000
40
1.0000000000
10
314.8850025795
20
364.6768161956
30
0.0000000000
10
314.8184367406
20
364.5598259576
30
0.0000000000
10
314.7334352004
20
364.4061914831
30
0.0000000000
10
314.6508460958
20
364.2512628622
30
0.0000000000
10
314.6317094382
20
364.2150477046
30
0.0000000000
11
314.8850025795
21
364.6768161956
31
0.0000000000
11
314.6895143104
21
364.3234836654
31
0.0000000000
11
314.6317094382
21
364.2150477046
31
0.0000000000
0
SPLINE
5
4D4
100
AcDbEntity
8
0
100
AcDbSpline
62
7
6
CONTINUOUS
70
0
71
3
72
11
73
7
74
5
42
0.0000001000
43
0.0000001000
44
0.0000000001
40
0.0000000000
40
0.0000000000
40
0.0000000000
40
0.0000000000
40
0.2029007509
40
0.4902621831
40
0.7700818700
40
1.0000000000
40
1.0000000000
40
1.0000000000
40
1.0000000000
10
314.6317094382
20
364.2150477046
30
0.0000000000
10
314.5896697898
20
364.1354897941
30
0.0000000000
10
314.4896276465
20
363.9424458826
30
0.0000000000
10
314.3383656117
20
363.6362319080
30
0.0000000000
10
314.1889193524
20
363.3158572092
30
0.0000000000
10
314.0974862026
20
363.1091063361
30
0.0000000000
10
314.0570935374
20
363.0154849946
30
0.0000000000
11
314.6317094382
21
364.2150477046
31
0.0000000000
11
314.5075037069
21
363.9753768634
31
0.0000000000
11
314.3381851927
21
363.6326087961
31
0.0000000000
11
314.1808099048
21
363.2952357318
31
0.0000000000
11
314.0570935374
21
363.0154849946
31
0.0000000000
0
SPLINE
5
4D5
100
AcDbEntity
8
0
100
AcDbSpline
62
7
6
CONTINUOUS
70
0
71
3
72
12
73
8
74
6
42
0.0000001000
43
0.0000001000
44
0.0000000001
40
0.0000000000
40
0.0000000000
40
0.0000000000
40
0.0000000000
40
0.0427665038
40
0.3088750968
40
0.5685150086
40
0.8220474999
40
1.0000000000
40
1.0000000000
40
1.0000000000
40
1.0000000000
10
314.0570935374
20
363.0154849946
30
0.0000000000
10
314.0495884680
20
362.9980898891
30
0.0000000000
10
313.9955956929
20
362.8723649146
30
0.0000000000
10
313.8990330126
20
362.6397520239
30
0.0000000000
10
313.7733010566
20
362.3182317428
30
0.0000000000
10
313.6675783969
20
362.0308890246
30
0.0000000000
10
313.6046334603
20
361.8504032123
30
0.0000000000
10
313.5791968698
20
361.7757891775
30
0.0000000000
11
314.0570935374
21
363.0154849946
31
0.0000000000
11
314.0346662420
21
362.9632618704
31
0.0000000000
11
313.8990801452
21
362.6366437111
31
0.0000000000
11
313.7734154100
21
362.3152948109
31
0.0000000000
11
313.6570732983
21
361.9990890732
31
0.0000000000
11
313.5791968698
21
361.7757891775
31
0.0000000000
0
SPLINE
5
4D6
100
AcDbEntity
8
0
100
AcDbSpline
62
7
6
CONTINUOUS
70
0
71
3
72
12
73
8
74
6
42
0.0000001000
43
0.0000001000
44
0.0000000001
40
0.0000000000
40
0.0000000000
40
0.0000000000
40
0.0000000000
40
0.0696013742
40
0.3111962499
40
0.5477878850
40
0.7797349463
40
1.0000000000
40
1.0000000000
40
1.0000000000
40
1.0000000000
10
313.5791968698
20
361.7757891775
30
0.0000000000
10
313.5692147139
20
361.7465081728
30
0.0000000000
10
313.5249434525
20
361.6154664492
30
0.0000000000
10
313.4498545278
20
361.3838475429
30
0.0000000000
10
313.3582055257
20
361.0817989320
30
0.0000000000
10
313.2747521802
20
360.7872268877
30
0.0000000000
10
313.2234308155
20
360.5928870971
30
0.0000000000
10
313.1992595331
20
360.4980168376
30
0.0000000000
11
313.5791968698
21
361.7757891775
31
0.0000000000
11
313.5494922277
21
361.6878642273
31
0.0000000000
11
313.4501473665
21
361.3814251007
31
0.0000000000
11
313.3585501298
21
361.0795466129
31
0.0000000000
11
313.2742490039
21
360.7819816089
31
0.0000000000
11
313.1992595331
21
360.4980168376
31
0.0000000000
0
SPLINE
5
4D7
100
AcDbEntity
8
0
100
AcDbSpline
62
7
6
CONTINUOUS
70
0
71
3
72
13
73
9
74
7
42
0.0000001000
43
0.0000001000
44
0.0000000001
40
0.0000000000
40
0.0000000000
40
0.0000000000
40
0.0000000000
40
0.0073841810
40
0.2317687665
40
0.4524238064
40
0.6696576884
40
0.8837823505
40
1.0000000000
40
1.0000000000
40
1.0000000000
40
1.0000000000
10
313.1992595331
20
360.4980168376
30
0.0000000000
10
313.1984520382
20
360.4948474874
30
0.0000000000
10
313.1731359841
20
360.3953630844
30
0.0000000000
10
313.1254919781
20
360.2007138586
30
0.0000000000
10
313.0607581975
20
359.9146005387
30
0.0000000000
10
313.0018993490
20
359.6318619362
30
0.0000000000
10
312.9565138922
20
359.3936054631
30
0.0000000000
10
312.9310090341
20
359.2495290450
30
0.0000000000
10
312.9222686698
20
359.1988015008
30
0.0000000000
11
313.1992595331
21
360.4980168376
31
0.0000000000
11
313.1968398156
21
360.4885080826
31
0.0000000000
11
313.1259549113
21
360.1989078534
31
0.0000000000
11
313.0612546447
21
359.9129421614
31
0.0000000000
11
313.0024269347
21
359.6303526247
31
0.0000000000
11
312.9491868594
21
359.3508618425
31
0.0000000000
11
312.9222686698
21
359.1988015008
31
0.0000000000
0
SPLINE
5
4D8
100
AcDbEntity
8
0
100
AcDbSpline
62
7
6
CONTINUOUS
70
0
71
3
72
13
73
9
74
7
42
0.0000001000
43
0.0000001000
44
0.0000000001
40
0.0000000000
40
0.0000000000
40
0.0000000000
40
0.0000000000
40
0.0952052289
40
0.3042754693
40
0.5112605919
40
0.7148584498
40
0.9132589167
40
1.0000000000
40
1.0000000000
40
1.0000000000
40
1.0000000000
10
312.9222686698
20
359.1988015008
30
0.0000000000
10
312.9151154085
20
359.1572852243
30
0.0000000000
10
312.8927513174
20
359.0245136538
30
0.0000000000
10
312.8578502311
20
358.8009830428
30
0.0000000000
10
312.8199970344
20
358.5294046642
30
0.0000000000
10
312.7871191813
20
358.2619362359
30
0.0000000000
10
312.7641374851
20
358.0468880922
30
0.0000000000
10
312.7521407822
20
357.9212858401
30
0.0000000000
10
312.7486220346
20
357.8830650204
30
0.0000000000
11
312.9222686698
21
359.1988015008
31
0.0000000000
11
312.9012762740
21
359.0741733529
31
0.0000000000
11
312.8584619057
21
358.7999600207
31
0.0000000000
11
312.8205309338
21
358.5278230715
31
0.0000000000
11
312.7875568526
21
358.2595709241
31
0.0000000000
11
312.7595702671
21
357.9976903508
31
0.0000000000
11
312.7486220346
21
357.8830650204
31
0.0000000000
0
SPLINE
5
4D9
100
AcDbEntity
8
0
100
AcDbSpline
62
7
6
CONTINUOUS
70
0
71
3
72
12
73
8
74
6
42
0.0000001000
43
0.0000001000
44
0.0000000001
40
0.0000000000
40
0.0000000000
40
0.0000000000
40
0.0000000000
40
0.1339897497
40
0.3685642855
40
0.5920517818
40
0.8035506389
40
1.0000000000
40
1.0000000000
40
1.0000000000
40
1.0000000000
10
312.7486220346
20
357.8830650204
30
0.0000000000
10
312.7443691887
20
357.8368703876
30
0.0000000000
10
312.7331960678
20
357.7097543903
30
0.0000000000
10
312.7175701531
20
357.5053563842
30
0.0000000000
10
312.7031661932
20
357.2740161311
30
0.0000000000
10
312.6925119157
20
357.0555406959
30
0.0000000000
10
312.6874025675
20
356.9146558453
30
0.0000000000
10
312.6853546749
20
356.8464950693
30
0.0000000000
11
312.7486220346
21
357.8830650204
31
0.0000000000
11
312.7364363886
21
357.7444289425
31
0.0000000000
11
312.7178637829
21
357.5014958528
31
0.0000000000
11
312.7034410047
21
357.2698179548
31
0.0000000000
11
312.6927348103
21
357.0504046629
31
0.0000000000
11
312.6853546749
21
356.8464950693
31
0.0000000000
0
SPLINE
5
4DA
100
AcDbEntity
8
0
100
AcDbSpline
62
7
6
CONTINUOUS
70
0
71
3
72
8
73
4
74
2
42
0.0000001000
43
0.0000001000
44
0.0000000001
40
0.0000000000
40
0.0000000000
40
0.0000000000
40
0.0000000000
40
1.0000000000
40
1.0000000000
40
1.0000000000
40
1.0000000000
10
312.6853546749
20
356.8464950693
30
0.0000000000
10
312.6837012894
20
356.7914648204
30
0.0000000000
10
312.6823168082
20
356.7362279279
30
0.0000000000
10
312.6811957317
20
356.6818114400
30
0.0000000000
11
312.6853546749
21
356.8464950693
31
0.0000000000
11
312.6811957317
21
356.6818114400
31
0.0000000000
0
SPLINE
5
4DB
100
AcDbEntity
8
0
100
AcDbSpline
62
7
6
CONTINUOUS
70
0
71
3
72
8
73
4
74
2
42
0.0000001000
43
0.0000001000
44
0.0000000001
40
0.0000000000
40
0.0000000000
40
0.0000000000
40
0.0000000000
40
1.0000000000
40
1.0000000000
40
1.0000000000
40
1.0000000000
10
312.6811957317
20
356.6818114400
30
0.0000000000
10
312.6807487379
20
356.6601145900
30
0.0000000000
10
312.6803436193
20
356.6385481649
30
0.0000000000
10
312.6799815300
20
356.6167372241
30
0.0000000000
11
312.6811957317
21
356.6818114400
31
0.0000000000
11
312.6799815300
21
356.6167372241
31
0.0000000000
0
SPLINE
5
4DC
100
AcDbEntity
8
0
100
AcDbSpline
62
7
6
CONTINUOUS
70
0
71
3
72
8
73
4
74
2
42
0.0000001000
43
0.0000001000
44
0.0000000001
40
0.0000000000
40
0.0000000000
40
0.0000000000
40
0.0000000000
40
1.0000000000
40
1.0000000000
40
1.0000000000
40
1.0000000000
10
312.6799815300
20
356.6167372241
30
0.0000000000
10
312.6797320089
20
356.6017069879
30
0.0000000000
10
312.6795029216
20
356.5865606364
30
0.0000000000
10
312.6792946458
20
356.5711754719
30
0.0000000000
11
312.6799815300
21
356.6167372241
31
0.0000000000
11
312.6792946458
21
356.5711754719
31
0.0000000000
0
SPLINE
5
4DD
100
AcDbEntity
8
0
100
AcDbSpline
62
7
6
CONTINUOUS
70
0
71
3
72
9
73
5
74
3
42
0.0000001000
43
0.0000001000
44
0.0000000001
40
0.0000000000
40
0.0000000000
40
0.0000000000
40
0.0000000000
40
0.5717299125
40
1.0000000000
40
1.0000000000
40
1.0000000000
40
1.0000000000
10
312.6792946458
20
356.5711754719
30
0.0000000000
10
312.6792387573
20
356.5670470348
30
0.0000000000
10
312.6791436250
20
356.5597960009
30
0.0000000000
10
312.6790530995
20
356.5524851072
30
0.0000000000
10
312.6790151563
20
356.5493477285
30
0.0000000000
11
312.6792946458
21
356.5711754719
31
0.0000000000
11
312.6791314832
21
356.5587362021
31
0.0000000000
11
312.6790151563
21
356.5493477285
31
0.0000000000
0
SPLINE
5
4DE
100
AcDbEntity
8
0
100
AcDbSpline
62
7
6
CONTINUOUS
70
0
71
3
72
8
73
4
74
2
42
0.0000001000
43
0.0000001000
44
0.0000000001
40
0.0000000000
40
0.0000000000
40
0.0000000000
40
0.0000000000
40
1.0000000000
40
1.0000000000
40
1.0000000000
40
1.0000000000
10
312.6790151563
20
356.5493477285
30
0.0000000000
10
312.6789401092
20
356.5431423738
30
0.0000000000
10
312.6788682939
20
356.5369122109
30
0.0000000000
10
312.6787995650
20
356.5306931234
30
0.0000000000
11
312.6790151563
21
356.5493477285
31
0.0000000000
11
312.6787995650
21
356.5306931234
31
0.0000000000
0
SPLINE
5
4DF
100
AcDbEntity
8
0
100
AcDbSpline
62
7
6
CONTINUOUS
70
0
71
3
72
9
73
5
74
3
42
0.0000001000
43
0.0000001000
44
0.0000000001
40
0.0000000000
40
0.0000000000
40
0.0000000000
40
0.0000000000
40
0.7158501634
40
1.0000000000
40
1.0000000000
40
1.0000000000
40
1.0000000000
10
312.6785680492
20
356.5086962271
30
0.0000000000
10
312.6783640400
20
356.4883601034
30
0.0000000000
10
312.6781236677
20
356.4607722568
30
0.0000000000
10
312.6779353142
20
356.4368717208
30
0.0000000000
10
312.6778871451
20
356.4300769189
30
0.0000000000
11
312.6785680492
21
356.5086962271
31
0.0000000000
11
312.6780465555
21
356.4507521052
31
0.0000000000
11
312.6778871451
21
356.4300769189
31
0.0000000000
0
SPLINE
5
4E0
100
AcDbEntity
8
0
100
AcDbSpline
62
7
6
CONTINUOUS
70
0
71
3
72
8
73
4
74
2
42
0.0000001000
43
0.0000001000
44
0.0000000001
40
0.0000000000
40
0.0000000000
40
0.0000000000
40
0.0000000000
40
1.0000000000
40
1.0000000000
40
1.0000000000
40
1.0000000000
10
312.6786084800
20
356.5077694378
30
0.0000000000
10
312.6786004911
20
356.5070059947
30
0.0000000000
10
312.6785885826
20
356.5058552616
30
0.0000000000
10
312.6785741896
20
356.5044545200
30
0.0000000000
11
312.6786084800
21
356.5077694378
31
0.0000000000
11
312.6785741896
21
356.5044545200
31
0.0000000000
0
SPLINE
5
4E1
100
AcDbEntity
8
0
100
AcDbSpline
62
7
6
CONTINUOUS
70
0
71
3
72
8
73
4
74
2
42
0.0000001000
43
0.0000001000
44
0.0000000001
40
0.0000000000
40
0.0000000000
40
0.0000000000
40
0.0000000000
40
1.0000000000
40
1.0000000000
40
1.0000000000
40
1.0000000000
10
312.6774857785
20
356.3093339985
30
0.0000000000
10
312.6774843109
20
356.3075887951
30
0.0000000000
10
312.6774830492
20
356.3058433658
30
0.0000000000
10
312.6774819912
20
356.3040977537
30
0.0000000000
11
312.6774857785
21
356.3093339985
31
0.0000000000
11
312.6774819912
21
356.3040977537
31
0.0000000000
0
SPLINE
5
4E2
100
AcDbEntity
8
0
100
AcDbSpline
62
7
6
CONTINUOUS
70
0
71
3
72
8
73
4
74
2
42
0.0000001000
43
0.0000001000
44
0.0000000001
40
0.0000000000
40
0.0000000000
40
0.0000000000
40
0.0000000000
40
1.0000000000
40
1.0000000000
40
1.0000000000
40
1.0000000000
10
312.6774819912
20
356.3040977537
30
0.0000000000
10
312.6774792137
20
356.2995148234
30
0.0000000000
10
312.6774778410
20
356.2949306338
30
0.0000000000
10
312.6774778359
20
356.2903459680
30
0.0000000000
11
312.6774819912
21
356.3040977537
31
0.0000000000
11
312.6774778359
21
356.2903459680
31
0.0000000000
0
SPLINE
5
4E3
100
AcDbEntity
8
0
100
AcDbSpline
62
7
6
CONTINUOUS
70
0
71
3
72
8
73
4
74
2
42
0.0000001000
43
0.0000001000
44
0.0000000001
40
0.0000000000
40
0.0000000000
40
0.0000000000
40
0.0000000000
40
1.0000000000
40
1.0000000000
40
1.0000000000
40
1.0000000000
10
329.6774408949
20
373.2519448608
30
0.0000000000
10
329.3248865849
20
373.2519273929
30
0.0000000000
10
328.9721168075
20
373.2410219177
30
0.0000000000
10
328.6199276696
20
373.2192548970
30
0.0000000000
11
329.6774408949
21
373.2519448608
31
0.0000000000
11
328.6199276696
21
373.2192548970
31
0.0000000000
0
SPLINE
5
4E4
100
AcDbEntity
8
0
100
AcDbSpline
62
7
6
CONTINUOUS
70
0
71
3
72
14
73
10
74
8
42
0.0000001000
43
0.0000001000
44
0.0000000001
40
0.0000000000
40
0.0000000000
40
0.0000000000
40
0.0000000000
40
0.0807436097
40
0.2402323299
40
0.3991973065
40
0.5577189643
40
0.7159024948
40
0.8738798057
40
1.0000000000
40
1.0000000000
40
1.0000000000
40
1.0000000000
10
328.6199276696
20
373.2192548970
30
0.0000000000
10
328.1670055613
20
373.1912620835
30
0.0000000000
10
326.8223066880
20
373.0545311337
30
0.0000000000
10
324.6268346666
20
372.5639168661
30
0.0000000000
10
322.1272008261
20
371.5738225740
30
0.0000000000
10
319.8200228598
20
370.2081916079
30
0.0000000000
10
317.7594164707
20
368.5016444363
30
0.0000000000
10
316.1122526060
20
366.6304371355
30
0.0000000000
10
315.2354428117
20
365.2926723455
30
0.0000000000
10
314.8849612309
20
364.6767278917
30
0.0000000000
11
328.6199276696
21
373.2192548970
31
0.0000000000
11
327.2657354328
21
373.0814427598
31
0.0000000000
11
324.6446518264
21
372.4956366239
31
0.0000000000
11
322.1559365194
21
371.5096107779
31
0.0000000000
11
319.8587976723
21
370.1497611066
31
0.0000000000
11
317.8073347708
21
368.4505934665
31
0.0000000000
11
316.0496500394
21
366.4536642536
31
0.0000000000
11
314.8849612309
21
364.6767278917
31
0.0000000000
0
SPLINE
5
4E5
100
AcDbEntity
8
0
100
AcDbSpline
62
7
6
CONTINUOUS
70
0
71
3
72
8
73
4
74
2
42
0.0000001000
43
0.0000001000
44
0.0000000001
40
0.0000000000
40
0.0000000000
40
0.0000000000
40
0.0000000000
40
1.0000000000
40
1.0000000000
40
1.0000000000
40
1.0000000000
10
314.8849612309
20
364.6767278917
30
0.0000000000
10
314.7981503986
20
364.5241645228
30
0.0000000000
10
314.7137176937
20
364.3702473457
30
0.0000000000
10
314.6317093878
20
364.2150477288
30
0.0000000000
11
314.8849612309
21
364.6767278917
31
0.0000000000
11
314.6317093878
21
364.2150477288
31
0.0000000000
0
SPLINE
5
4E6
100
AcDbEntity
8
0
100
AcDbSpline
62
7
6
CONTINUOUS
70
0
71
3
72
8
73
4
74
2
42
0.0000001000
43
0.0000001000
44
0.0000000001
40
0.0000000000
40
0.0000000000
40
0.0000000000
40
0.0000000000
40
1.0000000000
40
1.0000000000
40
1.0000000000
40
1.0000000000
10
314.6317093878
20
364.2150477288
30
0.0000000000
10
314.4245217781
20
363.8229479618
30
0.0000000000
10
314.2328096266
20
363.4226619583
30
0.0000000000
10
314.0571294519
20
363.0154694987
30
0.0000000000
11
314.6317093878
21
364.2150477288
31
0.0000000000
11
314.0571294519
21
363.0154694987
31
0.0000000000
0
SPLINE
5
4E7
100
AcDbEntity
8
0
100
AcDbSpline
62
7
6
CONTINUOUS
70
0
71
3
72
8
73
4
74
2
42
0.0000001000
43
0.0000001000
44
0.0000000001
40
0.0000000000
40
0.0000000000
40
0.0000000000
40
0.0000000000
40
1.0000000000
40
1.0000000000
40
1.0000000000
40
1.0000000000
10
314.0571294519
20
363.0154694987
30
0.0000000000
10
313.8816357613
20
362.6087092729
30
0.0000000000
10
313.7221400247
20
362.1950572490
30
0.0000000000
10
313.5791969749
20
361.7757891464
30
0.0000000000
11
314.0571294519
21
363.0154694987
31
0.0000000000
11
313.5791969749
21
361.7757891464
31
0.0000000000
0
SPLINE
5
4E8
100
AcDbEntity
8
0
100
AcDbSpline
62
7
6
CONTINUOUS
70
0
71
3
72
8
73
4
74
2
42
0.0000001000
43
0.0000001000
44
0.0000000001
40
0.0000000000
40
0.0000000000
40
0.0000000000
40
0.0000000000
40
1.0000000000
40
1.0000000000
40
1.0000000000
40
1.0000000000
10
313.5791969749
20
361.7757891464
30
0.0000000000
10
313.4357670412
20
361.3550929582
30
0.0000000000
10
313.3090035141
20
360.9287424031
30
0.0000000000
10
313.1992597652
20
360.4980167787
30
0.0000000000
11
313.5791969749
21
361.7757891464
31
0.0000000000
11
313.1992597652
21
360.4980167787
31
0.0000000000
0
SPLINE
5
4E9
100
AcDbEntity
8
0
100
AcDbSpline
62
7
6
CONTINUOUS
70
0
71
3
72
8
73
4
74
2
42
0.0000001000
43
0.0000001000
44
0.0000000001
40
0.0000000000
40
0.0000000000
40
0.0000000000
40
0.0000000000
40
1.0000000000
40
1.0000000000
40
1.0000000000
40
1.0000000000
10
313.1992597652
20
360.4980167787
30
0.0000000000
10
313.0899173646
20
360.0688663785
30
0.0000000000
10
312.9974704797
20
359.6353728509
30
0.0000000000
10
312.9222686107
20
359.1988015087
30
0.0000000000
11
313.1992597652
21
360.4980167787
31
0.0000000000
11
312.9222686107
21
359.1988015087
31
0.0000000000
0
SPLINE
5
4EA
100
AcDbEntity
8
0
100
AcDbSpline
62
7
6
CONTINUOUS
70
0
71
3
72
8
73
4
74
2
42
0.0000001000
43
0.0000001000
44
0.0000000001
40
0.0000000000
40
0.0000000000
40
0.0000000000
40
0.0000000000
40
1.0000000000
40
1.0000000000
40
1.0000000000
40
1.0000000000
10
312.9222686107
20
359.1988015087
30
0.0000000000
10
312.8471566242
20
358.7627519633
30
0.0000000000
10
312.7892486582
20
358.3236316081
30
0.0000000000
10
312.7486841737
20
357.8830592995
30
0.0000000000
11
312.9222686107
21
359.1988015087
31
0.0000000000
11
312.7486841737
21
357.8830592995
31
0.0000000000
0
SPLINE
5
4EB
100
AcDbEntity
8
0
100
AcDbSpline
62
7
6
CONTINUOUS
70
0
71
3
72
8
73
4
74
2
42
0.0000001000
43
0.0000001000
44
0.0000000001
40
0.0000000000
40
0.0000000000
40
0.0000000000
40
0.0000000000
40
1.0000000000
40
1.0000000000
40
1.0000000000
40
1.0000000000
10
312.7486841737
20
357.8830592995
30
0.0000000000
10
312.7081052202
20
357.4423298408
30
0.0000000000
10
312.6848821229
20
357.0001473929
30
0.0000000000
10
312.6791544916
20
356.5581325462
30
0.0000000000
11
312.7486841737
21
357.8830592995
31
0.0000000000
11
312.6791544916
21
356.5581325462
31
0.0000000000
0
SPLINE
5
4EC
100
AcDbEntity
8
0
100
AcDbSpline
62
7
6
CONTINUOUS
70
0
71
3
72
11
73
7
74
5
42
0.0000001000
43
0.0000001000
44
0.0000000001
40
0.0000000000
40
0.0000000000
40
0.0000000000
40
0.0000000000
40
0.1708185455
40
0.4473938536
40
0.7239596905
40
1.0000000000
40
1.0000000000
40
1.0000000000
40
1.0000000000
10
345.0302485672
20
218.5240409291
30
0.0000000000
10
345.0302322812
20
218.6830203286
30
0.0000000000
10
345.0031353040
20
219.0998289879
30
0.0000000000
10
344.8447348287
20
219.7584148604
30
0.0000000000
10
344.5095923955
20
220.4581082989
30
0.0000000000
10
344.1929964469
20
220.8678950233
30
0.0000000000
10
344.0157902771
20
221.0532507816
30
0.0000000000
11
345.0302485672
21
218.5240409291
31
0.0000000000
11
344.9992207828
21
218.9998713262
31
0.0000000000
11
344.8190955424
21
219.7493152378
31
0.0000000000
11
344.4860253744
21
220.4443942639
31
0.0000000000
11
344.0157902771
21
221.0532507816
31
0.0000000000
0
SPLINE
5
4ED
100
AcDbEntity
8
0
100
AcDbSpline
62
7
6
CONTINUOUS
70
0
71
3
72
8
73
4
74
2
42
0.0000001000
43
0.0000001000
44
0.0000000001
40
0.0000000000
40
0.0000000000
40
0.0000000000
40
0.0000000000
40
1.0000000000
40
1.0000000000
40
1.0000000000
40
1.0000000000
10
346.5921529737
20
171.6892289760
30
0.0000000000
10
346.6417791801
20
171.6125298574
30
0.0000000000
10
346.6905954315
20
171.5353100919
30
0.0000000000
10
346.7385917428
20
171.4575862055
30
0.0000000000
11
346.5921529737
21
171.6892289760
31
0.0000000000
11
346.7385917428
21
171.4575862055
31
0.0000000000
0
SPLINE
5
4EE
100
AcDbEntity
8
0
100
AcDbSpline
62
7
6
CONTINUOUS
70
0
71
3
72
8
73
4
74
2
42
0.0000001000
43
0.0000001000
44
0.0000000001
40
0.0000000000
40
0.0000000000
40
0.0000000000
40
0.0000000000
40
1.0000000000
40
1.0000000000
40
1.0000000000
40
1.0000000000
10
346.7385917428
20
171.4575862055
30
0.0000000000
10
346.7732167842
20
171.4015153803
30
0.0000000000
10
346.8074151016
20
171.3451821940
30
0.0000000000
10
346.8411829462
20
171.2885928512
30
0.0000000000
11
346.7385917428
21
171.4575862055
31
0.0000000000
11
346.8411829462
21
171.2885928512
31
0.0000000000
0
SPLINE
5
4EF
100
AcDbEntity
8
0
100
AcDbSpline
62
7
6
CONTINUOUS
70
0
71
3
72
11
73
7
74
5
42
0.0000001000
43
0.0000001000
44
0.0000000001
40
0.0000000000
40
0.0000000000
40
0.0000000000
40
0.0000000000
40
0.1181021961
40
0.4114408010
40
0.7056936599
40
1.0000000000
40
1.0000000000
40
1.0000000000
40
1.0000000000
10
346.8411829462
20
171.2885928512
30
0.0000000000
10
346.9822604750
20
171.0521701614
30
0.0000000000
10
347.4475659823
20
170.2129517805
30
0.0000000000
10
348.0835471004
20
168.6898900273
30
0.0000000000
10
348.5687623419
20
166.6857443686
30
0.0000000000
10
348.6776264372
20
165.3125528110
30
0.0000000000
10
348.6776266151
20
164.6271336584
30
0.0000000000
11
346.8411829462
21
171.2885928512
31
0.0000000000
11
347.2416010064
21
170.5663639436
31
0.0000000000
11
348.0313194455
21
168.6751265261
31
0.0000000000
11
348.5150032114
21
166.6769503219
31
0.0000000000
11
348.6776266151
21
164.6271336584
31
0.0000000000
0
SPLINE
5
4F0
100
AcDbEntity
8
0
100
AcDbSpline
62
7
6
CONTINUOUS
70
0
71
3
72
8
73
4
74
2
42
0.0000001000
43
0.0000001000
44
0.0000000001
40
0.0000000000
40
0.0000000000
40
0.0000000000
40
0.0000000000
40
1.0000000000
40
1.0000000000
40
1.0000000000
40
1.0000000000
10
348.6488097224
20
156.7893521505
30
0.0000000000
10
348.6582773112
20
156.9497668654
30
0.0000000000
10
348.6654719121
20
157.1103263608
30
0.0000000000
10
348.6702453284
20
157.2709569249
30
0.0000000000
11
348.6488097224
21
156.7893521505
31
0.0000000000
11
348.6702453284
21
157.2709569249
31
0.0000000000
0
SPLINE
5
4F1
100
AcDbEntity
8
0
100
AcDbSpline
62
7
6
CONTINUOUS
70
0
71
3
72
8
73
4
74
2
42
0.0000001000
43
0.0000001000
44
0.0000000001
40
0.0000000000
40
0.0000000000
40
0.0000000000
40
0.0000000000
40
1.0000000000
40
1.0000000000
40
1.0000000000
40
1.0000000000
10
348.6702453284
20
157.2709569249
30
0.0000000000
10
348.6751362318
20
157.4355410560
30
0.0000000000
10
348.6774852997
20
157.6001997972
30
0.0000000000
10
348.6776266151
20
157.7648487194
30
0.0000000000
11
348.6702453284
21
157.2709569249
31
0.0000000000
11
348.6776266151
21
157.7648487194
31
0.0000000000
0
SPLINE
5
4F2
100
AcDbEntity
8
0
100
AcDbSpline
62
7
6
CONTINUOUS
70
0
71
3
72
8
73
4
74
2
42
0.0000001000
43
0.0000001000
44
0.0000000001
40
0.0000000000
40
0.0000000000
40
0.0000000000
40
0.0000000000
40
1.0000000000
40
1.0000000000
40
1.0000000000
40
1.0000000000
10
348.6776400683
20
164.2511614667
30
0.0000000000
10
348.6776363186
20
164.2546498697
30
0.0000000000
10
348.6776312804
20
164.2582734400
30
0.0000000000
10
348.6776248566
20
164.2620135034
30
0.0000000000
11
348.6776400683
21
164.2511614667
31
0.0000000000
11
348.6776248566
21
164.2620135034
31
0.0000000000
0
SPLINE
5
4F3
100
AcDbEntity
8
0
100
AcDbSpline
62
7
6
CONTINUOUS
70
0
71
3
72
17
73
13
74
11
42
0.0000001000
43
0.0000001000
44
0.0000000001
40
0.0000000000
40
0.0000000000
40
0.0000000000
40
0.0000000000
40
0.0553974175
40
0.1730612287
40
0.2879427265
40
0.4000224120
40
0.5092805107
40
0.6156967826
40
0.7192503094
40
0.8199192554
40
0.9176805965
40
1.0000000000
40
1.0000000000
40
1.0000000000
40
1.0000000000
10
348.6776266161
20
162.6886920189
30
0.0000000000
10
348.6776274075
20
162.6992579606
30
0.0000000000
10
348.6776300291
20
162.7322659046
30
0.0000000000
10
348.6776350441
20
162.7871851806
30
0.0000000000
10
348.6776410074
20
162.8529154577
30
0.0000000000
10
348.6776459489
20
162.9170425144
30
0.0000000000
10
348.6776491592
20
162.9795549999
30
0.0000000000
10
348.6776501018
20
163.0404412924
30
0.0000000000
10
348.6776483954
20
163.0996893770
30
0.0000000000
10
348.6776438046
20
163.1572867077
30
0.0000000000
10
348.6776365772
20
163.2108340567
30
0.0000000000
10
348.6776300555
20
163.2451808315
30
0.0000000000
10
348.6776266873
20
163.2608815996
30
0.0000000000
11
348.6776266161
21
162.6886920189
31
0.0000000000
11
348.6776291261
21
162.7203898440
31
0.0000000000
11
348.6776350858
21
162.7877158509
31
0.0000000000
11
348.6776409043
21
162.8534498469
31
0.0000000000
11
348.6776457121
21
162.9175806753
31
0.0000000000
11
348.6776488083
21
162.9800970212
31
0.0000000000
11
348.6776496548
21
163.0409873034
31
0.0000000000
11
348.6776478698
21
163.1002395527
31
0.0000000000
11
348.6776432220
21
163.1578412747
31
0.0000000000
11
348.6776356239
21
163.2137792953
31
0.0000000000
11
348.6776266873
21
163.2608815996
31
0.0000000000
0
SPLINE
5
4F4
100
AcDbEntity
8
0
100
AcDbSpline
62
7
6
CONTINUOUS
70
0
71
3
72
19
73
15
74
13
42
0.0000001000
43
0.0000001000
44
0.0000000001
40
0.0000000000
40
0.0000000000
40
0.0000000000
40
0.0000000000
40
0.0175417929
40
0.1281323002
40
0.2374743636
40
0.3450905167
40
0.4504617305
40
0.5530181945
40
0.6521281941
40
0.7470846039
40
0.8370883751
40
0.9212282158
40
0.9984554364
40
1.0000000000
40
1.0000000000
40
1.0000000000
40
1.0000000000
10
348.6776265418
20
163.6968874174
30
0.0000000000
10
348.6776275486
20
163.6987699721
30
0.0000000000
10
348.6776349888
20
163.7125209075
30
0.0000000000
10
348.6776498705
20
163.7380062424
30
0.0000000000
10
348.6776697033
20
163.7731582009
30
0.0000000000
10
348.6776860686
20
163.8077500357
30
0.0000000000
10
348.6776969530
20
163.8416136539
30
0.0000000000
10
348.6777010588
20
163.8745644079
30
0.0000000000
10
348.6776978317
20
163.9063974632
30
0.0000000000
10
348.6776875097
20
163.9368833836
30
0.0000000000
10
348.6776711331
20
163.9657627294
30
0.0000000000
10
348.6776505108
20
163.9927394059
30
0.0000000000
10
348.6776346822
20
164.0102227935
30
0.0000000000
10
348.6776267739
20
164.0186764417
30
0.0000000000
10
348.6776266188
20
164.0188422015
30
0.0000000000
11
348.6776265418
21
163.6968874174
31
0.0000000000
11
348.6776295968
21
163.7025350815
31
0.0000000000
11
348.6776498310
21
163.7381402232
31
0.0000000000
11
348.6776692690
21
163.7733434229
31
0.0000000000
11
348.6776852974
21
163.8079909591
31
0.0000000000
11
348.6776959222
21
163.8419157282
31
0.0000000000
11
348.6776998401
21
163.8749342765
31
0.0000000000
11
348.6776964980
21
163.9068432190
31
0.0000000000
11
348.6776861344
21
163.9374148917
31
0.0000000000
11
348.6776697909
21
163.9663920356
31
0.0000000000
11
348.6776492803
21
163.9934812556
31
0.0000000000
11
348.6776270840
21
164.0183449221
31
0.0000000000
11
348.6776266188
21
164.0188422015
31
0.0000000000
0
SPLINE
5
4F5
100
AcDbEntity
8
0
100
AcDbSpline
62
7
6
CONTINUOUS
70
0
71
3
72
20
73
16
74
14
42
0.0000001000
43
0.0000001000
44
0.0000000001
40
0.0000000000
40
0.0000000000
40
0.0000000000
40
0.0000000000
40
0.0028729125
40
0.0241191266
40
0.0607874895
40
0.1112081611
40
0.1741109170
40
0.2485510870
40
0.3337630919
40
0.4290191915
40
0.5335060895
40
0.6462602112
40
0.7662047897
40
0.8920979112
40
1.0000000000
40
1.0000000000
40
1.0000000000
40
1.0000000000
10
346.7249229273
20
171.2224410483
30
0.0000000000
10
346.7192814984
20
171.2388589293
30
0.0000000000
10
346.6554354890
20
171.4202190159
30
0.0000000000
10
346.5770269537
20
171.7147357582
30
0.0000000000
10
346.4044398505
20
172.3874550419
30
0.0000000000
10
346.2248969265
20
173.2596876656
30
0.0000000000
10
346.0241873027
20
174.3840505077
30
0.0000000000
10
345.8264814105
20
175.7135414130
30
0.0000000000
10
345.6361665416
20
177.2444116746
30
0.0000000000
10
345.4619707896
20
178.9590422755
30
0.0000000000
10
345.3096631885
20
180.8432259727
30
0.0000000000
10
345.1849625034
20
182.8789760858
30
0.0000000000
10
345.0928194240
20
185.0460873252
30
0.0000000000
10
345.0410148412
20
187.1851618574
30
0.0000000000
10
345.0302761574
20
188.5993030317
30
0.0000000000
10
345.0302793247
20
189.2519526045
30
0.0000000000
11
346.7249229273
21
171.2224410483
31
0.0000000000
11
346.7045361091
21
171.2811486211
31
0.0000000000
11
346.5945564137
21
171.6506510373
31
0.0000000000
11
346.4324632838
21
172.2959694013
31
0.0000000000
11
346.2427112676
21
173.1909823898
31
0.0000000000
11
346.0417232275
21
174.3145469811
31
0.0000000000
11
345.8409703382
21
175.6502970126
31
0.0000000000
11
345.6491089016
21
177.1845588476
31
0.0000000000
11
345.4732430189
21
178.9040550191
31
0.0000000000
11
345.3196005931
21
180.7937829193
31
0.0000000000
11
345.1937883828
21
182.8358871114
31
0.0000000000
11
345.1008151120
21
185.0103506993
31
0.0000000000
11
345.0451941266
21
187.2940628491
31
0.0000000000
11
345.0302793247
21
189.2519526045
31
0.0000000000
0
SPLINE
5
4F6
100
AcDbEntity
8
0
100
AcDbSpline
62
7
6
CONTINUOUS
70
0
71
3
72
17
73
13
74
11
42
0.0000001000
43
0.0000001000
44
0.0000000001
40
0.0000000000
40
0.0000000000
40
0.0000000000
40
0.0000000000
40
0.0376111042
40
0.1323051666
40
0.2346665084
40
0.3406981630
40
0.4487168699
40
0.5580561062
40
0.6679517392
40
0.7786166700
40
0.8892873520
40
1.0000000000
40
1.0000000000
40
1.0000000000
40
1.0000000000
10
333.2300211648
20
141.2838818252
30
0.0000000000
10
333.5290075428
20
141.3026067771
30
0.0000000000
10
334.5791356989
20
141.3973804603
30
0.0000000000
10
336.4202896354
20
141.7447165874
30
0.0000000000
10
338.7113103967
20
142.5286453434
30
0.0000000000
10
340.9529481205
20
143.6982844109
30
0.0000000000
10
343.0321014413
20
145.2335793026
30
0.0000000000
10
344.8667154603
20
147.0980205852
30
0.0000000000
10
346.3960256955
20
149.2461543787
30
0.0000000000
10
347.5694252274
20
151.6198463175
30
0.0000000000
10
348.3514691548
20
154.1557216378
30
0.0000000000
10
348.5967785119
20
155.9096663354
30
0.0000000000
10
348.6488097224
20
156.7893521505
30
0.0000000000
11
333.2300211648
21
141.2838818252
31
0.0000000000
11
334.1250822016
21
141.3646569143
31
0.0000000000
11
336.3470790842
21
141.7837124504
31
0.0000000000
11
338.6597145654
21
142.5749667921
31
0.0000000000
11
340.9044515565
21
143.7461381084
31
0.0000000000
11
342.9794232284
21
145.2782926805
31
0.0000000000
11
344.8106788300
21
147.1392516689
31
0.0000000000
11
346.3326032031
21
149.2769991637
31
0.0000000000
11
347.5037088224
21
151.6458549682
31
0.0000000000
11
348.2823726729
21
154.1712014081
31
0.0000000000
11
348.6488097224
21
156.7893521505
31
0.0000000000
0
SPLINE
5
4F7
100
AcDbEntity
8
0
100
AcDbSpline
62
7
6
CONTINUOUS
70
0
71
3
72
17
73
13
74
11
42
0.0000001000
43
0.0000001000
44
0.0000000001
40
0.0000000000
40
0.0000000000
40
0.0000000000
40
0.0000000000
40
0.0271603601
40
0.1210233986
40
0.2236721688
40
0.3309917812
40
0.4420155559
40
0.5557270699
40
0.6708608370
40
0.7861087853
40
0.9002012993
40
1.0000000000
40
1.0000000000
40
1.0000000000
40
1.0000000000
10
333.2318687949
20
141.2839318522
30
0.0000000000
10
333.4477720807
20
141.2974998753
30
0.0000000000
10
334.4086904705
20
141.3770892852
30
0.0000000000
10
336.1681787725
20
141.6803720436
30
0.0000000000
10
338.4769807925
20
142.4289656020
30
0.0000000000
10
340.7684438299
20
143.5813530678
30
0.0000000000
10
342.9220700809
20
145.1324943861
30
0.0000000000
10
344.8403416238
20
147.0567781778
30
0.0000000000
10
346.4348912661
20
149.2986811489
30
0.0000000000
10
347.6367431169
20
151.7769946388
30
0.0000000000
10
348.3784965172
20
154.3011001419
30
0.0000000000
10
348.6018239826
20
155.9962035419
30
0.0000000000
10
348.6487757268
20
156.7893541629
30
0.0000000000
11
333.2318687949
21
141.2839318522
31
0.0000000000
11
333.8786268563
21
141.3374795106
31
0.0000000000
11
336.0870779060
21
141.7181309307
31
0.0000000000
11
338.4183897522
21
142.4739748141
31
0.0000000000
11
340.7075589894
21
143.6250907333
31
0.0000000000
11
342.8584777425
21
145.1742659107
31
0.0000000000
11
344.7752419268
21
147.0969535342
31
0.0000000000
11
346.3684739853
21
149.3370107907
31
0.0000000000
11
347.5692311500
21
151.8127777486
31
0.0000000000
11
348.3371009571
21
154.4263124682
31
0.0000000000
11
348.6487757268
21
156.7893541629
31
0.0000000000
0
SPLINE
5
4F8
100
AcDbEntity
8
0
100
AcDbSpline
62
7
6
CONTINUOUS
70
0
71
3
72
9
73
5
74
3
42
0.0000001000
43
0.0000001000
44
0.0000000001
40
0.0000000000
40
0.0000000000
40
0.0000000000
40
0.0000000000
40
0.4907000927
40
1.0000000000
40
1.0000000000
40
1.0000000000
40
1.0000000000
10
348.6474960359
20
156.7996239390
30
0.0000000000
10
348.6567017615
20
156.9573270702
30
0.0000000000
10
348.6713858563
20
157.2789656626
30
0.0000000000
10
348.6771398520
20
157.6008840429
30
0.0000000000
10
348.6774199618
20
157.7648489539
30
0.0000000000
11
348.6474960359
21
156.7996239390
31
0.0000000000
11
348.6689624868
21
157.2730506136
31
0.0000000000
11
348.6774199618
21
157.7648489539
31
0.0000000000
0
SPLINE
5
4F9
100
AcDbEntity
8
0
100
AcDbSpline
62
7
6
CONTINUOUS
70
0
71
3
72
8
73
4
74
2
42
0.0000001000
43
0.0000001000
44
0.0000000001
40
0.0000000000
40
0.0000000000
40
0.0000000000
40
0.0000000000
40
1.0000000000
40
1.0000000000
40
1.0000000000
40
1.0000000000
10
332.2097862383
20
141.2519526045
30
0.0000000000
10
332.5499550147
20
141.2519371090
30
0.0000000000
10
332.8902855570
20
141.2626048260
30
0.0000000000
10
333.2300211648
20
141.2838818252
30
0.0000000000
11
332.2097862383
21
141.2519526045
31
0.0000000000
11
333.2300211648
21
141.2838818252
31
0.0000000000
0
SPLINE
5
4FA
100
AcDbEntity
8
0
100
AcDbSpline
62
7
6
CONTINUOUS
70
0
71
3
72
8
73
4
74
2
42
0.0000001000
43
0.0000001000
44
0.0000000001
40
0.0000000000
40
0.0000000000
40
0.0000000000
40
0.0000000000
40
1.0000000000
40
1.0000000000
40
1.0000000000
40
1.0000000000
10
348.6760987359
20
356.5581327580
30
0.0000000000
10
348.6703801108
20
356.9994521560
30
0.0000000000
10
348.6472210295
20
357.4409386281
30
0.0000000000
10
348.6067604441
20
357.8809792213
30
0.0000000000
11
348.6760987359
21
356.5581327580
31
0.0000000000
11
348.6067604441
21
357.8809792213
31
0.0000000000
0
SPLINE
5
4FB
100
AcDbEntity
8
0
100
AcDbSpline
62
7
6
CONTINUOUS
70
0
71
3
72
8
73
4
74
2
42
0.0000001000
43
0.0000001000
44
0.0000000001
40
0.0000000000
40
0.0000000000
40
0.0000000000
40
0.0000000000
40
1.0000000000
40
1.0000000000
40
1.0000000000
40
1.0000000000
10
348.6066148445
20
357.8825619137
30
0.0000000000
10
348.5661342843
20
358.3223653330
30
0.0000000000
10
348.5083707592
20
358.7607224770
30
0.0000000000
10
348.4334629999
20
359.1960229614
30
0.0000000000
11
348.6066148445
21
357.8825619137
31
0.0000000000
11
348.4334629999
21
359.1960229614
31
0.0000000000
0
SPLINE
5
4FC
100
AcDbEntity
8
0
100
AcDbSpline
62
7
6
CONTINUOUS
70
0
71
3
72
8
73
4
74
2
42
0.0000001000
43
0.0000001000
44
0.0000000001
40
0.0000000000
40
0.0000000000
40
0.0000000000
40
0.0000000000
40
1.0000000000
40
1.0000000000
40
1.0000000000
40
1.0000000000
10
348.4329999959
20
359.1987122420
30
0.0000000000
10
348.3579024761
20
359.6346918491
30
0.0000000000
10
348.2656066667
20
360.0676020720
30
0.0000000000
10
348.1564606471
20
360.4961827383
30
0.0000000000
11
348.4329999959
21
359.1987122420
31
0.0000000000
11
348.1564606471
21
360.4961827383
31
0.0000000000
0
SPLINE
5
4FD
100
AcDbEntity
8
0
100
AcDbSpline
62
7
6
CONTINUOUS
70
0
71
3
72
8
73
4
74
2
42
0.0000001000
43
0.0000001000
44
0.0000000001
40
0.0000000000
40
0.0000000000
40
0.0000000000
40
0.0000000000
40
1.0000000000
40
1.0000000000
40
1.0000000000
40
1.0000000000
10
348.1556191472
20
360.4994856370
30
0.0000000000
10
348.0467868843
20
360.9264734188
30
0.0000000000
10
347.9212285821
20
361.3491601076
30
0.0000000000
10
347.7792885077
20
361.7662993370
30
0.0000000000
11
348.1556191472
21
360.4994856370
31
0.0000000000
11
347.7792885077
21
361.7662993370
31
0.0000000000
0
SPLINE
5
4FE
100
AcDbEntity
8
0
100
AcDbSpline
62
7
6
CONTINUOUS
70
0
71
3
72
8
73
4
74
2
42
0.0000001000
43
0.0000001000
44
0.0000000001
40
0.0000000000
40
0.0000000000
40
0.0000000000
40
0.0000000000
40
1.0000000000
40
1.0000000000
40
1.0000000000
40
1.0000000000
10
347.7776711599
20
361.7710501424
30
0.0000000000
10
347.6353903045
20
362.1887825620
30
0.0000000000
10
347.4766790441
20
362.6009458630
30
0.0000000000
10
347.3020858635
20
363.0062786749
30
0.0000000000
11
347.7776711599
21
361.7710501424
31
0.0000000000
11
347.3020858635
21
363.0062786749
31
0.0000000000
0
SPLINE
5
4FF
100
AcDbEntity
8
0
100
AcDbSpline
62
7
6
CONTINUOUS
70
0
71
3
72
8
73
4
74
2
42
0.0000001000
43
0.0000001000
44
0.0000000001
40
0.0000000000
40
0.0000000000
40
0.0000000000
40
0.0000000000
40
1.0000000000
40
1.0000000000
40
1.0000000000
40
1.0000000000
10
347.2997604094
20
363.0116748310
30
0.0000000000
10
347.1253884584
20
363.4161069505
30
0.0000000000
10
346.9352027857
20
363.8137312930
30
0.0000000000
10
346.7297484813
20
364.2032943148
30
0.0000000000
11
347.2997604094
21
363.0116748310
31
0.0000000000
11
346.7297484813
21
364.2032943148
31
0.0000000000
0
SPLINE
5
500
100
AcDbEntity
8
0
100
AcDbSpline
62
7
6
CONTINUOUS
70
0
71
3
72
8
73
4
74
2
42
0.0000001000
43
0.0000001000
44
0.0000000001
40
0.0000000000
40
0.0000000000
40
0.0000000000
40
0.0000000000
40
1.0000000000
40
1.0000000000
40
1.0000000000
40
1.0000000000
10
346.7297484813
20
364.2032943148
30
0.0000000000
10
346.6457959110
20
364.3624772390
30
0.0000000000
10
346.5592937975
20
364.5203140687
30
0.0000000000
10
346.4702919999
20
364.6767278908
30
0.0000000000
11
346.7297484813
21
364.2032943148
31
0.0000000000
11
346.4702919999
21
364.6767278908
31
0.0000000000
0
SPLINE
5
501
100
AcDbEntity
8
0
100
AcDbSpline
62
7
6
CONTINUOUS
70
0
71
3
72
8
73
4
74
2
42
0.0000001000
43
0.0000001000
44
0.0000000001
40
0.0000000000
40
0.0000000000
40
0.0000000000
40
0.0000000000
40
1.0000000000
40
1.0000000000
40
1.0000000000
40
1.0000000000
10
332.7353255636
20
373.2192548969
30
0.0000000000
10
332.3831364248
20
373.2410219176
30
0.0000000000
10
332.0303666464
20
373.2519273929
30
0.0000000000
10
331.6778123353
20
373.2519448608
30
0.0000000000
11
332.7353255636
21
373.2192548969
31
0.0000000000
11
331.6778123353
21
373.2519448608
31
0.0000000000
0
SPLINE
5
502
100
AcDbEntity
8
0
100
AcDbSpline
62
7
6
CONTINUOUS
70
0
71
3
72
8
73
4
74
2
42
0.0000001000
43
0.0000001000
44
0.0000000001
40
0.0000000000
40
0.0000000000
40
0.0000000000
40
0.0000000000
40
1.0000000000
40
1.0000000000
40
1.0000000000
40
1.0000000000
10
348.6773674874
20
356.4299844335
30
0.0000000000
10
348.6773189605
20
356.4368065522
30
0.0000000000
10
348.6772649624
20
356.4436218030
30
0.0000000000
10
348.6772066748
20
356.4507521054
30
0.0000000000
11
348.6773674874
21
356.4299844335
31
0.0000000000
11
348.6772066748
21
356.4507521054
31
0.0000000000
0
SPLINE
5
503
100
AcDbEntity
8
0
100
AcDbSpline
62
7
6
CONTINUOUS
70
0
71
3
72
8
73
4
74
2
42
0.0000001000
43
0.0000001000
44
0.0000000001
40
0.0000000000
40
0.0000000000
40
0.0000000000
40
0.0000000000
40
1.0000000000
40
1.0000000000
40
1.0000000000
40
1.0000000000
10
348.6772066748
20
356.4507521054
30
0.0000000000
10
348.6770724840
20
356.4671676193
30
0.0000000000
10
348.6769155582
20
356.4852529732
30
0.0000000000
10
348.6767317594
20
356.5039459959
30
0.0000000000
11
348.6772066748
21
356.4507521054
31
0.0000000000
11
348.6767317594
21
356.5039459959
31
0.0000000000
0
SPLINE
5
504
100
AcDbEntity
8
0
100
AcDbSpline
62
7
6
CONTINUOUS
70
0
71
3
72
9
73
5
74
3
42
0.0000001000
43
0.0000001000
44
0.0000000001
40
0.0000000000
40
0.0000000000
40
0.0000000000
40
0.0000000000
40
0.4801241339
40
1.0000000000
40
1.0000000000
40
1.0000000000
40
1.0000000000
10
348.6767317594
20
356.5039459959
30
0.0000000000
10
348.6765546182
20
356.5219619136
30
0.0000000000
10
348.6761336799
20
356.5606609922
30
0.0000000000
10
348.6755883884
20
356.5976837048
30
0.0000000000
10
348.6752720613
20
356.6167372303
30
0.0000000000
11
348.6767317594
21
356.5039459959
31
0.0000000000
11
348.6761217471
21
356.5587362023
31
0.0000000000
11
348.6752720613
21
356.6167372303
31
0.0000000000
0
SPLINE
5
505
100
AcDbEntity
8
0
100
AcDbSpline
62
7
6
CONTINUOUS
70
0
71
3
72
8
73
4
74
2
42
0.0000001000
43
0.0000001000
44
0.0000000001
40
0.0000000000
40
0.0000000000
40
0.0000000000
40
0.0000000000
40
1.0000000000
40
1.0000000000
40
1.0000000000
40
1.0000000000
10
348.6752720613
20
356.6167372303
30
0.0000000000
10
348.6749098791
20
356.6385527721
30
0.0000000000
10
348.6745046417
20
356.6601143998
30
0.0000000000
10
348.6740574986
20
356.6818114404
30
0.0000000000
11
348.6752720613
21
356.6167372303
31
0.0000000000
11
348.6740574986
21
356.6818114404
31
0.0000000000
0
SPLINE
5
506
100
AcDbEntity
8
0
100
AcDbSpline
62
7
6
CONTINUOUS
70
0
71
3
72
8
73
4
74
2
42
0.0000001000
43
0.0000001000
44
0.0000000001
40
0.0000000000
40
0.0000000000
40
0.0000000000
40
0.0000000000
40
1.0000000000
40
1.0000000000
40
1.0000000000
40
1.0000000000
10
348.6740574986
20
356.6818114404
30
0.0000000000
10
348.6729364296
20
356.7362098670
30
0.0000000000
10
348.6715519430
20
356.7914594939
30
0.0000000000
10
348.6698985554
20
356.8464950697
30
0.0000000000
11
348.6740574986
21
356.6818114404
31
0.0000000000
11
348.6698985554
21
356.8464950697
31
0.0000000000
0
SPLINE
5
507
100
AcDbEntity
8
0
100
AcDbSpline
62
7
6
CONTINUOUS
70
0
71
3
72
12
73
8
74
6
42
0.0000001000
43
0.0000001000
44
0.0000000001
40
0.0000000000
40
0.0000000000
40
0.0000000000
40
0.0000000000
40
0.1968452446
40
0.4087703128
40
0.6327081795
40
0.8677554283
40
1.0000000000
40
1.0000000000
40
1.0000000000
40
1.0000000000
10
348.6698985554
20
356.8464950697
30
0.0000000000
10
348.6678506601
20
356.9146624436
30
0.0000000000
10
348.6627413160
20
357.0555373967
30
0.0000000000
10
348.6520870367
20
357.2740170991
30
0.0000000000
10
348.6376830773
20
357.5053561051
30
0.0000000000
10
348.6221102421
20
357.7090600935
30
0.0000000000
10
348.6110059350
20
357.8354831466
30
0.0000000000
10
348.6068225679
20
357.8809849331
30
0.0000000000
11
348.6698985554
21
356.8464950697
31
0.0000000000
11
348.6625184199
21
357.0504046634
31
0.0000000000
11
348.6518122256
21
357.2698179553
31
0.0000000000
11
348.6373894474
21
357.5014958532
31
0.0000000000
11
348.6188168417
21
357.7444289428
31
0.0000000000
11
348.6068225679
21
357.8809849331
31
0.0000000000
0
SPLINE
5
508
100
AcDbEntity
8
0
100
AcDbSpline
62
7
6
CONTINUOUS
70
0
71
3
72
13
73
9
74
7
42
0.0000001000
43
0.0000001000
44
0.0000000001
40
0.0000000000
40
0.0000000000
40
0.0000000000
40
0.0000000000
40
0.0872698805
40
0.2860176774
40
0.4899719641
40
0.6973194456
40
0.9067556951
40
1.0000000000
40
1.0000000000
40
1.0000000000
40
1.0000000000
10
348.6066769816
20
357.8825676324
30
0.0000000000
10
348.6031441083
20
357.9209543560
30
0.0000000000
10
348.5911334390
20
358.0467225073
30
0.0000000000
10
348.5681340489
20
358.2619362424
30
0.0000000000
10
348.5352561959
20
358.5294046625
30
0.0000000000
10
348.4974029992
20
358.8009830433
30
0.0000000000
10
348.4626468989
20
359.0235850637
30
0.0000000000
10
348.4404499519
20
359.1554316904
30
0.0000000000
10
348.4334630616
20
359.1960229747
30
0.0000000000
11
348.6066769816
21
357.8825676324
31
0.0000000000
11
348.5956829632
21
357.9976903510
31
0.0000000000
11
348.5676963777
21
358.2595709242
31
0.0000000000
11
348.5347222965
21
358.5278230715
31
0.0000000000
11
348.4967913246
21
358.7999600207
31
0.0000000000
11
348.4539769563
21
359.0741733528
31
0.0000000000
11
348.4334630616
21
359.1960229747
31
0.0000000000
0
SPLINE
5
509
100
AcDbEntity
8
0
100
AcDbSpline
62
7
6
CONTINUOUS
70
0
71
3
72
13
73
9
74
7
42
0.0000001000
43
0.0000001000
44
0.0000000001
40
0.0000000000
40
0.0000000000
40
0.0000000000
40
0.0000000000
40
0.1164437385
40
0.3308591844
40
0.5483880725
40
0.7693427645
40
0.9940320668
40
1.0000000000
40
1.0000000000
40
1.0000000000
40
1.0000000000
10
348.4329999412
20
359.1987122326
30
0.0000000000
10
348.4242547228
20
359.2494695798
30
0.0000000000
10
348.3987449884
20
359.3935758009
30
0.0000000000
10
348.3533538813
20
359.6318619362
30
0.0000000000
10
348.2944950328
20
359.9146005387
30
0.0000000000
10
348.2297612522
20
360.2007138585
30
0.0000000000
10
348.1822672413
20
360.3947502807
30
0.0000000000
10
348.1571123188
20
360.4936247102
30
0.0000000000
10
348.1564608695
20
360.4961827947
30
0.0000000000
11
348.4329999412
21
359.1987122326
31
0.0000000000
11
348.4060663709
21
359.3508618424
31
0.0000000000
11
348.3528262956
21
359.6303526246
31
0.0000000000
11
348.2939985856
21
359.9129421613
31
0.0000000000
11
348.2292983190
21
360.1989078533
31
0.0000000000
11
348.1584134147
21
360.4885080825
31
0.0000000000
11
348.1564608695
21
360.4961827947
31
0.0000000000
0
SPLINE
5
50A
100
AcDbEntity
8
0
100
AcDbSpline
62
7
6
CONTINUOUS
70
0
71
3
72
12
73
8
74
6
42
0.0000001000
43
0.0000001000
44
0.0000000001
40
0.0000000000
40
0.0000000000
40
0.0000000000
40
0.0000000000
40
0.2210414279
40
0.4550135704
40
0.6936708375
40
0.9373750275
40
1.0000000000
40
1.0000000000
40
1.0000000000
40
1.0000000000
10
348.1556193869
20
360.4994856981
30
0.0000000000
10
348.1315643655
20
360.5938641693
30
0.0000000000
10
348.0803633203
20
360.7877130438
30
0.0000000000
10
347.9970477046
20
361.0817989319
30
0.0000000000
10
347.9053987025
20
361.3838475428
30
0.0000000000
10
347.8313403796
20
361.6122874601
30
0.0000000000
10
347.7881767431
20
361.7401759774
30
0.0000000000
10
347.7792883985
20
361.7662992952
30
0.0000000000
11
348.1556193869
21
360.4994856981
31
0.0000000000
11
348.0810042265
21
360.7819816088
31
0.0000000000
11
347.9967031005
21
361.0795466128
31
0.0000000000
11
347.9051058639
21
361.3814251006
31
0.0000000000
11
347.8057610027
21
361.6878642271
31
0.0000000000
11
347.7792883985
21
361.7662992952
31
0.0000000000
0
SPLINE
5
50B
100
AcDbEntity
8
0
100
AcDbSpline
62
7
6
CONTINUOUS
70
0
71
3
72
12
73
8
74
6
42
0.0000001000
43
0.0000001000
44
0.0000000001
40
0.0000000000
40
0.0000000000
40
0.0000000000
40
0.0000000000
40
0.1824063307
40
0.4368966559
40
0.6975174750
40
0.9646314138
40
1.0000000000
40
1.0000000000
40
1.0000000000
40
1.0000000000
10
347.7776711554
20
361.7710501409
30
0.0000000000
10
347.7517186830
20
361.8472514805
30
0.0000000000
10
347.6882511246
20
362.0293227277
30
0.0000000000
10
347.5819521737
20
362.3182317426
30
0.0000000000
10
347.4562202177
20
362.6397520238
30
0.0000000000
10
347.3609366892
20
362.8692835253
30
0.0000000000
10
347.3082967714
20
362.9919586126
30
0.0000000000
10
347.3021218193
20
363.0062941631
30
0.0000000000
11
347.7776711554
21
361.7710501409
31
0.0000000000
11
347.6981799320
21
361.9990890730
31
0.0000000000
11
347.5818378203
21
362.3152948108
31
0.0000000000
11
347.4561730852
21
362.6366437109
31
0.0000000000
11
347.3205869883
21
362.9632618703
31
0.0000000000
11
347.3021218193
21
363.0062941631
31
0.0000000000
0
SPLINE
5
50C
100
AcDbEntity
8
0
100
AcDbSpline
62
7
6
CONTINUOUS
70
0
71
3
72
11
73
7
74
5
42
0.0000001000
43
0.0000001000
44
0.0000000001
40
0.0000000000
40
0.0000000000
40
0.0000000000
40
0.0000000000
40
0.2346394559
40
0.5163986240
40
0.8057518107
40
1.0000000000
40
1.0000000000
40
1.0000000000
40
1.0000000000
10
347.2997963420
20
363.0116903236
30
0.0000000000
10
347.2588812074
20
363.1065865087
30
0.0000000000
10
347.1669162505
20
363.3146087506
30
0.0000000000
10
347.0168876186
20
363.6362319079
30
0.0000000000
10
346.8675877867
20
363.9384736106
30
0.0000000000
10
346.7696588370
20
364.1276220144
30
0.0000000000
10
346.7297485362
20
364.2032943465
30
0.0000000000
11
347.2997963420
21
363.0116903236
31
0.0000000000
11
347.1744433255
21
363.2952357317
31
0.0000000000
11
347.0170680376
21
363.6326087960
31
0.0000000000
11
346.8477495234
21
363.9753768634
31
0.0000000000
11
346.7297485362
21
364.2032943465
31
0.0000000000
0
SPLINE
5
50D
100
AcDbEntity
8
0
100
AcDbSpline
62
7
6
CONTINUOUS
70
0
71
3
72
9
73
5
74
3
42
0.0000001000
43
0.0000001000
44
0.0000000001
40
0.0000000000
40
0.0000000000
40
0.0000000000
40
0.0000000000
40
0.2521755267
40
1.0000000000
40
1.0000000000
40
1.0000000000
40
1.0000000000
10
346.7297485362
20
364.2032943465
30
0.0000000000
10
346.7085736875
20
364.2434431338
30
0.0000000000
10
346.6239629497
20
364.4023146872
30
0.0000000000
10
346.5368164897
20
364.5598259576
30
0.0000000000
10
346.4702506507
20
364.6768161956
30
0.0000000000
11
346.7297485362
21
364.2032943465
31
0.0000000000
11
346.6657389199
21
364.3234836653
31
0.0000000000
11
346.4702506507
21
364.6768161956
31
0.0000000000
0
SPLINE
5
50E
100
AcDbEntity
8
0
100
AcDbSpline
62
7
6
CONTINUOUS
70
0
71
3
72
14
73
10
74
8
42
0.0000001000
43
0.0000001000
44
0.0000000001
40
0.0000000000
40
0.0000000000
40
0.0000000000
40
0.0000000000
40
0.0875068105
40
0.2623927246
40
0.4436539218
40
0.6232800028
40
0.7895870490
40
0.9246001298
40
1.0000000000
40
1.0000000000
40
1.0000000000
40
1.0000000000
10
348.6777753939
20
356.2903459681
30
0.0000000000
10
348.6777753867
20
356.2966769537
30
0.0000000000
10
348.6777675459
20
356.3156578689
30
0.0000000000
10
348.6777131634
20
356.3477043441
30
0.0000000000
10
348.6775729710
20
356.3866778874
30
0.0000000000
10
348.6773714243
20
356.4240298418
30
0.0000000000
10
348.6770879695
20
356.4613682874
30
0.0000000000
10
348.6769097800
20
356.4819939550
30
0.0000000000
10
348.6766490824
20
356.5074523694
30
0.0000000000
10
348.6766480292
20
356.5074523583
30
0.0000000000
11
348.6777753939
21
356.2903459681
31
0.0000000000
11
348.6777674517
21
356.3093339985
31
0.0000000000
11
348.6777020005
21
356.3472875984
31
0.0000000000
11
348.6775615602
21
356.3866245649
31
0.0000000000
11
348.6773470189
21
356.4256063395
31
0.0000000000
11
348.6770802071
21
356.4616972279
31
0.0000000000
11
348.6768152245
21
356.4909965030
31
0.0000000000
11
348.6766480292
21
356.5074523583
31
0.0000000000
0
SPLINE
5
50F
100
AcDbEntity
8
0
100
AcDbSpline
62
7
6
CONTINUOUS
70
0
71
3
72
11
73
7
74
5
42
0.0000001000
43
0.0000001000
44
0.0000000001
40
0.0000000000
40
0.0000000000
40
0.0000000000
40
0.0000000000
40
0.2738564970
40
0.5482375700
40
0.8226272439
40
1.0000000000
40
1.0000000000
40
1.0000000000
40
1.0000000000
10
317.3394629517
20
221.0532507815
30
0.0000000000
10
317.1636531573
20
220.8693556338
30
0.0000000000
10
316.8492562266
20
220.4631117090
30
0.0000000000
10
316.5150541328
20
219.7698394239
30
0.0000000000
10
316.3534414914
20
219.1099874359
30
0.0000000000
10
316.3250202593
20
218.6891045920
30
0.0000000000
10
316.3250011849
20
218.5240409292
30
0.0000000000
11
317.3394629517
21
221.0532507815
31
0.0000000000
11
316.8724304447
21
220.4495807449
31
0.0000000000
11
316.5402589871
21
219.7607986101
31
0.0000000000
11
316.3584561992
21
219.0180044840
31
0.0000000000
11
316.3250011849
21
218.5240409292
31
0.0000000000
0
SPLINE
5
510
100
AcDbEntity
8
0
100
AcDbSpline
62
7
6
CONTINUOUS
70
0
71
3
72
8
73
4
74
2
42
0.0000001000
43
0.0000001000
44
0.0000000001
40
0.0000000000
40
0.0000000000
40
0.0000000000
40
0.0000000000
40
1.0000000000
40
1.0000000000
40
1.0000000000
40
1.0000000000
10
314.7631209268
20
171.6892609225
30
0.0000000000
10
314.7134876054
20
171.6125512997
30
0.0000000000
10
314.6646644625
20
171.5353208830
30
0.0000000000
10
314.6166614875
20
171.4575862055
30
0.0000000000
11
314.7631209268
21
171.6892609225
31
0.0000000000
11
314.6166614875
21
171.4575862055
31
0.0000000000
0
SPLINE
5
511
100
AcDbEntity
8
0
100
AcDbSpline
62
7
6
CONTINUOUS
70
0
71
3
72
8
73
4
74
2
42
0.0000001000
43
0.0000001000
44
0.0000000001
40
0.0000000000
40
0.0000000000
40
0.0000000000
40
0.0000000000
40
1.0000000000
40
1.0000000000
40
1.0000000000
40
1.0000000000
10
314.6166614875
20
171.4575862055
30
0.0000000000
10
314.5825235250
20
171.4023041424
30
0.0000000000
10
314.5488003654
20
171.3467670476
30
0.0000000000
10
314.5154956013
20
171.2909808676
30
0.0000000000
11
314.6166614875
21
171.4575862055
31
0.0000000000
11
314.5154956013
21
171.2909808676
31
0.0000000000
0
SPLINE
5
512
100
AcDbEntity
8
0
100
AcDbSpline
62
7
6
CONTINUOUS
70
0
71
3
72
11
73
7
74
5
42
0.0000001000
43
0.0000001000
44
0.0000000001
40
0.0000000000
40
0.0000000000
40
0.0000000000
40
0.0000000000
40
0.1184527527
40
0.4116747548
40
0.7058106474
40
1.0000000000
40
1.0000000000
40
1.0000000000
40
1.0000000000
10
314.5154956013
20
171.2909808676
30
0.0000000000
10
314.3738922860
20
171.0537923374
30
0.0000000000
10
313.9080456253
20
170.2138100305
30
0.0000000000
10
313.2717061299
20
168.6898900273
30
0.0000000000
10
312.7864908884
20
166.6857443686
30
0.0000000000
10
312.6776267930
20
165.3125528110
30
0.0000000000
10
312.6776266151
20
164.6271336584
30
0.0000000000
11
314.5154956013
21
171.2909808676
31
0.0000000000
11
314.1136522239
21
170.5663639436
31
0.0000000000
11
313.3239337848
21
168.6751265261
31
0.0000000000
11
312.8402500189
21
166.6769503219
31
0.0000000000
11
312.6776266151
21
164.6271336584
31
0.0000000000
0
SPLINE
5
513
100
AcDbEntity
8
0
100
AcDbSpline
62
7
6
CONTINUOUS
70
0
71
3
72
20
73
16
74
14
42
0.0000001000
43
0.0000001000
44
0.0000000001
40
0.0000000000
40
0.0000000000
40
0.0000000000
40
0.0000000000
40
0.0319176161
40
0.0978061492
40
0.1685374107
40
0.2435970944
40
0.3225261104
40
0.4049113022
40
0.4903776588
40
0.5785817297
40
0.6692060078
40
0.7619540929
40
0.8565464825
40
0.9527168677
40
1.0000000000
40
1.0000000000
40
1.0000000000
40
1.0000000000
10
312.6776266167
20
164.0188439274
30
0.0000000000
10
312.6776234129
20
164.0154201244
30
0.0000000000
10
312.6776136998
20
164.0049284576
30
0.0000000000
10
312.6775980416
20
163.9868494466
30
0.0000000000
10
312.6775813023
20
163.9641425828
30
0.0000000000
10
312.6775675367
20
163.9400368634
30
0.0000000000
10
312.6775578486
20
163.9146810241
30
0.0000000000
10
312.6775529969
20
163.8882088590
30
0.0000000000
10
312.6775533604
20
163.8607417578
30
0.0000000000
10
312.6775589197
20
163.8323908499
30
0.0000000000
10
312.6775692479
20
163.8032588319
30
0.0000000000
10
312.6775835132
20
163.7734415402
30
0.0000000000
10
312.6776004677
20
163.7430293186
30
0.0000000000
10
312.6776153755
20
163.7174941247
30
0.0000000000
10
312.6776238818
20
163.7021058600
30
0.0000000000
10
312.6776266039
20
163.6970337964
30
0.0000000000
11
312.6776266167
21
164.0188439274
31
0.0000000000
11
312.6776171401
21
164.0085725182
31
0.0000000000
11
312.6775989309
21
163.9873689258
31
0.0000000000
11
312.6775822562
21
163.9646068924
31
0.0000000000
11
312.6775685154
21
163.9404519265
31
0.0000000000
11
312.6775588139
21
163.9150517680
31
0.0000000000
11
312.6775539099
21
163.8885393757
31
0.0000000000
11
312.6775541815
21
163.8610354326
31
0.0000000000
11
312.6775596082
21
163.8326504659
31
0.0000000000
11
312.6775697623
21
163.8034866530
31
0.0000000000
11
312.6775838080
21
163.7736393790
31
0.0000000000
11
312.6776005058
21
163.7431985903
31
0.0000000000
11
312.6776182225
21
163.7122499871
31
0.0000000000
11
312.6776266039
21
163.6970337964
31
0.0000000000
0
SPLINE
5
514
100
AcDbEntity
8
0
100
AcDbSpline
62
7
6
CONTINUOUS
70
0
71
3
72
16
73
12
74
10
42
0.0000001000
43
0.0000001000
44
0.0000000001
40
0.0000000000
40
0.0000000000
40
0.0000000000
40
0.0000000000
40
0.0994297639
40
0.2087209490
40
0.3243199492
40
0.4457902924
40
0.5726322275
40
0.7042829138
40
0.8402051943
40
0.9803105146
40
1.0000000000
40
1.0000000000
40
1.0000000000
40
1.0000000000
10
312.6776265884
20
163.2611117178
30
0.0000000000
10
312.6776225017
20
163.2421211076
30
0.0000000000
10
312.6776151573
20
163.2022564025
30
0.0000000000
10
312.6776076097
20
163.1403128396
30
0.0000000000
10
312.6776035971
20
163.0741596308
30
0.0000000000
10
312.6776032406
20
163.0046543123
30
0.0000000000
10
312.6776062213
20
162.9320831985
30
0.0000000000
10
312.6776118310
20
162.8567518337
30
0.0000000000
10
312.6776189657
20
162.7788872257
30
0.0000000000
10
312.6776240604
20
162.7224066730
30
0.0000000000
10
312.6776263849
20
162.6918866274
30
0.0000000000
10
312.6776266648
20
162.6881260296
30
0.0000000000
11
312.6776265884
21
163.2611117178
31
0.0000000000
11
312.6776160687
21
163.2041398868
31
0.0000000000
11
312.6776083772
21
163.1415176021
31
0.0000000000
11
312.6776042629
21
163.0752810293
31
0.0000000000
11
312.6776037702
21
163.0056802608
31
0.0000000000
11
312.6776065805
21
162.9330016470
31
0.0000000000
11
312.6776119826
21
162.8575676878
31
0.0000000000
11
312.6776188742
21
162.7796861664
31
0.0000000000
11
312.6776258055
21
162.6994078229
31
0.0000000000
11
312.6776266648
21
162.6881260296
31
0.0000000000
0
SPLINE
5
515
100
AcDbEntity
8
0
100
AcDbSpline
62
7
6
CONTINUOUS
70
0
71
3
72
8
73
4
74
2
42
0.0000001000
43
0.0000001000
44
0.0000000001
40
0.0000000000
40
0.0000000000
40
0.0000000000
40
0.0000000000
40
1.0000000000
40
1.0000000000
40
1.0000000000
40
1.0000000000
10
312.6776233389
20
164.2610392604
30
0.0000000000
10
312.6776209776
20
164.2577081610
30
0.0000000000
10
312.6776196344
20
164.2544110361
30
0.0000000000
10
312.6776192357
20
164.2511617560
30
0.0000000000
11
312.6776233389
21
164.2610392604
31
0.0000000000
11
312.6776192357
21
164.2511617560
31
0.0000000000
0
SPLINE
5
516
100
AcDbEntity
8
0
100
AcDbSpline
62
7
6
CONTINUOUS
70
0
71
3
72
20
73
16
74
14
42
0.0000001000
43
0.0000001000
44
0.0000000001
40
0.0000000000
40
0.0000000000
40
0.0000000000
40
0.0000000000
40
0.1078977212
40
0.2337846387
40
0.3537201112
40
0.4664651565
40
0.5709458227
40
0.6662010396
40
0.7514194308
40
0.8258747041
40
0.8888022083
40
0.9392575894
40
0.9759701124
40
0.9972657441
40
1.0000000000
40
1.0000000000
40
1.0000000000
40
1.0000000000
10
316.3249739051
20
189.2519526045
30
0.0000000000
10
316.3249770701
20
188.5994433256
30
0.0000000000
10
316.3142430464
20
187.1856128461
30
0.0000000000
10
316.2624618190
20
185.0470303167
30
0.0000000000
10
316.1703629683
20
182.8804436702
30
0.0000000000
10
316.0457256953
20
180.8451943624
30
0.0000000000
10
315.8934960663
20
178.9614331982
30
0.0000000000
10
315.7193863651
20
177.2471020752
30
0.0000000000
10
315.5291522669
20
175.7163630208
30
0.0000000000
10
315.3315183855
20
174.3868303581
30
0.0000000000
10
315.1308258274
20
173.2621650364
30
0.0000000000
10
314.9513118430
20
172.3895715090
30
0.0000000000
10
314.7785115145
20
171.7159054689
30
0.0000000000
10
314.7003977776
20
171.4220779694
30
0.0000000000
10
314.6368862753
20
171.2414961817
30
0.0000000000
10
314.6313106840
20
171.2253250587
30
0.0000000000
11
316.3249739051
21
189.2519526045
31
0.0000000000
11
316.3100655275
21
187.2944836944
31
0.0000000000
11
316.2544694029
21
185.0112822462
31
0.0000000000
11
316.1615417985
21
182.8373621757
31
0.0000000000
11
316.0357949837
21
180.7957766109
31
0.0000000000
11
315.8822332415
21
178.9064875021
31
0.0000000000
11
315.7064556571
21
177.1873015703
31
0.0000000000
11
315.5146797589
21
175.6531841732
31
0.0000000000
11
315.3139963309
21
174.3173849579
31
0.0000000000
11
315.1130449892
21
173.1935600104
31
0.0000000000
11
314.9232761318
21
172.2980700781
31
0.0000000000
11
314.7610871730
21
171.6520694401
31
0.0000000000
11
314.6509174675
21
171.2817583503
31
0.0000000000
11
314.6313106840
21
171.2253250587
31
0.0000000000
0
SPLINE
5
517
100
AcDbEntity
8
0
100
AcDbSpline
62
7
6
CONTINUOUS
70
0
71
3
72
17
73
13
74
11
42
0.0000001000
43
0.0000001000
44
0.0000000001
40
0.0000000000
40
0.0000000000
40
0.0000000000
40
0.0000000000
40
0.0376111042
40
0.1323051666
40
0.2346665084
40
0.3406981630
40
0.4487168699
40
0.5580561062
40
0.6679517392
40
0.7786166700
40
0.8892873520
40
1.0000000000
40
1.0000000000
40
1.0000000000
40
1.0000000000
10
328.1252320655
20
141.2838818252
30
0.0000000000
10
327.8262456875
20
141.3026067771
30
0.0000000000
10
326.7761175314
20
141.3973804603
30
0.0000000000
10
324.9349635949
20
141.7447165874
30
0.0000000000
10
322.6439428336
20
142.5286453434
30
0.0000000000
10
320.4023051098
20
143.6982844109
30
0.0000000000
10
318.3231517890
20
145.2335793026
30
0.0000000000
10
316.4885377700
20
147.0980205852
30
0.0000000000
10
314.9592275347
20
149.2461543787
30
0.0000000000
10
313.7858280029
20
151.6198463175
30
0.0000000000
10
313.0037840754
20
154.1557216378
30
0.0000000000
10
312.7584747184
20
155.9096663354
30
0.0000000000
10
312.7064435078
20
156.7893521505
30
0.0000000000
11
328.1252320655
21
141.2838818252
31
0.0000000000
11
327.2301710287
21
141.3646569143
31
0.0000000000
11
325.0081741461
21
141.7837124504
31
0.0000000000
11
322.6955386649
21
142.5749667921
31
0.0000000000
11
320.4508016737
21
143.7461381084
31
0.0000000000
11
318.3758300019
21
145.2782926805
31
0.0000000000
11
316.5445744002
21
147.1392516689
31
0.0000000000
11
315.0226500272
21
149.2769991637
31
0.0000000000
11
313.8515444079
21
151.6458549682
31
0.0000000000
11
313.0728805574
21
154.1712014081
31
0.0000000000
11
312.7064435078
21
156.7893521505
31
0.0000000000
0
SPLINE
5
518
100
AcDbEntity
8
0
100
AcDbSpline
62
7
6
CONTINUOUS
70
0
71
3
72
17
73
13
74
11
42
0.0000001000
43
0.0000001000
44
0.0000000001
40
0.0000000000
40
0.0000000000
40
0.0000000000
40
0.0000000000
40
0.0997987007
40
0.2138912147
40
0.3291391630
40
0.4442729301
40
0.5579844441
40
0.6690082188
40
0.7763278312
40
0.8789766014
40
0.9728396399
40
1.0000000000
40
1.0000000000
40
1.0000000000
40
1.0000000000
10
312.7064775035
20
156.7893541629
30
0.0000000000
10
312.7534292477
20
155.9962035419
30
0.0000000000
10
312.9767567131
20
154.3011001419
30
0.0000000000
10
313.7185101134
20
151.7769946388
30
0.0000000000
10
314.9203619641
20
149.2986811489
30
0.0000000000
10
316.5149116065
20
147.0567781778
30
0.0000000000
10
318.4331831493
20
145.1324943861
30
0.0000000000
10
320.5868094003
20
143.5813530678
30
0.0000000000
10
322.8782724378
20
142.4289656020
30
0.0000000000
10
325.1870744578
20
141.6803720436
30
0.0000000000
10
326.9465627598
20
141.3770892852
30
0.0000000000
10
327.9074811496
20
141.2974998753
30
0.0000000000
10
328.1233844353
20
141.2839318522
30
0.0000000000
11
312.7064775035
21
156.7893541629
31
0.0000000000
11
313.0181522732
21
154.4263124682
31
0.0000000000
11
313.7860220802
21
151.8127777486
31
0.0000000000
11
314.9867792450
21
149.3370107907
31
0.0000000000
11
316.5800113035
21
147.0969535342
31
0.0000000000
11
318.4967754878
21
145.1742659107
31
0.0000000000
11
320.6476942408
21
143.6250907333
31
0.0000000000
11
322.9368634781
21
142.4739748141
31
0.0000000000
11
325.2681753243
21
141.7181309307
31
0.0000000000
11
327.4766263740
21
141.3374795106
31
0.0000000000
11
328.1233844353
21
141.2839318522
31
0.0000000000
0
SPLINE
5
519
100
AcDbEntity
8
0
100
AcDbSpline
62
7
6
CONTINUOUS
70
0
71
3
72
9
73
5
74
3
42
0.0000001000
43
0.0000001000
44
0.0000000001
40
0.0000000000
40
0.0000000000
40
0.0000000000
40
0.0000000000
40
0.5092999073
40
1.0000000000
40
1.0000000000
40
1.0000000000
40
1.0000000000
10
312.6778332685
20
157.7648489539
30
0.0000000000
10
312.6781133783
20
157.6008840429
30
0.0000000000
10
312.6838673740
20
157.2789656626
30
0.0000000000
10
312.6985514688
20
156.9573270702
30
0.0000000000
10
312.7077571944
20
156.7996239390
30
0.0000000000
11
312.6778332685
21
157.7648489539
31
0.0000000000
11
312.6862907435
21
157.2730506136
31
0.0000000000
11
312.7077571944
21
156.7996239390
31
0.0000000000
0
SPLINE
5
51A
100
AcDbEntity
8
0
100
AcDbSpline
62
7
6
CONTINUOUS
70
0
71
3
72
8
73
4
74
2
42
0.0000001000
43
0.0000001000
44
0.0000000001
40
0.0000000000
40
0.0000000000
40
0.0000000000
40
0.0000000000
40
1.0000000000
40
1.0000000000
40
1.0000000000
40
1.0000000000
10
329.1454669919
20
141.2519526045
30
0.0000000000
10
328.8052982156
20
141.2519371090
30
0.0000000000
10
328.4649676732
20
141.2626048260
30
0.0000000000
10
328.1252320655
20
141.2838818252
30
0.0000000000
11
329.1454669919
21
141.2519526045
31
0.0000000000
11
328.1252320655
21
141.2838818252
31
0.0000000000
0
SPLINE
5
51B
100
AcDbEntity
8
0
100
AcDbSpline
62
7
6
CONTINUOUS
70
0
71
3
72
14
73
10
74
8
42
0.0000001000
43
0.0000001000
44
0.0000000001
40
0.0000000000
40
0.0000000000
40
0.0000000000
40
0.0000000000
40
0.0748377008
40
0.2085376239
40
0.3704173176
40
0.5445098473
40
0.7199335522
40
0.8887039758
40
1.0000000000
40
1.0000000000
40
1.0000000000
40
1.0000000000
10
312.6786181900
20
356.5086957241
30
0.0000000000
10
312.6785903276
20
356.5060299427
30
0.0000000000
10
312.6783291335
20
356.4805542870
30
0.0000000000
10
312.6781607014
20
356.4607173680
30
0.0000000000
10
312.6778852646
20
356.4244463918
30
0.0000000000
10
312.6776896241
20
356.3885145924
30
0.0000000000
10
312.6775502062
20
356.3510941389
30
0.0000000000
10
312.6774883858
20
356.3184451671
30
0.0000000000
10
312.6774778326
20
356.2983371648
30
0.0000000000
10
312.6774778151
20
356.2903459738
30
0.0000000000
11
312.6786181900
21
356.5086957241
31
0.0000000000
11
312.6784242849
21
356.4895877603
31
0.0000000000
11
312.6781655481
21
356.4607947960
31
0.0000000000
11
312.6779083292
21
356.4259327151
31
0.0000000000
11
312.6776999811
21
356.3884400610
31
0.0000000000
11
312.6775603323
21
356.3506603992
31
0.0000000000
11
312.6774905563
21
356.3143134224
31
0.0000000000
11
312.6774778151
21
356.2903459738
31
0.0000000000
0
SPLINE
5
51C
100
AcDbEntity
8
0
100
AcDbSpline
62
7
6
CONTINUOUS
70
0
71
3
72
9
73
5
74
3
42
0.0000001000
43
0.0000001000
44
0.0000000001
40
0.0000000000
40
0.0000000000
40
0.0000000000
40
0.0000000000
40
0.2340148562
40
1.0000000000
40
1.0000000000
40
1.0000000000
40
1.0000000000
10
312.6791544973
20
356.5581329815
30
0.0000000000
10
312.6792438782
20
356.5652990186
30
0.0000000000
10
312.6783631570
20
356.5038415741
30
0.0000000000
10
312.6778994930
20
356.4442135133
30
0.0000000000
10
312.6776993546
20
356.4038606031
30
0.0000000000
11
312.6791544973
21
356.5581329815
31
0.0000000000
11
312.6788545138
21
356.5366352910
31
0.0000000000
11
312.6776993546
21
356.4038606031
31
0.0000000000
0
SPLINE
5
51D
100
AcDbEntity
8
0
100
AcDbSpline
62
7
6
CONTINUOUS
70
0
71
3
72
8
73
4
74
2
42
0.0000001000
43
0.0000001000
44
0.0000000001
40
0.0000000000
40
0.0000000000
40
0.0000000000
40
0.0000000000
40
1.0000000000
40
1.0000000000
40
1.0000000000
40
1.0000000000
10
329.6774406508
20
373.2519435627
30
0.0000000000
10
329.3248836938
20
373.2519250706
30
0.0000000000
10
328.9721140264
20
373.2410202417
30
0.0000000000
10
328.6199277008
20
373.2192544088
30
0.0000000000
11
329.6774406508
21
373.2519435627
31
0.0000000000
11
328.6199277008
21
373.2192544088
31
0.0000000000
0
SPLINE
5
51E
100
AcDbEntity
8
0
100
AcDbSpline
62
7
6
CONTINUOUS
70
0
71
3
72
17
73
13
74
11
42
0.0000001000
43
0.0000001000
44
0.0000000001
40
0.0000000000
40
0.0000000000
40
0.0000000000
40
0.0000000000
40
0.0527810253
40
0.1588973320
40
0.2646643489
40
0.3701357740
40
0.4753817661
40
0.5804901986
40
0.6854617526
40
0.7903477400
40
0.8952759460
40
1.0000000000
40
1.0000000000
40
1.0000000000
40
1.0000000000
10
328.6199277008
20
373.2192544088
30
0.0000000000
10
328.1745161471
20
373.1917270667
30
0.0000000000
10
326.8364131205
20
373.0565577748
30
0.0000000000
10
324.6460209110
20
372.5699458919
30
0.0000000000
10
322.1429098219
20
371.5816600807
30
0.0000000000
10
319.8322385573
20
370.2169372528
30
0.0000000000
10
317.7683057727
20
368.5104456338
30
0.0000000000
10
316.0002728703
20
366.5046088274
30
0.0000000000
10
314.5703827855
20
364.2488960974
30
0.0000000000
10
313.5127530705
20
361.7979748568
30
0.0000000000
10
312.8537306375
20
359.2140222261
30
0.0000000000
10
312.6906129403
20
357.4424061833
30
0.0000000000
10
312.6791544973
20
356.5581329815
30
0.0000000000
11
328.6199277008
21
373.2192544088
31
0.0000000000
11
327.2881024715
21
373.0846078509
31
0.0000000000
11
324.6637873598
21
372.5015145449
31
0.0000000000
11
322.1716307762
21
371.5172966478
31
0.0000000000
11
319.8710326863
21
370.1583618043
31
0.0000000000
11
317.8162746775
21
368.4592626039
31
0.0000000000
11
316.0556265572
21
366.4616351004
31
0.0000000000
11
314.6319519617
21
364.2155066428
31
0.0000000000
11
313.5792027594
21
361.7758064669
31
0.0000000000
11
312.9224741593
21
359.1999938907
31
0.0000000000
11
312.6791544973
21
356.5581329815
31
0.0000000000
0
SPLINE
5
51F
100
AcDbEntity
8
0
100
AcDbSpline
62
7
6
CONTINUOUS
70
0
71
3
72
9
73
5
74
3
42
0.0000001000
43
0.0000001000
44
0.0000000001
40
0.0000000000
40
0.0000000000
40
0.0000000000
40
0.0000000000
40
0.4893787382
40
1.0000000000
40
1.0000000000
40
1.0000000000
40
1.0000000000
10
226.4550409580
20
144.3767701513
30
0.0000000000
10
226.5154327469
20
144.3331080923
30
0.0000000000
10
226.6404053122
20
144.2460428303
30
0.0000000000
10
226.7680448866
20
144.1629484759
30
0.0000000000
10
226.8338027341
20
144.1214510104
30
0.0000000000
11
226.4550409580
21
144.3767701513
31
0.0000000000
11
226.6383893057
21
144.2488433150
31
0.0000000000
11
226.8338027341
21
144.1214510104
31
0.0000000000
0
SPLINE
5
520
100
AcDbEntity
8
0
100
AcDbSpline
62
7
6
CONTINUOUS
70
0
71
3
72
9
73
5
74
3
42
0.0000001000
43
0.0000001000
44
0.0000000001
40
0.0000000000
40
0.0000000000
40
0.0000000000
40
0.0000000000
40
0.4976538679
40
1.0000000000
40
1.0000000000
40
1.0000000000
40
1.0000000000
10
226.2847965686
20
144.6320892921
30
0.0000000000
10
226.3123018326
20
144.5892521462
30
0.0000000000
10
226.3683277825
20
144.5036572392
30
0.0000000000
10
226.4258114929
20
144.4190347919
30
0.0000000000
10
226.4550409580
20
144.3767701513
30
0.0000000000
11
226.2847965686
21
144.6320892921
31
0.0000000000
11
226.3684259220
21
144.5042997119
31
0.0000000000
11
226.4550409580
21
144.3767701513
31
0.0000000000
0
SPLINE
5
521
100
AcDbEntity
8
0
100
AcDbSpline
62
7
6
CONTINUOUS
70
0
71
3
72
9
73
5
74
3
42
0.0000001000
43
0.0000001000
44
0.0000000001
40
0.0000000000
40
0.0000000000
40
0.0000000000
40
0.0000000000
40
0.4997157080
40
1.0000000000
40
1.0000000000
40
1.0000000000
40
1.0000000000
10
226.1271217394
20
145.1427275738
30
0.0000000000
10
226.1524322529
20
145.0573794916
30
0.0000000000
10
226.2040415337
20
144.8868693011
30
0.0000000000
10
226.2575535598
20
144.7169467029
30
0.0000000000
10
226.2847965686
20
144.6320892921
30
0.0000000000
11
226.1271217394
21
145.1427275738
31
0.0000000000
11
226.2044873350
21
144.8871129815
31
0.0000000000
11
226.2847965686
21
144.6320892921
31
0.0000000000
0
SPLINE
5
522
100
AcDbEntity
8
0
100
AcDbSpline
62
7
6
CONTINUOUS
70
0
71
3
72
9
73
5
74
3
42
0.0000001000
43
0.0000001000
44
0.0000000001
40
0.0000000000
40
0.0000000000
40
0.0000000000
40
0.0000000000
40
0.5003002598
40
1.0000000000
40
1.0000000000
40
1.0000000000
40
1.0000000000
10
226.0289256786
20
146.1640041373
30
0.0000000000
10
226.0448463818
20
145.9936458592
30
0.0000000000
10
226.0771231925
20
145.6531761097
30
0.0000000000
10
226.1103103419
20
145.3127938878
30
0.0000000000
10
226.1271217394
20
145.1427275738
30
0.0000000000
11
226.0289256786
21
146.1640041373
31
0.0000000000
11
226.0773704334
21
145.6529935591
31
0.0000000000
11
226.1271217394
21
145.1427275738
31
0.0000000000
0
SPLINE
5
523
100
AcDbEntity
8
0
100
AcDbSpline
62
7
6
CONTINUOUS
70
0
71
3
72
9
73
5
74
3
42
0.0000001000
43
0.0000001000
44
0.0000000001
40
0.0000000000
40
0.0000000000
40
0.0000000000
40
0.0000000000
40
0.4992549184
40
1.0000000000
40
1.0000000000
40
1.0000000000
40
1.0000000000
10
225.6488381372
20
176.9529743445
30
0.0000000000
10
225.6622569043
20
176.9103147869
30
0.0000000000
10
225.6896649072
20
176.8250343031
30
0.0000000000
10
225.7181208067
20
176.7400977773
30
0.0000000000
10
225.7326289884
20
176.6976552260
30
0.0000000000
11
225.6488381372
21
176.9529743445
31
0.0000000000
11
225.6898852588
21
176.8252471184
31
0.0000000000
11
225.7326289884
21
176.6976552260
31
0.0000000000
0
SPLINE
5
524
100
AcDbEntity
8
0
100
AcDbSpline
62
7
6
CONTINUOUS
70
0
71
3
72
9
73
5
74
3
42
0.0000001000
43
0.0000001000
44
0.0000000001
40
0.0000000000
40
0.0000000000
40
0.0000000000
40
0.0000000000
40
0.5001196042
40
1.0000000000
40
1.0000000000
40
1.0000000000
40
1.0000000000
10
225.7326289884
20
176.6976552260
30
0.0000000000
10
225.7423320344
20
176.6124988809
30
0.0000000000
10
225.7619890459
20
176.4422559433
30
0.0000000000
10
225.7821572794
20
176.2720728114
30
0.0000000000
10
225.7923667850
20
176.1870169891
30
0.0000000000
11
225.7326289884
21
176.6976552260
31
0.0000000000
11
225.7621216147
21
176.4422301783
31
0.0000000000
11
225.7923667850
21
176.1870169891
31
0.0000000000
0
SPLINE
5
525
100
AcDbEntity
8
0
100
AcDbSpline
62
7
6
CONTINUOUS
70
0
71
3
72
9
73
5
74
3
42
0.0000001000
43
0.0000001000
44
0.0000000001
40
0.0000000000
40
0.0000000000
40
0.0000000000
40
0.0000000000
40
0.5001152331
40
1.0000000000
40
1.0000000000
40
1.0000000000
40
1.0000000000
10
225.7923667850
20
176.1870169891
30
0.0000000000
10
225.7974758242
20
176.0593252739
30
0.0000000000
10
225.8077563628
20
175.8040032764
30
0.0000000000
10
225.8181666162
20
175.5486865350
30
0.0000000000
10
225.8234029863
20
175.4210589183
30
0.0000000000
11
225.7923667850
21
176.1870169891
31
0.0000000000
11
225.8077911758
21
175.8039457479
31
0.0000000000
11
225.8234029863
21
175.4210589183
31
0.0000000000
0
SPLINE
5
526
100
AcDbEntity
8
0
100
AcDbSpline
62
7
6
CONTINUOUS
70
0
71
3
72
9
73
5
74
3
42
0.0000001000
43
0.0000001000
44
0.0000000001
40
0.0000000000
40
0.0000000000
40
0.0000000000
40
0.0000000000
40
0.5001152331
40
1.0000000000
40
1.0000000000
40
1.0000000000
40
1.0000000000
10
225.7923667850
20
174.1444633258
30
0.0000000000
10
225.7974758242
20
174.2721549217
30
0.0000000000
10
225.8077563628
20
174.5274766807
30
0.0000000000
10
225.8181666162
20
174.7827931838
30
0.0000000000
10
225.8234029863
20
174.9104206813
30
0.0000000000
11
225.7923667850
21
174.1444633258
31
0.0000000000
11
225.8077911758
21
174.5275342092
31
0.0000000000
11
225.8234029863
21
174.9104206813
31
0.0000000000
0
SPLINE
5
527
100
AcDbEntity
8
0
100
AcDbSpline
62
7
6
CONTINUOUS
70
0
71
3
72
9
73
5
74
3
42
0.0000001000
43
0.0000001000
44
0.0000000001
40
0.0000000000
40
0.0000000000
40
0.0000000000
40
0.0000000000
40
0.5001196042
40
1.0000000000
40
1.0000000000
40
1.0000000000
40
1.0000000000
10
225.7326289884
20
173.6338250888
30
0.0000000000
10
225.7423320344
20
173.7189814340
30
0.0000000000
10
225.7619890459
20
173.8892243716
30
0.0000000000
10
225.7821572794
20
174.0594075034
30
0.0000000000
10
225.7923667850
20
174.1444633258
30
0.0000000000
11
225.7326289884
21
173.6338250888
31
0.0000000000
11
225.7621216147
21
173.8892501365
31
0.0000000000
11
225.7923667850
21
174.1444633258
31
0.0000000000
0
SPLINE
5
528
100
AcDbEntity
8
0
100
AcDbSpline
62
7
6
CONTINUOUS
70
0
71
3
72
9
73
5
74
3
42
0.0000001000
43
0.0000001000
44
0.0000000001
40
0.0000000000
40
0.0000000000
40
0.0000000000
40
0.0000000000
40
0.4992549184
40
1.0000000000
40
1.0000000000
40
1.0000000000
40
1.0000000000
10
225.6488381372
20
173.3785059703
30
0.0000000000
10
225.6622569043
20
173.4211655279
30
0.0000000000
10
225.6896649072
20
173.5064460117
30
0.0000000000
10
225.7181208067
20
173.5913825376
30
0.0000000000
10
225.7326289884
20
173.6338250888
30
0.0000000000
11
225.6488381372
21
173.3785059703
31
0.0000000000
11
225.6898852588
21
173.5062331965
31
0.0000000000
11
225.7326289884
21
173.6338250888
31
0.0000000000
0
SPLINE
5
529
100
AcDbEntity
8
0
100
AcDbSpline
62
7
6
CONTINUOUS
70
0
71
3
72
9
73
5
74
3
42
0.0000001000
43
0.0000001000
44
0.0000000001
40
0.0000000000
40
0.0000000000
40
0.0000000000
40
0.0000000000
40
0.5001152331
40
1.0000000000
40
1.0000000000
40
1.0000000000
40
1.0000000000
10
225.7923667850
20
168.7827614797
30
0.0000000000
10
225.7974758242
20
168.9104530756
30
0.0000000000
10
225.8077563628
20
169.1657748346
30
0.0000000000
10
225.8181666162
20
169.4210913377
30
0.0000000000
10
225.8234029863
20
169.5487188352
30
0.0000000000
11
225.7923667850
21
168.7827614797
31
0.0000000000
11
225.8077911758
21
169.1658323631
31
0.0000000000
11
225.8234029863
21
169.5487188352
31
0.0000000000
0
SPLINE
5
52A
100
AcDbEntity
8
0
100
AcDbSpline
62
7
6
CONTINUOUS
70
0
71
3
72
9
73
5
74
3
42
0.0000001000
43
0.0000001000
44
0.0000000001
40
0.0000000000
40
0.0000000000
40
0.0000000000
40
0.0000000000
40
0.5001196043
40
1.0000000000
40
1.0000000000
40
1.0000000000
40
1.0000000000
10
225.7326289884
20
168.2721230639
30
0.0000000000
10
225.7423320344
20
168.3572794388
30
0.0000000000
10
225.7619890459
20
168.5275224361
30
0.0000000000
10
225.7821572794
20
168.6977056275
30
0.0000000000
10
225.7923667850
20
168.7827614797
30
0.0000000000
11
225.7326289884
21
168.2721230639
31
0.0000000000
11
225.7621216147
21
168.5275482011
31
0.0000000000
11
225.7923667850
21
168.7827614797
31
0.0000000000
0
SPLINE
5
52B
100
AcDbEntity
8
0
100
AcDbSpline
62
7
6
CONTINUOUS
70
0
71
3
72
9
73
5
74
3
42
0.0000001000
43
0.0000001000
44
0.0000000001
40
0.0000000000
40
0.0000000000
40
0.0000000000
40
0.0000000000
40
0.4992549184
40
1.0000000000
40
1.0000000000
40
1.0000000000
40
1.0000000000
10
225.6488381372
20
168.0168039454
30
0.0000000000
10
225.6622569043
20
168.0594635030
30
0.0000000000
10
225.6896649072
20
168.1447439868
30
0.0000000000
10
225.7181208067
20
168.2296805126
30
0.0000000000
10
225.7326289884
20
168.2721230639
30
0.0000000000
11
225.6488381372
21
168.0168039454
31
0.0000000000
11
225.6898852588
21
168.1445311715
31
0.0000000000
11
225.7326289884
21
168.2721230639
31
0.0000000000
0
SPLINE
5
52C
100
AcDbEntity
8
0
100
AcDbSpline
62
7
6
CONTINUOUS
70
0
71
3
72
9
73
5
74
3
42
0.0000001000
43
0.0000001000
44
0.0000000001
40
0.0000000000
40
0.0000000000
40
0.0000000000
40
0.0000000000
40
0.4992549184
40
1.0000000000
40
1.0000000000
40
1.0000000000
40
1.0000000000
10
225.6488381372
20
171.8465912593
30
0.0000000000
10
225.6622569043
20
171.8039317017
30
0.0000000000
10
225.6896649072
20
171.7186512179
30
0.0000000000
10
225.7181208067
20
171.6337146920
30
0.0000000000
10
225.7326289884
20
171.5912721408
30
0.0000000000
11
225.6488381372
21
171.8465912593
31
0.0000000000
11
225.6898852588
21
171.7188640331
31
0.0000000000
11
225.7326289884
21
171.5912721408
31
0.0000000000
0
SPLINE
5
52D
100
AcDbEntity
8
0
100
AcDbSpline
62
7
6
CONTINUOUS
70
0
71
3
72
9
73
5
74
3
42
0.0000001000
43
0.0000001000
44
0.0000000001
40
0.0000000000
40
0.0000000000
40
0.0000000000
40
0.0000000000
40
0.5001196042
40
1.0000000000
40
1.0000000000
40
1.0000000000
40
1.0000000000
10
225.7326289884
20
171.5912721408
30
0.0000000000
10
225.7423320344
20
171.5061157956
30
0.0000000000
10
225.7619890459
20
171.3358728580
30
0.0000000000
10
225.7821572794
20
171.1656897262
30
0.0000000000
10
225.7923667850
20
171.0806339038
30
0.0000000000
11
225.7326289884
21
171.5912721408
31
0.0000000000
11
225.7621216147
21
171.3358470930
31
0.0000000000
11
225.7923667850
21
171.0806339038
31
0.0000000000
0
SPLINE
5
52E
100
AcDbEntity
8
0
100
AcDbSpline
62
7
6
CONTINUOUS
70
0
71
3
72
9
73
5
74
3
42
0.0000001000
43
0.0000001000
44
0.0000000001
40
0.0000000000
40
0.0000000000
40
0.0000000000
40
0.0000000000
40
0.5001152331
40
1.0000000000
40
1.0000000000
40
1.0000000000
40
1.0000000000
10
225.7923667850
20
171.0806339038
30
0.0000000000
10
225.7974758242
20
170.9529422483
30
0.0000000000
10
225.8077563628
20
170.6976203700
30
0.0000000000
10
225.8181666162
20
170.4423037477
30
0.0000000000
10
225.8234029863
20
170.3146761907
30
0.0000000000
11
225.7923667850
21
171.0806339038
31
0.0000000000
11
225.8077911758
21
170.6975628416
31
0.0000000000
11
225.8234029863
21
170.3146761907
31
0.0000000000
0
SPLINE
5
52F
100
AcDbEntity
8
0
100
AcDbSpline
62
7
6
CONTINUOUS
70
0
71
3
72
9
73
5
74
3
42
0.0000001000
43
0.0000001000
44
0.0000000001
40
0.0000000000
40
0.0000000000
40
0.0000000000
40
0.0000000000
40
0.5002725343
40
1.0000000000
40
1.0000000000
40
1.0000000000
40
1.0000000000
10
228.1286597142
20
168.7827614797
30
0.0000000000
10
228.1402932050
20
168.9104974865
30
0.0000000000
10
228.1636224716
20
169.1658235050
30
0.0000000000
10
228.1871018939
20
169.4211357591
30
0.0000000000
10
228.1988727838
20
169.5487188352
30
0.0000000000
11
228.1286597142
21
168.7827614797
31
0.0000000000
11
228.1636727675
21
169.1659592303
31
0.0000000000
11
228.1988727838
21
169.5487188352
31
0.0000000000
0
SPLINE
5
530
100
AcDbEntity
8
0
100
AcDbSpline
62
7
6
CONTINUOUS
70
0
71
3
72
9
73
5
74
3
42
0.0000001000
43
0.0000001000
44
0.0000000001
40
0.0000000000
40
0.0000000000
40
0.0000000000
40
0.0000000000
40
0.5001745334
40
1.0000000000
40
1.0000000000
40
1.0000000000
40
1.0000000000
10
227.9234438113
20
168.2721230639
30
0.0000000000
10
227.9570760808
20
168.3574914658
30
0.0000000000
10
228.0249012040
20
168.5279391694
30
0.0000000000
10
228.0938888340
20
168.6979196700
30
0.0000000000
10
228.1286597142
20
168.7827614797
30
0.0000000000
11
227.9234438113
21
168.2721230639
31
0.0000000000
11
228.0252157091
21
168.5278817847
31
0.0000000000
11
228.1286597142
21
168.7827614797
31
0.0000000000
0
SPLINE
5
531
100
AcDbEntity
8
0
100
AcDbSpline
62
7
6
CONTINUOUS
70
0
71
3
72
8
73
4
74
2
42
0.0000001000
43
0.0000001000
44
0.0000000001
40
0.0000000000
40
0.0000000000
40
0.0000000000
40
0.0000000000
40
1.0000000000
40
1.0000000000
40
1.0000000000
40
1.0000000000
10
225.2427749809
20
147.1852807901
30
0.0000000000
10
225.2406024891
20
147.1001976735
30
0.0000000000
10
225.2384844062
20
147.0151131503
30
0.0000000000
10
225.2364207181
20
146.9300272991
30
0.0000000000
11
225.2427749809
21
147.1852807901
31
0.0000000000
11
225.2364207181
21
146.9300272991
31
0.0000000000
0
SPLINE
5
532
100
AcDbEntity
8
0
100
AcDbSpline
62
7
6
CONTINUOUS
70
0
71
3
72
8
73
4
74
2
42
0.0000001000
43
0.0000001000
44
0.0000000001
40
0.0000000000
40
0.0000000000
40
0.0000000000
40
0.0000000000
40
1.0000000000
40
1.0000000000
40
1.0000000000
40
1.0000000000
10
225.2364207181
20
146.9300272991
30
0.0000000000
10
225.2343567405
20
146.8449295107
30
0.0000000000
10
225.2323471731
20
146.7598303939
30
0.0000000000
10
225.2303920016
20
146.6747300274
30
0.0000000000
11
225.2364207181
21
146.9300272991
31
0.0000000000
11
225.2303920016
21
146.6747300274
31
0.0000000000
0
SPLINE
5
533
100
AcDbEntity
8
0
100
AcDbSpline
62
7
6
CONTINUOUS
70
0
71
3
72
8
73
4
74
2
42
0.0000001000
43
0.0000001000
44
0.0000000001
40
0.0000000000
40
0.0000000000
40
0.0000000000
40
0.0000000000
40
1.0000000000
40
1.0000000000
40
1.0000000000
40
1.0000000000
10
225.2303920016
20
146.6747300274
30
0.0000000000
10
225.2284365523
20
146.5896175667
30
0.0000000000
10
225.2265355145
20
146.5045038560
30
0.0000000000
10
225.2246888755
20
146.4193889738
30
0.0000000000
11
225.2303920016
21
146.6747300274
31
0.0000000000
11
225.2246888755
21
146.4193889738
31
0.0000000000
0
SPLINE
5
534
100
AcDbEntity
8
0
100
AcDbSpline
62
7
6
CONTINUOUS
70
0
71
3
72
8
73
4
74
2
42
0.0000001000
43
0.0000001000
44
0.0000000001
40
0.0000000000
40
0.0000000000
40
0.0000000000
40
0.0000000000
40
1.0000000000
40
1.0000000000
40
1.0000000000
40
1.0000000000
10
225.2246888755
20
146.4193889738
30
0.0000000000
10
225.2228419707
20
146.3342618406
30
0.0000000000
10
225.2210494804
20
146.2491335356
30
0.0000000000
10
225.2193113920
20
146.1640041373
30
0.0000000000
11
225.2246888755
21
146.4193889738
31
0.0000000000
11
225.2193113920
21
146.1640041373
31
0.0000000000
0
SPLINE
5
535
100
AcDbEntity
8
0
100
AcDbSpline
62
7
6
CONTINUOUS
70
0
71
3
72
9
73
5
74
3
42
0.0000001000
43
0.0000001000
44
0.0000000001
40
0.0000000000
40
0.0000000000
40
0.0000000000
40
0.0000000000
40
0.4973283873
40
1.0000000000
40
1.0000000000
40
1.0000000000
40
1.0000000000
10
227.6623228608
20
168.0168039454
30
0.0000000000
10
227.7050265153
20
168.0597208353
30
0.0000000000
10
227.7914956424
20
168.1454176187
30
0.0000000000
10
227.8791197037
20
168.2299327743
30
0.0000000000
10
227.9234438113
20
168.2721230639
30
0.0000000000
11
227.6623228608
21
168.0168039454
31
0.0000000000
11
227.7913192746
21
168.1446674629
31
0.0000000000
11
227.9234438113
21
168.2721230639
31
0.0000000000
0
SPLINE
5
536
100
AcDbEntity
8
0
100
AcDbSpline
62
7
6
CONTINUOUS
70
0
71
3
72
8
73
4
74
2
42
0.0000001000
43
0.0000001000
44
0.0000000001
40
0.0000000000
40
0.0000000000
40
0.0000000000
40
0.0000000000
40
1.0000000000
40
1.0000000000
40
1.0000000000
40
1.0000000000
10
225.2193113920
20
146.1640041373
30
0.0000000000
10
225.2167061328
20
146.1214700749
30
0.0000000000
10
225.2142226890
20
146.0789283758
30
0.0000000000
10
225.2118611679
20
146.0363798222
30
0.0000000000
11
225.2193113920
21
146.1640041373
31
0.0000000000
11
225.2118611679
21
146.0363798222
31
0.0000000000
0
SPLINE
5
537
100
AcDbEntity
8
0
100
AcDbSpline
62
7
6
CONTINUOUS
70
0
71
3
72
9
73
5
74
3
42
0.0000001000
43
0.0000001000
44
0.0000000001
40
0.0000000000
40
0.0000000000
40
0.0000000000
40
0.0000000000
40
0.5000252945
40
1.0000000000
40
1.0000000000
40
1.0000000000
40
1.0000000000
10
225.2118611679
20
146.0363798222
30
0.0000000000
10
225.2094999730
20
145.9938371450
30
0.0000000000
10
225.2050215878
20
145.9087423904
30
0.0000000000
10
225.2010311391
20
145.8236233567
30
0.0000000000
10
225.1991580702
20
145.7810607093
30
0.0000000000
11
225.2118611679
21
146.0363798222
31
0.0000000000
11
225.2051433577
21
145.9087320151
31
0.0000000000
11
225.1991580702
21
145.7810607093
31
0.0000000000
0
SPLINE
5
538
100
AcDbEntity
8
0
100
AcDbSpline
62
7
6
CONTINUOUS
70
0
71
3
72
8
73
4
74
2
42
0.0000001000
43
0.0000001000
44
0.0000000001
40
0.0000000000
40
0.0000000000
40
0.0000000000
40
0.0000000000
40
1.0000000000
40
1.0000000000
40
1.0000000000
40
1.0000000000
10
225.1991580702
20
145.7810607093
30
0.0000000000
10
225.1972851216
20
145.7385007940
30
0.0000000000
10
225.1955342118
20
145.6959355959
30
0.0000000000
10
225.1939054234
20
145.6533659003
30
0.0000000000
11
225.1991580702
21
145.7810607093
31
0.0000000000
11
225.1939054234
21
145.6533659003
31
0.0000000000
0
SPLINE
5
539
100
AcDbEntity
8
0
100
AcDbSpline
62
7
6
CONTINUOUS
70
0
71
3
72
8
73
4
74
2
42
0.0000001000
43
0.0000001000
44
0.0000000001
40
0.0000000000
40
0.0000000000
40
0.0000000000
40
0.0000000000
40
1.0000000000
40
1.0000000000
40
1.0000000000
40
1.0000000000
10
225.1939054234
20
145.6533659003
30
0.0000000000
10
225.1895721107
20
145.6108954378
30
0.0000000000
10
225.1860954834
20
145.5683330845
30
0.0000000000
10
225.1834870301
20
145.5257174883
30
0.0000000000
11
225.1939054234
21
145.6533659003
31
0.0000000000
11
225.1834870301
21
145.5257174883
31
0.0000000000
0
SPLINE
5
53A
100
AcDbEntity
8
0
100
AcDbSpline
62
7
6
CONTINUOUS
70
0
71
3
72
8
73
4
74
2
42
0.0000001000
43
0.0000001000
44
0.0000000001
40
0.0000000000
40
0.0000000000
40
0.0000000000
40
0.0000000000
40
1.0000000000
40
1.0000000000
40
1.0000000000
40
1.0000000000
10
225.1834870301
20
145.5257174883
30
0.0000000000
10
225.1821853668
20
145.5044515691
30
0.0000000000
10
225.1810998947
20
145.4831723914
30
0.0000000000
10
225.1802312905
20
145.4618849189
30
0.0000000000
11
225.1834870301
21
145.5257174883
31
0.0000000000
11
225.1802312905
21
145.4618849189
31
0.0000000000
0
SPLINE
5
53B
100
AcDbEntity
8
0
100
AcDbSpline
62
7
6
CONTINUOUS
70
0
71
3
72
8
73
4
74
2
42
0.0000001000
43
0.0000001000
44
0.0000000001
40
0.0000000000
40
0.0000000000
40
0.0000000000
40
0.0000000000
40
1.0000000000
40
1.0000000000
40
1.0000000000
40
1.0000000000
10
225.1802312905
20
145.4618849189
30
0.0000000000
10
225.1793632872
20
145.4406121722
30
0.0000000000
10
225.1787118519
20
145.4193311420
30
0.0000000000
10
225.1782776600
20
145.3980467818
30
0.0000000000
11
225.1802312905
21
145.4618849189
31
0.0000000000
11
225.1782776600
21
145.3980467818
31
0.0000000000
0
SPLINE
5
53C
100
AcDbEntity
8
0
100
AcDbSpline
62
7
6
CONTINUOUS
70
0
71
3
72
9
73
5
74
3
42
0.0000001000
43
0.0000001000
44
0.0000000001
40
0.0000000000
40
0.0000000000
40
0.0000000000
40
0.0000000000
40
0.4986712763
40
1.0000000000
40
1.0000000000
40
1.0000000000
40
1.0000000000
10
225.1939054234
20
145.3980467818
30
0.0000000000
10
225.1982579039
20
145.4407051362
30
0.0000000000
10
225.2087210018
20
145.5260807812
30
0.0000000000
10
225.2225973882
20
145.6109677433
30
0.0000000000
10
225.2303899899
20
145.6533659003
30
0.0000000000
11
225.1939054234
21
145.3980467818
31
0.0000000000
11
225.2095419895
21
145.5257323777
31
0.0000000000
11
225.2303899899
21
145.6533659003
31
0.0000000000
0
SPLINE
5
53D
100
AcDbEntity
8
0
100
AcDbSpline
62
7
6
CONTINUOUS
70
0
71
3
72
9
73
5
74
3
42
0.0000001000
43
0.0000001000
44
0.0000000001
40
0.0000000000
40
0.0000000000
40
0.0000000000
40
0.0000000000
40
0.4999185743
40
1.0000000000
40
1.0000000000
40
1.0000000000
40
1.0000000000
10
225.2303899899
20
145.6533659003
30
0.0000000000
10
225.2362599744
20
145.7385326535
30
0.0000000000
10
225.2489786857
20
145.9088279797
30
0.0000000000
10
225.2636468623
20
146.0789664642
30
0.0000000000
10
225.2714683471
20
146.1640041373
30
0.0000000000
11
225.2303899899
21
145.6533659003
31
0.0000000000
11
225.2494638220
21
145.9087610492
31
0.0000000000
11
225.2714683471
21
146.1640041373
31
0.0000000000
0
SPLINE
5
53E
100
AcDbEntity
8
0
100
AcDbSpline
62
7
6
CONTINUOUS
70
0
71
3
72
9
73
5
74
3
42
0.0000001000
43
0.0000001000
44
0.0000000001
40
0.0000000000
40
0.0000000000
40
0.0000000000
40
0.0000000000
40
0.5000815567
40
1.0000000000
40
1.0000000000
40
1.0000000000
40
1.0000000000
10
225.2714683471
20
146.1640041373
30
0.0000000000
10
225.2766884961
20
146.2917033128
30
0.0000000000
10
225.2875631515
20
146.5470423731
30
0.0000000000
10
225.2993101543
20
146.8023427883
30
0.0000000000
10
225.3054008121
20
146.9299616716
30
0.0000000000
11
225.2714683471
21
146.1640041373
31
0.0000000000
11
225.2877830833
21
146.5470743579
31
0.0000000000
11
225.3054008121
21
146.9299616716
31
0.0000000000
0
SPLINE
5
53F
100
AcDbEntity
8
0
100
AcDbSpline
62
7
6
CONTINUOUS
70
0
71
3
72
9
73
5
74
3
42
0.0000001000
43
0.0000001000
44
0.0000000001
40
0.0000000000
40
0.0000000000
40
0.0000000000
40
0.0000000000
40
0.5000664510
40
1.0000000000
40
1.0000000000
40
1.0000000000
40
1.0000000000
10
225.3054008121
20
146.9299616716
30
0.0000000000
10
225.3084475896
20
147.0576408655
30
0.0000000000
10
225.3146496704
20
147.3129627230
30
0.0000000000
10
225.3210705019
20
147.5682791731
30
0.0000000000
10
225.3243351923
20
147.6959190271
30
0.0000000000
11
225.3054008121
21
146.9299616716
31
0.0000000000
11
225.3147051969
21
147.3129953036
31
0.0000000000
11
225.3243351923
21
147.6959190271
31
0.0000000000
0
SPLINE
5
540
100
AcDbEntity
8
0
100
AcDbSpline
62
7
6
CONTINUOUS
70
0
71
3
72
9
73
5
74
3
42
0.0000001000
43
0.0000001000
44
0.0000000001
40
0.0000000000
40
0.0000000000
40
0.0000000000
40
0.0000000000
40
0.4973283873
40
1.0000000000
40
1.0000000000
40
1.0000000000
40
1.0000000000
10
227.6623228608
20
176.9529743445
30
0.0000000000
10
227.7050265153
20
176.9100574547
30
0.0000000000
10
227.7914956424
20
176.8243606712
30
0.0000000000
10
227.8791197037
20
176.7398455157
30
0.0000000000
10
227.9234438113
20
176.6976552260
30
0.0000000000
11
227.6623228608
21
176.9529743445
31
0.0000000000
11
227.7913192746
21
176.8251108270
31
0.0000000000
11
227.9234438113
21
176.6976552260
31
0.0000000000
0
SPLINE
5
541
100
AcDbEntity
8
0
100
AcDbSpline
62
7
6
CONTINUOUS
70
0
71
3
72
9
73
5
74
3
42
0.0000001000
43
0.0000001000
44
0.0000000001
40
0.0000000000
40
0.0000000000
40
0.0000000000
40
0.0000000000
40
0.5000664510
40
1.0000000000
40
1.0000000000
40
1.0000000000
40
1.0000000000
10
225.3054008121
20
148.9725149772
30
0.0000000000
10
225.3084475896
20
148.8448357236
30
0.0000000000
10
225.3146496704
20
148.5895137469
30
0.0000000000
10
225.3210705019
20
148.3341971777
30
0.0000000000
10
225.3243351923
20
148.2065572641
30
0.0000000000
11
225.3054008121
21
148.9725149772
31
0.0000000000
11
225.3147051969
21
148.5894811663
31
0.0000000000
11
225.3243351923
21
148.2065572641
31
0.0000000000
0
SPLINE
5
542
100
AcDbEntity
8
0
100
AcDbSpline
62
7
6
CONTINUOUS
70
0
71
3
72
9
73
5
74
3
42
0.0000001000
43
0.0000001000
44
0.0000000001
40
0.0000000000
40
0.0000000000
40
0.0000000000
40
0.0000000000
40
0.5000815567
40
1.0000000000
40
1.0000000000
40
1.0000000000
40
1.0000000000
10
225.2714683471
20
149.7384723327
30
0.0000000000
10
225.2766884961
20
149.6107731869
30
0.0000000000
10
225.2875631515
20
149.3554341862
30
0.0000000000
10
225.2993101543
20
149.1001338307
30
0.0000000000
10
225.3054008121
20
148.9725149772
30
0.0000000000
11
225.2714683471
21
149.7384723327
31
0.0000000000
11
225.2877830833
21
149.3554022014
31
0.0000000000
11
225.3054008121
21
148.9725149772
31
0.0000000000
0
SPLINE
5
543
100
AcDbEntity
8
0
100
AcDbSpline
62
7
6
CONTINUOUS
70
0
71
3
72
9
73
5
74
3
42
0.0000001000
43
0.0000001000
44
0.0000000001
40
0.0000000000
40
0.0000000000
40
0.0000000000
40
0.0000000000
40
0.5001745328
40
1.0000000000
40
1.0000000000
40
1.0000000000
40
1.0000000000
10
227.9234438113
20
176.6976552260
30
0.0000000000
10
227.9570760808
20
176.6122868539
30
0.0000000000
10
228.0249012041
20
176.4418392099
30
0.0000000000
10
228.0938888340
20
176.2718587690
30
0.0000000000
10
228.1286597142
20
176.1870169891
30
0.0000000000
11
227.9234438113
21
176.6976552260
31
0.0000000000
11
228.0252157091
21
176.4418965948
31
0.0000000000
11
228.1286597142
21
176.1870169891
31
0.0000000000
0
SPLINE
5
544
100
AcDbEntity
8
0
100
AcDbSpline
62
7
6
CONTINUOUS
70
0
71
3
72
9
73
5
74
3
42
0.0000001000
43
0.0000001000
44
0.0000000001
40
0.0000000000
40
0.0000000000
40
0.0000000000
40
0.0000000000
40
0.4999185743
40
1.0000000000
40
1.0000000000
40
1.0000000000
40
1.0000000000
10
225.2303899899
20
150.2491105697
30
0.0000000000
10
225.2362599744
20
150.1639438165
30
0.0000000000
10
225.2489786857
20
149.9936484903
30
0.0000000000
10
225.2636468623
20
149.8235100057
30
0.0000000000
10
225.2714683471
20
149.7384723327
30
0.0000000000
11
225.2303899899
21
150.2491105697
31
0.0000000000
11
225.2494638220
21
149.9937154207
31
0.0000000000
11
225.2714683471
21
149.7384723327
31
0.0000000000
0
SPLINE
5
545
100
AcDbEntity
8
0
100
AcDbSpline
62
7
6
CONTINUOUS
70
0
71
3
72
9
73
5
74
3
42
0.0000001000
43
0.0000001000
44
0.0000000001
40
0.0000000000
40
0.0000000000
40
0.0000000000
40
0.0000000000
40
0.4986712763
40
1.0000000000
40
1.0000000000
40
1.0000000000
40
1.0000000000
10
225.1939054234
20
150.5044296882
30
0.0000000000
10
225.1982579039
20
150.4617713338
30
0.0000000000
10
225.2087210018
20
150.3763956887
30
0.0000000000
10
225.2225973882
20
150.2915087267
30
0.0000000000
10
225.2303899899
20
150.2491105697
30
0.0000000000
11
225.1939054234
21
150.5044296882
31
0.0000000000
11
225.2095419895
21
150.3767440923
31
0.0000000000
11
225.2303899899
21
150.2491105697
31
0.0000000000
0
SPLINE
5
546
100
AcDbEntity
8
0
100
AcDbSpline
62
7
6
CONTINUOUS
70
0
71
3
72
9
73
5
74
3
42
0.0000001000
43
0.0000001000
44
0.0000000001
40
0.0000000000
40
0.0000000000
40
0.0000000000
40
0.0000000000
40
0.5002725343
40
1.0000000000
40
1.0000000000
40
1.0000000000
40
1.0000000000
10
228.1286597142
20
176.1870169891
30
0.0000000000
10
228.1402932050
20
176.0592808629
30
0.0000000000
10
228.1636224716
20
175.8039546061
30
0.0000000000
10
228.1871018939
20
175.5486421135
30
0.0000000000
10
228.1988727838
20
175.4210589183
30
0.0000000000
11
228.1286597142
21
176.1870169891
31
0.0000000000
11
228.1636727675
21
175.8038188805
31
0.0000000000
11
228.1988727838
21
175.4210589183
31
0.0000000000
0
SPLINE
5
547
100
AcDbEntity
8
0
100
AcDbSpline
62
7
6
CONTINUOUS
70
0
71
3
72
8
73
4
74
2
42
0.0000001000
43
0.0000001000
44
0.0000000001
40
0.0000000000
40
0.0000000000
40
0.0000000000
40
0.0000000000
40
1.0000000000
40
1.0000000000
40
1.0000000000
40
1.0000000000
10
225.1939054234
20
150.2491105697
30
0.0000000000
10
225.1895721107
20
150.2915810321
30
0.0000000000
10
225.1860954834
20
150.3341433855
30
0.0000000000
10
225.1834870301
20
150.3767589816
30
0.0000000000
11
225.1939054234
21
150.2491105697
31
0.0000000000
11
225.1834870301
21
150.3767589816
31
0.0000000000
0
SPLINE
5
548
100
AcDbEntity
8
0
100
AcDbSpline
62
7
6
CONTINUOUS
70
0
71
3
72
8
73
4
74
2
42
0.0000001000
43
0.0000001000
44
0.0000000001
40
0.0000000000
40
0.0000000000
40
0.0000000000
40
0.0000000000
40
1.0000000000
40
1.0000000000
40
1.0000000000
40
1.0000000000
10
225.1834870301
20
150.3767589816
30
0.0000000000
10
225.1821853668
20
150.3980249008
30
0.0000000000
10
225.1810998947
20
150.4193040785
30
0.0000000000
10
225.1802312905
20
150.4405915510
30
0.0000000000
11
225.1834870301
21
150.3767589816
31
0.0000000000
11
225.1802312905
21
150.4405915510
31
0.0000000000
0
SPLINE
5
549
100
AcDbEntity
8
0
100
AcDbSpline
62
7
6
CONTINUOUS
70
0
71
3
72
8
73
4
74
2
42
0.0000001000
43
0.0000001000
44
0.0000000001
40
0.0000000000
40
0.0000000000
40
0.0000000000
40
0.0000000000
40
1.0000000000
40
1.0000000000
40
1.0000000000
40
1.0000000000
10
225.1802312905
20
150.4405915510
30
0.0000000000
10
225.1793632872
20
150.4618642978
30
0.0000000000
10
225.1787118519
20
150.4831453279
30
0.0000000000
10
225.1782776600
20
150.5044296882
30
0.0000000000
11
225.1802312905
21
150.4405915510
31
0.0000000000
11
225.1782776600
21
150.5044296882
31
0.0000000000
0
SPLINE
5
54A
100
AcDbEntity
8
0
100
AcDbSpline
62
7
6
CONTINUOUS
70
0
71
3
72
8
73
4
74
2
42
0.0000001000
43
0.0000001000
44
0.0000000001
40
0.0000000000
40
0.0000000000
40
0.0000000000
40
0.0000000000
40
1.0000000000
40
1.0000000000
40
1.0000000000
40
1.0000000000
10
225.2303899899
20
149.4831532142
30
0.0000000000
10
225.2225741325
20
149.6107272758
30
0.0000000000
10
225.2156247267
20
149.7383559010
30
0.0000000000
10
225.2095433187
20
149.8660258767
30
0.0000000000
11
225.2303899899
21
149.4831532142
31
0.0000000000
11
225.2095433187
21
149.8660258767
31
0.0000000000
0
SPLINE
5
54B
100
AcDbEntity
8
0
100
AcDbSpline
62
7
6
CONTINUOUS
70
0
71
3
72
8
73
4
74
2
42
0.0000001000
43
0.0000001000
44
0.0000000001
40
0.0000000000
40
0.0000000000
40
0.0000000000
40
0.0000000000
40
1.0000000000
40
1.0000000000
40
1.0000000000
40
1.0000000000
10
225.2095433187
20
149.8660258767
30
0.0000000000
10
225.2065029081
20
149.9298547057
30
0.0000000000
10
225.2036794551
20
149.9936938704
30
0.0000000000
10
225.2010730984
20
150.0575417122
30
0.0000000000
11
225.2095433187
21
149.8660258767
31
0.0000000000
11
225.2010730984
21
150.0575417122
31
0.0000000000
0
SPLINE
5
54C
100
AcDbEntity
8
0
100
AcDbSpline
62
7
6
CONTINUOUS
70
0
71
3
72
8
73
4
74
2
42
0.0000001000
43
0.0000001000
44
0.0000000001
40
0.0000000000
40
0.0000000000
40
0.0000000000
40
0.0000000000
40
1.0000000000
40
1.0000000000
40
1.0000000000
40
1.0000000000
10
225.2010730984
20
150.0575417122
30
0.0000000000
10
225.1984667287
20
150.1213898735
30
0.0000000000
10
225.1960774575
20
150.1852467121
30
0.0000000000
10
225.1939054234
20
150.2491105697
30
0.0000000000
11
225.2010730984
21
150.0575417122
31
0.0000000000
11
225.1939054234
21
150.2491105697
31
0.0000000000
0
SPLINE
5
54D
100
AcDbEntity
8
0
100
AcDbSpline
62
7
6
CONTINUOUS
70
0
71
3
72
9
73
5
74
3
42
0.0000001000
43
0.0000001000
44
0.0000000001
40
0.0000000000
40
0.0000000000
40
0.0000000000
40
0.0000000000
40
0.4956400022
40
1.0000000000
40
1.0000000000
40
1.0000000000
40
1.0000000000
10
226.8576941111
20
178.2295699370
30
0.0000000000
10
226.9011535215
20
178.2726285102
30
0.0000000000
10
226.9897275238
20
178.3586083588
30
0.0000000000
10
227.0799664947
20
178.4428378596
30
0.0000000000
10
227.1258719662
20
178.4848890555
30
0.0000000000
11
226.8576941111
21
178.2295699370
31
0.0000000000
11
226.9893641734
21
178.3574286262
31
0.0000000000
11
227.1258719662
21
178.4848890555
31
0.0000000000
0
SPLINE
5
54E
100
AcDbEntity
8
0
100
AcDbSpline
62
7
6
CONTINUOUS
70
0
71
3
72
9
73
5
74
3
42
0.0000001000
43
0.0000001000
44
0.0000000001
40
0.0000000000
40
0.0000000000
40
0.0000000000
40
0.0000000000
40
0.4996345106
40
1.0000000000
40
1.0000000000
40
1.0000000000
40
1.0000000000
10
226.6581789908
20
177.7189317000
30
0.0000000000
10
226.6904459858
20
177.8043467388
30
0.0000000000
10
226.7559958254
20
177.9749374030
30
0.0000000000
10
226.8234621378
20
178.1447791838
30
0.0000000000
10
226.8576941111
20
178.2295699370
30
0.0000000000
11
226.6581789908
21
177.7189317000
31
0.0000000000
11
226.7564263279
21
177.9746257576
31
0.0000000000
11
226.8576941111
21
178.2295699370
31
0.0000000000
0
SPLINE
5
54F
100
AcDbEntity
8
0
100
AcDbSpline
62
7
6
CONTINUOUS
70
0
71
3
72
9
73
5
74
3
42
0.0000001000
43
0.0000001000
44
0.0000000001
40
0.0000000000
40
0.0000000000
40
0.0000000000
40
0.0000000000
40
0.5003731059
40
1.0000000000
40
1.0000000000
40
1.0000000000
40
1.0000000000
10
226.4718347933
20
176.6976552260
30
0.0000000000
10
226.5018593369
20
176.8681851330
30
0.0000000000
10
226.5629187175
20
177.2088057189
30
0.0000000000
10
226.6260894425
20
177.5490410728
30
0.0000000000
10
226.6581789908
20
177.7189317000
30
0.0000000000
11
226.4718347933
21
176.6976552260
31
0.0000000000
11
226.5634929048
21
177.2089634422
31
0.0000000000
11
226.6581789908
21
177.7189317000
31
0.0000000000
0
SPLINE
5
550
100
AcDbEntity
8
0
100
AcDbSpline
62
7
6
CONTINUOUS
70
0
71
3
72
9
73
5
74
3
42
0.0000001000
43
0.0000001000
44
0.0000000001
40
0.0000000000
40
0.0000000000
40
0.0000000000
40
0.0000000000
40
0.5003047645
40
1.0000000000
40
1.0000000000
40
1.0000000000
40
1.0000000000
10
226.3835519370
20
175.6763787521
30
0.0000000000
10
226.3980064306
20
175.8467182792
30
0.0000000000
10
226.4271656887
20
176.1871671282
30
0.0000000000
10
226.4568615891
20
176.5275695884
30
0.0000000000
10
226.4718347933
20
176.6976552260
30
0.0000000000
11
226.3835519370
21
175.6763787521
31
0.0000000000
11
226.4273177863
21
176.1873630303
31
0.0000000000
11
226.4718347933
21
176.6976552260
31
0.0000000000
0
SPLINE
5
551
100
AcDbEntity
8
0
100
AcDbSpline
62
7
6
CONTINUOUS
70
0
71
3
72
9
73
5
74
3
42
0.0000001000
43
0.0000001000
44
0.0000000001
40
0.0000000000
40
0.0000000000
40
0.0000000000
40
0.0000000000
40
0.5001679422
40
1.0000000000
40
1.0000000000
40
1.0000000000
40
1.0000000000
10
226.3406249558
20
174.3997824443
30
0.0000000000
10
226.3477146404
20
174.6126222126
30
0.0000000000
10
226.3619564045
20
175.0381565838
30
0.0000000000
10
226.3763326133
20
175.4636864342
30
0.0000000000
10
226.3835519370
20
175.6763787521
30
0.0000000000
11
226.3406249558
21
174.3997824443
31
0.0000000000
11
226.3619948218
21
175.0382983832
31
0.0000000000
11
226.3835519370
21
175.6763787521
31
0.0000000000
0
SPLINE
5
552
100
AcDbEntity
8
0
100
AcDbSpline
62
7
6
CONTINUOUS
70
0
71
3
72
9
73
5
74
3
42
0.0000001000
43
0.0000001000
44
0.0000000001
40
0.0000000000
40
0.0000000000
40
0.0000000000
40
0.0000000000
40
0.5001679421
40
1.0000000000
40
1.0000000000
40
1.0000000000
40
1.0000000000
10
226.3406249558
20
170.5699953092
30
0.0000000000
10
226.3477146404
20
170.3571556601
30
0.0000000000
10
226.3619564045
20
169.9316215273
30
0.0000000000
10
226.3763326133
20
169.5060919154
30
0.0000000000
10
226.3835519370
20
169.2933997167
30
0.0000000000
11
226.3406249558
21
170.5699953092
31
0.0000000000
11
226.3619948218
21
169.9314797281
31
0.0000000000
11
226.3835519370
21
169.2933997167
31
0.0000000000
0
SPLINE
5
553
100
AcDbEntity
8
0
100
AcDbSpline
62
7
6
CONTINUOUS
70
0
71
3
72
9
73
5
74
3
42
0.0000001000
43
0.0000001000
44
0.0000000001
40
0.0000000000
40
0.0000000000
40
0.0000000000
40
0.0000000000
40
0.5003047646
40
1.0000000000
40
1.0000000000
40
1.0000000000
40
1.0000000000
10
226.3835519370
20
169.2933997167
30
0.0000000000
10
226.3980064306
20
169.1230601597
30
0.0000000000
10
226.4271656887
20
168.7826112511
30
0.0000000000
10
226.4568615891
20
168.4422087313
30
0.0000000000
10
226.4718347933
20
168.2721230639
30
0.0000000000
11
226.3835519370
21
169.2933997167
31
0.0000000000
11
226.4273177863
21
168.7824153489
31
0.0000000000
11
226.4718347933
21
168.2721230639
31
0.0000000000
0
SPLINE
5
554
100
AcDbEntity
8
0
100
AcDbSpline
62
7
6
CONTINUOUS
70
0
71
3
72
9
73
5
74
3
42
0.0000001000
43
0.0000001000
44
0.0000000001
40
0.0000000000
40
0.0000000000
40
0.0000000000
40
0.0000000000
40
0.5003731059
40
1.0000000000
40
1.0000000000
40
1.0000000000
40
1.0000000000
10
226.4718347933
20
168.2721230639
30
0.0000000000
10
226.5018593369
20
168.1015931420
30
0.0000000000
10
226.5629187175
20
167.7609725264
30
0.0000000000
10
226.6260894425
20
167.4207371425
30
0.0000000000
10
226.6581789908
20
167.2508465005
30
0.0000000000
11
226.4718347933
21
168.2721230639
31
0.0000000000
11
226.5634929049
21
167.7608148030
31
0.0000000000
11
226.6581789908
21
167.2508465005
31
0.0000000000
0
SPLINE
5
555
100
AcDbEntity
8
0
100
AcDbSpline
62
7
6
CONTINUOUS
70
0
71
3
72
9
73
5
74
3
42
0.0000001000
43
0.0000001000
44
0.0000000001
40
0.0000000000
40
0.0000000000
40
0.0000000000
40
0.0000000000
40
0.4956400027
40
1.0000000000
40
1.0000000000
40
1.0000000000
40
1.0000000000
10
226.8576941111
20
166.7402081964
30
0.0000000000
10
226.9011535215
20
166.6971496195
30
0.0000000000
10
226.9897275237
20
166.6111697635
30
0.0000000000
10
227.0799664947
20
166.5269402552
30
0.0000000000
10
227.1258719662
20
166.4848890555
30
0.0000000000
11
226.8576941111
21
166.7402081964
31
0.0000000000
11
226.9893641734
21
166.6123494960
31
0.0000000000
11
227.1258719662
21
166.4848890555
31
0.0000000000
0
SPLINE
5
556
100
AcDbEntity
8
0
100
AcDbSpline
62
7
6
CONTINUOUS
70
0
71
3
72
9
73
5
74
3
42
0.0000001000
43
0.0000001000
44
0.0000000001
40
0.0000000000
40
0.0000000000
40
0.0000000000
40
0.0000000000
40
0.4996345108
40
1.0000000000
40
1.0000000000
40
1.0000000000
40
1.0000000000
10
226.6581789908
20
167.2508465005
30
0.0000000000
10
226.6904459858
20
167.1654314505
30
0.0000000000
10
226.7559958254
20
166.9948407640
30
0.0000000000
10
226.8234621378
20
166.8249989609
30
0.0000000000
10
226.8576941111
20
166.7402081964
30
0.0000000000
11
226.6581789908
21
167.2508465005
31
0.0000000000
11
226.7564263279
21
166.9951524093
31
0.0000000000
11
226.8576941111
21
166.7402081964
31
0.0000000000
0
SPLINE
5
557
100
AcDbEntity
8
0
100
AcDbSpline
62
7
6
CONTINUOUS
70
0
71
3
72
9
73
5
74
3
42
0.0000001000
43
0.0000001000
44
0.0000000001
40
0.0000000000
40
0.0000000000
40
0.0000000000
40
0.0000000000
40
0.5002874080
40
1.0000000000
40
1.0000000000
40
1.0000000000
40
1.0000000000
10
225.8878183676
20
172.3572294963
30
0.0000000000
10
225.9043284975
20
172.1868610875
30
0.0000000000
10
225.9379127247
20
171.8463762566
30
0.0000000000
10
225.9726642642
20
171.5060085843
30
0.0000000000
10
225.9903220824
20
171.3359530223
30
0.0000000000
11
225.8878183676
21
172.3572294963
31
0.0000000000
11
225.9382241931
21
171.8462098638
31
0.0000000000
11
225.9903220824
21
171.3359530223
31
0.0000000000
0
SPLINE
5
558
100
AcDbEntity
8
0
100
AcDbSpline
62
7
6
CONTINUOUS
70
0
71
3
72
9
73
5
74
3
42
0.0000001000
43
0.0000001000
44
0.0000000001
40
0.0000000000
40
0.0000000000
40
0.0000000000
40
0.0000000000
40
0.4998711861
40
1.0000000000
40
1.0000000000
40
1.0000000000
40
1.0000000000
10
225.8234029863
20
172.6125486148
30
0.0000000000
10
225.8338908150
20
172.5699450669
30
0.0000000000
10
225.8551178205
20
172.4847763710
30
0.0000000000
10
225.8768349218
20
172.3997313266
30
0.0000000000
10
225.8878183676
20
172.3572294963
30
0.0000000000
11
225.8234029863
21
172.6125486148
31
0.0000000000
11
225.8552348126
21
172.4848292098
31
0.0000000000
11
225.8878183676
21
172.3572294963
31
0.0000000000
0
SPLINE
5
559
100
AcDbEntity
8
0
100
AcDbSpline
62
7
6
CONTINUOUS
70
0
71
3
72
9
73
5
74
3
42
0.0000001000
43
0.0000001000
44
0.0000000001
40
0.0000000000
40
0.0000000000
40
0.0000000000
40
0.0000000000
40
0.5002018420
40
1.0000000000
40
1.0000000000
40
1.0000000000
40
1.0000000000
10
226.7967306581
20
146.6746425531
30
0.0000000000
10
226.8059431813
20
146.5469228973
30
0.0000000000
10
226.8244780266
20
146.2915951036
30
0.0000000000
10
226.8432476024
20
146.0362844579
30
0.0000000000
10
226.8526873275
20
145.9086850188
30
0.0000000000
11
226.7967306581
21
146.6746425531
31
0.0000000000
11
226.8245442388
21
146.2914963224
31
0.0000000000
11
226.8526873275
21
145.9086850188
31
0.0000000000
0
SPLINE
5
55A
100
AcDbEntity
8
0
100
AcDbSpline
62
7
6
CONTINUOUS
70
0
71
3
72
9
73
5
74
3
42
0.0000001000
43
0.0000001000
44
0.0000000001
40
0.0000000000
40
0.0000000000
40
0.0000000000
40
0.0000000000
40
0.5001974739
40
1.0000000000
40
1.0000000000
40
1.0000000000
40
1.0000000000
10
226.2847965686
20
146.6746425531
30
0.0000000000
10
226.2939084243
20
146.5469242057
30
0.0000000000
10
226.3122407896
20
146.2915966071
30
0.0000000000
10
226.3308051056
20
146.0362857683
30
0.0000000000
10
226.3401416272
20
145.9086850188
30
0.0000000000
11
226.2847965686
21
146.6746425531
31
0.0000000000
11
226.3123060634
21
146.2914999593
31
0.0000000000
11
226.3401416272
21
145.9086850188
31
0.0000000000
0
SPLINE
5
55B
100
AcDbEntity
8
0
100
AcDbSpline
62
7
6
CONTINUOUS
70
0
71
3
72
9
73
5
74
3
42
0.0000001000
43
0.0000001000
44
0.0000000001
40
0.0000000000
40
0.0000000000
40
0.0000000000
40
0.0000000000
40
0.4996863808
40
1.0000000000
40
1.0000000000
40
1.0000000000
40
1.0000000000
10
226.8526873275
20
145.9086850188
30
0.0000000000
10
226.8811107472
20
145.8233054502
30
0.0000000000
10
226.9389582198
20
145.6527588861
30
0.0000000000
10
226.9987173871
20
145.4828727964
30
0.0000000000
10
227.0290892602
20
145.3980467818
30
0.0000000000
11
226.8526873275
21
145.9086850188
31
0.0000000000
11
226.9393992600
21
145.6530307710
31
0.0000000000
11
227.0290892602
21
145.3980467818
31
0.0000000000
0
SPLINE
5
55C
100
AcDbEntity
8
0
100
AcDbSpline
62
7
6
CONTINUOUS
70
0
71
3
72
9
73
5
74
3
42
0.0000001000
43
0.0000001000
44
0.0000000001
40
0.0000000000
40
0.0000000000
40
0.0000000000
40
0.0000000000
40
0.4996922110
40
1.0000000000
40
1.0000000000
40
1.0000000000
40
1.0000000000
10
226.3401416272
20
145.9086850188
30
0.0000000000
10
226.3682521055
20
145.8233112265
30
0.0000000000
10
226.4254629967
20
145.6527715554
30
0.0000000000
10
226.4845668280
20
145.4828786941
30
0.0000000000
10
226.5146059242
20
145.3980467818
30
0.0000000000
11
226.3401416272
21
145.9086850188
31
0.0000000000
11
226.4259004315
21
145.6530380393
31
0.0000000000
11
226.5146059242
21
145.3980467818
31
0.0000000000
0
SPLINE
5
55D
100
AcDbEntity
8
0
100
AcDbSpline
62
7
6
CONTINUOUS
70
0
71
3
72
9
73
5
74
3
42
0.0000001000
43
0.0000001000
44
0.0000000001
40
0.0000000000
40
0.0000000000
40
0.0000000000
40
0.0000000000
40
0.4922834326
40
1.0000000000
40
1.0000000000
40
1.0000000000
40
1.0000000000
10
227.0290892602
20
145.3980467818
30
0.0000000000
10
227.0808588858
20
145.3546703239
30
0.0000000000
10
227.1873255853
20
145.2681052793
30
0.0000000000
10
227.2961121175
20
145.1844794454
30
0.0000000000
10
227.3518695355
20
145.1427275738
30
0.0000000000
11
227.0290892602
21
145.3980467818
31
0.0000000000
11
227.1862446655
21
145.2701535464
31
0.0000000000
11
227.3518695355
21
145.1427275738
31
0.0000000000
0
SPLINE
5
55E
100
AcDbEntity
8
0
100
AcDbSpline
62
7
6
CONTINUOUS
70
0
71
3
72
9
73
5
74
3
42
0.0000001000
43
0.0000001000
44
0.0000000001
40
0.0000000000
40
0.0000000000
40
0.0000000000
40
0.0000000000
40
0.4923494110
40
1.0000000000
40
1.0000000000
40
1.0000000000
40
1.0000000000
10
226.5146059242
20
145.3980467818
30
0.0000000000
10
226.5657935280
20
145.3546798430
30
0.0000000000
10
226.6710640972
20
145.2681289771
30
0.0000000000
10
226.7786572394
20
145.1844880601
30
0.0000000000
10
226.8338027341
20
145.1427275738
30
0.0000000000
11
226.5146059242
21
145.3980467818
31
0.0000000000
11
226.6700163436
21
145.2701587020
31
0.0000000000
11
226.8338027341
21
145.1427275738
31
0.0000000000
0
SPLINE
5
55F
100
AcDbEntity
8
0
100
AcDbSpline
62
7
6
CONTINUOUS
70
0
71
3
72
9
73
5
74
3
42
0.0000001000
43
0.0000001000
44
0.0000000001
40
0.0000000000
40
0.0000000000
40
0.0000000000
40
0.0000000000
40
0.4971864185
40
1.0000000000
40
1.0000000000
40
1.0000000000
40
1.0000000000
10
225.1939054234
20
151.7810252807
30
0.0000000000
10
225.1993584753
20
151.7382692929
30
0.0000000000
10
225.2130453233
20
151.6525996565
30
0.0000000000
10
225.2319907677
20
151.5679412476
30
0.0000000000
10
225.2427749809
20
151.5257061622
30
0.0000000000
11
225.1939054234
21
151.7810252807
31
0.0000000000
11
225.2142682004
21
151.6533317032
31
0.0000000000
11
225.2427749809
21
151.5257061622
31
0.0000000000
0
SPLINE
5
560
100
AcDbEntity
8
0
100
AcDbSpline
62
7
6
CONTINUOUS
70
0
71
3
72
8
73
4
74
2
42
0.0000001000
43
0.0000001000
44
0.0000000001
40
0.0000000000
40
0.0000000000
40
0.0000000000
40
0.0000000000
40
1.0000000000
40
1.0000000000
40
1.0000000000
40
1.0000000000
10
225.7672602752
20
151.2703641964
30
0.0000000000
10
225.7715407470
20
151.2277290275
30
0.0000000000
10
225.7759734381
20
151.1851090042
30
0.0000000000
10
225.7805580375
20
151.1425053339
30
0.0000000000
11
225.7672602752
21
151.2703641964
31
0.0000000000
11
225.7805580375
21
151.1425053339
31
0.0000000000
0
SPLINE
5
561
100
AcDbEntity
8
0
100
AcDbSpline
62
7
6
CONTINUOUS
70
0
71
3
72
8
73
4
74
2
42
0.0000001000
43
0.0000001000
44
0.0000000001
40
0.0000000000
40
0.0000000000
40
0.0000000000
40
0.0000000000
40
1.0000000000
40
1.0000000000
40
1.0000000000
40
1.0000000000
10
225.7805580375
20
151.1425053339
30
0.0000000000
10
225.7943045328
20
151.0147621863
30
0.0000000000
10
225.8094167508
20
150.8871660596
30
0.0000000000
10
225.8258843030
20
150.7597488067
30
0.0000000000
11
225.7805580375
21
151.1425053339
31
0.0000000000
11
225.8258843030
21
150.7597488067
31
0.0000000000
0
SPLINE
5
562
100
AcDbEntity
8
0
100
AcDbSpline
62
7
6
CONTINUOUS
70
0
71
3
72
9
73
5
74
3
42
0.0000001000
43
0.0000001000
44
0.0000000001
40
0.0000000000
40
0.0000000000
40
0.0000000000
40
0.0000000000
40
0.4997210906
40
1.0000000000
40
1.0000000000
40
1.0000000000
40
1.0000000000
10
225.2427749809
20
151.5257061622
30
0.0000000000
10
225.2536570185
20
151.3978516279
30
0.0000000000
10
225.2781481273
20
151.1422237176
30
0.0000000000
10
225.3080395952
20
150.8871710716
30
0.0000000000
10
225.3243351923
20
150.7597488067
30
0.0000000000
11
225.2427749809
21
151.5257061622
31
0.0000000000
11
225.2794830497
21
151.1425099674
31
0.0000000000
11
225.3243351923
21
150.7597488067
31
0.0000000000
0
SPLINE
5
563
100
AcDbEntity
8
0
100
AcDbSpline
62
7
6
CONTINUOUS
70
0
71
3
72
9
73
5
74
3
42
0.0000001000
43
0.0000001000
44
0.0000000001
40
0.0000000000
40
0.0000000000
40
0.0000000000
40
0.0000000000
40
0.5001347544
40
1.0000000000
40
1.0000000000
40
1.0000000000
40
1.0000000000
10
225.8258843030
20
150.7597488067
30
0.0000000000
10
225.8357898642
20
150.5894287279
30
0.0000000000
10
225.8565894554
20
150.2489374203
30
0.0000000000
10
225.8793771433
20
149.9085733851
30
0.0000000000
10
225.8912649450
20
149.7384723327
30
0.0000000000
11
225.8258843030
21
150.7597488067
31
0.0000000000
11
225.8570923532
21
150.2488774902
31
0.0000000000
11
225.8912649450
21
149.7384723327
31
0.0000000000
0
SPLINE
5
564
100
AcDbEntity
8
0
100
AcDbSpline
62
7
6
CONTINUOUS
70
0
71
3
72
9
73
5
74
3
42
0.0000001000
43
0.0000001000
44
0.0000000001
40
0.0000000000
40
0.0000000000
40
0.0000000000
40
0.0000000000
40
0.5001319447
40
1.0000000000
40
1.0000000000
40
1.0000000000
40
1.0000000000
10
225.3243351923
20
150.7597488067
30
0.0000000000
10
225.3341368045
20
150.5894309718
30
0.0000000000
10
225.3547181677
20
150.2489410433
30
0.0000000000
10
225.3772666208
20
149.9085757208
30
0.0000000000
10
225.3890296489
20
149.7384723327
30
0.0000000000
11
225.3243351923
21
150.7597488067
31
0.0000000000
11
225.3552156310
21
150.2488823596
31
0.0000000000
11
225.3890296489
21
149.7384723327
31
0.0000000000
0
SPLINE
5
565
100
AcDbEntity
8
0
100
AcDbSpline
62
7
6
CONTINUOUS
70
0
71
3
72
9
73
5
74
3
42
0.0000001000
43
0.0000001000
44
0.0000000001
40
0.0000000000
40
0.0000000000
40
0.0000000000
40
0.0000000000
40
0.5001697376
40
1.0000000000
40
1.0000000000
40
1.0000000000
40
1.0000000000
10
225.8912649450
20
149.7384723327
30
0.0000000000
10
225.8991986739
20
149.5256169617
30
0.0000000000
10
225.9155049215
20
149.1000671283
30
0.0000000000
10
225.9327003039
20
148.6745522944
30
0.0000000000
10
225.9415174954
20
148.4618763826
30
0.0000000000
11
225.8912649450
21
149.7384723327
31
0.0000000000
11
225.9157328917
21
149.0999314205
31
0.0000000000
11
225.9415174954
21
148.4618763826
31
0.0000000000
0
SPLINE
5
566
100
AcDbEntity
8
0
100
AcDbSpline
62
7
6
CONTINUOUS
70
0
71
3
72
9
73
5
74
3
42
0.0000001000
43
0.0000001000
44
0.0000000001
40
0.0000000000
40
0.0000000000
40
0.0000000000
40
0.0000000000
40
0.5001661883
40
1.0000000000
40
1.0000000000
40
1.0000000000
40
1.0000000000
10
225.3890296489
20
149.7384723327
30
0.0000000000
10
225.3968799291
20
149.5256188340
30
0.0000000000
10
225.4130147047
20
149.1000693773
30
0.0000000000
10
225.4300291057
20
148.6745541816
30
0.0000000000
10
225.4387535161
20
148.4618763826
30
0.0000000000
11
225.3890296489
21
149.7384723327
31
0.0000000000
11
225.4132401201
21
149.0999365056
31
0.0000000000
11
225.4387535161
21
148.4618763826
31
0.0000000000
0
SPLINE
5
567
100
AcDbEntity
8
0
100
AcDbSpline
62
7
6
CONTINUOUS
70
0
71
3
72
8
73
4
74
2
42
0.0000001000
43
0.0000001000
44
0.0000000001
40
0.0000000000
40
0.0000000000
40
0.0000000000
40
0.0000000000
40
1.0000000000
40
1.0000000000
40
1.0000000000
40
1.0000000000
10
225.8912649450
20
146.1640041373
30
0.0000000000
10
225.8952324850
20
146.2704499318
30
0.0000000000
10
225.8992555845
20
146.3768936700
30
0.0000000000
10
225.9033342777
20
146.4833352852
30
0.0000000000
11
225.8912649450
21
146.1640041373
31
0.0000000000
11
225.9033342777
21
146.4833352852
31
0.0000000000
0
SPLINE
5
568
100
AcDbEntity
8
0
100
AcDbSpline
62
7
6
CONTINUOUS
70
0
71
3
72
9
73
5
74
3
42
0.0000001000
43
0.0000001000
44
0.0000000001
40
0.0000000000
40
0.0000000000
40
0.0000000000
40
0.0000000000
40
0.3334463746
40
1.0000000000
40
1.0000000000
40
1.0000000000
40
1.0000000000
10
225.9033342777
20
146.4833352852
30
0.0000000000
10
225.9074115819
20
146.5897406539
30
0.0000000000
10
225.9198059587
20
146.9088421805
30
0.0000000000
10
225.9327003039
20
147.2279240265
30
0.0000000000
10
225.9415174954
20
147.4405999086
30
0.0000000000
11
225.9033342777
21
146.4833352852
31
0.0000000000
11
225.9157328917
21
146.8025449600
31
0.0000000000
11
225.9415174954
21
147.4405999086
31
0.0000000000
0
SPLINE
5
569
100
AcDbEntity
8
0
100
AcDbSpline
62
7
6
CONTINUOUS
70
0
71
3
72
9
73
5
74
3
42
0.0000001000
43
0.0000001000
44
0.0000000001
40
0.0000000000
40
0.0000000000
40
0.0000000000
40
0.0000000000
40
0.5001661882
40
1.0000000000
40
1.0000000000
40
1.0000000000
40
1.0000000000
10
225.3890296489
20
146.1640041373
30
0.0000000000
10
225.3968799291
20
146.3768576062
30
0.0000000000
10
225.4130147047
20
146.8024070032
30
0.0000000000
10
225.4300291057
20
147.2279221393
30
0.0000000000
10
225.4387535161
20
147.4405999086
30
0.0000000000
11
225.3890296489
21
146.1640041373
31
0.0000000000
11
225.4132401201
21
146.8025398749
31
0.0000000000
11
225.4387535161
21
147.4405999086
31
0.0000000000
0
SPLINE
5
56A
100
AcDbEntity
8
0
100
AcDbSpline
62
7
6
CONTINUOUS
70
0
71
3
72
9
73
5
74
3
42
0.0000001000
43
0.0000001000
44
0.0000000001
40
0.0000000000
40
0.0000000000
40
0.0000000000
40
0.0000000000
40
0.6667575571
40
1.0000000000
40
1.0000000000
40
1.0000000000
40
1.0000000000
10
225.8258843030
20
145.1427275738
30
0.0000000000
10
225.8357898642
20
145.3130476675
30
0.0000000000
10
225.8513916348
20
145.5684501742
30
0.0000000000
10
225.8681120076
20
145.8237810710
30
0.0000000000
10
225.8738082009
20
145.9088597981
30
0.0000000000
11
225.8258843030
21
145.1427275738
31
0.0000000000
11
225.8570923532
21
145.6535989351
31
0.0000000000
11
225.8738082009
21
145.9088597981
31
0.0000000000
0
SPLINE
5
56B
100
AcDbEntity
8
0
100
AcDbSpline
62
7
6
CONTINUOUS
70
0
71
3
72
8
73
4
74
2
42
0.0000001000
43
0.0000001000
44
0.0000000001
40
0.0000000000
40
0.0000000000
40
0.0000000000
40
0.0000000000
40
1.0000000000
40
1.0000000000
40
1.0000000000
40
1.0000000000
10
225.8738082009
20
145.9088597981
30
0.0000000000
10
225.8795029134
20
145.9939164090
30
0.0000000000
10
225.8853218168
20
146.0789646594
30
0.0000000000
10
225.8912649450
20
146.1640041373
30
0.0000000000
11
225.8738082009
21
145.9088597981
31
0.0000000000
11
225.8912649450
21
146.1640041373
31
0.0000000000
0
SPLINE
5
56C
100
AcDbEntity
8
0
100
AcDbSpline
62
7
6
CONTINUOUS
70
0
71
3
72
9
73
5
74
3
42
0.0000001000
43
0.0000001000
44
0.0000000001
40
0.0000000000
40
0.0000000000
40
0.0000000000
40
0.0000000000
40
0.5001319447
40
1.0000000000
40
1.0000000000
40
1.0000000000
40
1.0000000000
10
225.3243351923
20
145.1427275738
30
0.0000000000
10
225.3341368045
20
145.3130454236
30
0.0000000000
10
225.3547181677
20
145.6535353819
30
0.0000000000
10
225.3772666208
20
145.9939007342
30
0.0000000000
10
225.3890296489
20
146.1640041373
30
0.0000000000
11
225.3243351923
21
145.1427275738
31
0.0000000000
11
225.3552156310
21
145.6535940656
31
0.0000000000
11
225.3890296489
21
146.1640041373
31
0.0000000000
0
SPLINE
5
56D
100
AcDbEntity
8
0
100
AcDbSpline
62
7
6
CONTINUOUS
70
0
71
3
72
9
73
5
74
3
42
0.0000001000
43
0.0000001000
44
0.0000000001
40
0.0000000000
40
0.0000000000
40
0.0000000000
40
0.0000000000
40
0.4998711861
40
1.0000000000
40
1.0000000000
40
1.0000000000
40
1.0000000000
10
225.8234029863
20
172.6125486148
30
0.0000000000
10
225.8338908150
20
172.6551521627
30
0.0000000000
10
225.8551178205
20
172.7403208586
30
0.0000000000
10
225.8768349218
20
172.8253659030
30
0.0000000000
10
225.8878183676
20
172.8678677333
30
0.0000000000
11
225.8234029863
21
172.6125486148
31
0.0000000000
11
225.8552348126
21
172.7402680198
31
0.0000000000
11
225.8878183676
21
172.8678677333
31
0.0000000000
0
SPLINE
5
56E
100
AcDbEntity
8
0
100
AcDbSpline
62
7
6
CONTINUOUS
70
0
71
3
72
9
73
5
74
3
42
0.0000001000
43
0.0000001000
44
0.0000000001
40
0.0000000000
40
0.0000000000
40
0.0000000000
40
0.0000000000
40
0.4997152597
40
1.0000000000
40
1.0000000000
40
1.0000000000
40
1.0000000000
10
225.7434617000
20
144.3767701513
30
0.0000000000
10
225.7544589576
20
144.5046288327
30
0.0000000000
10
225.7792095173
20
144.7602632783
30
0.0000000000
10
225.8094167508
20
145.0153103098
30
0.0000000000
10
225.8258843030
20
145.1427275738
30
0.0000000000
11
225.7434617000
21
144.3767701513
31
0.0000000000
11
225.7805580375
21
144.7599710131
31
0.0000000000
11
225.8258843030
21
145.1427275738
31
0.0000000000
0
SPLINE
5
56F
100
AcDbEntity
8
0
100
AcDbSpline
62
7
6
CONTINUOUS
70
0
71
3
72
9
73
5
74
3
42
0.0000001000
43
0.0000001000
44
0.0000000001
40
0.0000000000
40
0.0000000000
40
0.0000000000
40
0.0000000000
40
0.4997210907
40
1.0000000000
40
1.0000000000
40
1.0000000000
40
1.0000000000
10
225.2427749809
20
144.3767701513
30
0.0000000000
10
225.2536570185
20
144.5046246967
30
0.0000000000
10
225.2781481273
20
144.7602526294
30
0.0000000000
10
225.3080395952
20
145.0153052977
30
0.0000000000
10
225.3243351923
20
145.1427275738
30
0.0000000000
11
225.2427749809
21
144.3767701513
31
0.0000000000
11
225.2794830497
21
144.7599663797
31
0.0000000000
11
225.3243351923
21
145.1427275738
31
0.0000000000
0
SPLINE
5
570
100
AcDbEntity
8
0
100
AcDbSpline
62
7
6
CONTINUOUS
70
0
71
3
72
9
73
5
74
3
42
0.0000001000
43
0.0000001000
44
0.0000000001
40
0.0000000000
40
0.0000000000
40
0.0000000000
40
0.0000000000
40
0.5002874080
40
1.0000000000
40
1.0000000000
40
1.0000000000
40
1.0000000000
10
225.8878183676
20
172.8678677333
30
0.0000000000
10
225.9043284975
20
173.0382361421
30
0.0000000000
10
225.9379127247
20
173.3787209730
30
0.0000000000
10
225.9726642642
20
173.7190886453
30
0.0000000000
10
225.9903220824
20
173.8891442073
30
0.0000000000
11
225.8878183676
21
172.8678677333
31
0.0000000000
11
225.9382241931
21
173.3788873658
31
0.0000000000
11
225.9903220824
21
173.8891442073
31
0.0000000000
0
SPLINE
5
571
100
AcDbEntity
8
0
100
AcDbSpline
62
7
6
CONTINUOUS
70
0
71
3
72
9
73
5
74
3
42
0.0000001000
43
0.0000001000
44
0.0000000001
40
0.0000000000
40
0.0000000000
40
0.0000000000
40
0.0000000000
40
0.4971289892
40
1.0000000000
40
1.0000000000
40
1.0000000000
40
1.0000000000
10
225.6940768384
20
144.1214510104
30
0.0000000000
10
225.6995878752
20
144.1642112295
30
0.0000000000
10
225.7134213626
20
144.2498923664
30
0.0000000000
10
225.7325653005
20
144.3345414389
30
0.0000000000
10
225.7434617000
20
144.3767701513
30
0.0000000000
11
225.6940768384
21
144.1214510104
31
0.0000000000
11
225.7146543405
21
144.2491453219
31
0.0000000000
11
225.7434617000
21
144.3767701513
31
0.0000000000
0
SPLINE
5
572
100
AcDbEntity
8
0
100
AcDbSpline
62
7
6
CONTINUOUS
70
0
71
3
72
9
73
5
74
3
42
0.0000001000
43
0.0000001000
44
0.0000000001
40
0.0000000000
40
0.0000000000
40
0.0000000000
40
0.0000000000
40
0.4971864190
40
1.0000000000
40
1.0000000000
40
1.0000000000
40
1.0000000000
10
225.1939054234
20
144.1214510104
30
0.0000000000
10
225.1993584753
20
144.1642070020
30
0.0000000000
10
225.2130453233
20
144.2498766457
30
0.0000000000
10
225.2319907677
20
144.3345350621
30
0.0000000000
10
225.2427749809
20
144.3767701513
30
0.0000000000
11
225.1939054234
21
144.1214510104
31
0.0000000000
11
225.2142682004
21
144.2491445991
31
0.0000000000
11
225.2427749809
21
144.3767701513
31
0.0000000000
0
SPLINE
5
573
100
AcDbEntity
8
0
100
AcDbSpline
62
7
6
CONTINUOUS
70
0
71
3
72
9
73
5
74
3
42
0.0000001000
43
0.0000001000
44
0.0000000001
40
0.0000000000
40
0.0000000000
40
0.0000000000
40
0.0000000000
40
0.5001332021
40
1.0000000000
40
1.0000000000
40
1.0000000000
40
1.0000000000
10
225.9903220824
20
173.8891442073
30
0.0000000000
10
225.9962151500
20
174.0168408263
30
0.0000000000
10
226.0080637479
20
174.2721630213
30
0.0000000000
10
226.0200436500
20
174.5274790891
30
0.0000000000
10
226.0260648480
20
174.6551015628
30
0.0000000000
11
225.9903220824
21
173.8891442073
31
0.0000000000
11
226.0080997480
21
174.2722295076
31
0.0000000000
11
226.0260648480
21
174.6551015628
31
0.0000000000
0
SPLINE
5
574
100
AcDbEntity
8
0
100
AcDbSpline
62
7
6
CONTINUOUS
70
0
71
3
72
9
73
5
74
3
42
0.0000001000
43
0.0000001000
44
0.0000000001
40
0.0000000000
40
0.0000000000
40
0.0000000000
40
0.0000000000
40
0.5001332021
40
1.0000000000
40
1.0000000000
40
1.0000000000
40
1.0000000000
10
225.9903220824
20
176.4423361075
30
0.0000000000
10
225.9962151500
20
176.3146394886
30
0.0000000000
10
226.0080637479
20
176.0593172936
30
0.0000000000
10
226.0200436500
20
175.8040012257
30
0.0000000000
10
226.0260648480
20
175.6763787521
30
0.0000000000
11
225.9903220824
21
176.4423361075
31
0.0000000000
11
226.0080997480
21
176.0592508073
31
0.0000000000
11
226.0260648480
21
175.6763787521
31
0.0000000000
0
SPLINE
5
575
100
AcDbEntity
8
0
100
AcDbSpline
62
7
6
CONTINUOUS
70
0
71
3
72
9
73
5
74
3
42
0.0000001000
43
0.0000001000
44
0.0000000001
40
0.0000000000
40
0.0000000000
40
0.0000000000
40
0.0000000000
40
0.4973982296
40
1.0000000000
40
1.0000000000
40
1.0000000000
40
1.0000000000
10
226.9096510174
20
168.2721230639
30
0.0000000000
10
226.9448393709
20
168.2292381935
30
0.0000000000
10
227.0162657948
20
168.1435769979
30
0.0000000000
10
227.0890002136
20
168.0590239658
30
0.0000000000
10
227.1258719662
20
168.0168039454
30
0.0000000000
11
226.9096510174
21
168.2721230639
31
0.0000000000
11
227.0162177290
21
168.1442969046
31
0.0000000000
11
227.1258719662
21
168.0168039454
31
0.0000000000
0
SPLINE
5
576
100
AcDbEntity
8
0
100
AcDbSpline
62
7
6
CONTINUOUS
70
0
71
3
72
9
73
5
74
3
42
0.0000001000
43
0.0000001000
44
0.0000000001
40
0.0000000000
40
0.0000000000
40
0.0000000000
40
0.0000000000
40
0.4973644027
40
1.0000000000
40
1.0000000000
40
1.0000000000
40
1.0000000000
10
227.4285767243
20
168.2721230639
30
0.0000000000
10
227.4641687553
20
168.2292327220
30
0.0000000000
10
227.5364144225
20
168.1435632940
30
0.0000000000
10
227.6099726917
20
168.0590186143
30
0.0000000000
10
227.6472619532
20
168.0168039454
30
0.0000000000
11
227.4285767243
21
168.2721230639
31
0.0000000000
11
227.5363583016
21
168.1442931047
31
0.0000000000
11
227.6472619532
21
168.0168039454
31
0.0000000000
0
SPLINE
5
577
100
AcDbEntity
8
0
100
AcDbSpline
62
7
6
CONTINUOUS
70
0
71
3
72
9
73
5
74
3
42
0.0000001000
43
0.0000001000
44
0.0000000001
40
0.0000000000
40
0.0000000000
40
0.0000000000
40
0.0000000000
40
0.5001280191
40
1.0000000000
40
1.0000000000
40
1.0000000000
40
1.0000000000
10
226.7562801198
20
168.7827614797
30
0.0000000000
10
226.7812750384
20
168.6974626296
30
0.0000000000
10
226.8318267985
20
168.5270764817
30
0.0000000000
10
226.8835238842
20
168.3570343432
30
0.0000000000
10
226.9096510174
20
168.2721230639
30
0.0000000000
11
226.7562801198
21
168.7827614797
31
0.0000000000
11
226.8321262197
21
168.5271189028
31
0.0000000000
11
226.9096510174
21
168.2721230639
31
0.0000000000
0
SPLINE
5
578
100
AcDbEntity
8
0
100
AcDbSpline
62
7
6
CONTINUOUS
70
0
71
3
72
9
73
5
74
3
42
0.0000001000
43
0.0000001000
44
0.0000000001
40
0.0000000000
40
0.0000000000
40
0.0000000000
40
0.0000000000
40
0.5001309412
40
1.0000000000
40
1.0000000000
40
1.0000000000
40
1.0000000000
10
227.2734720053
20
168.7827614797
30
0.0000000000
10
227.2987498165
20
168.6974583086
30
0.0000000000
10
227.3498732667
20
168.5270682825
30
0.0000000000
10
227.4021545958
20
168.3570299681
30
0.0000000000
10
227.4285767243
20
168.2721230639
30
0.0000000000
11
227.2734720053
21
168.7827614797
31
0.0000000000
11
227.3501762764
21
168.5271116343
31
0.0000000000
11
227.4285767243
21
168.2721230639
31
0.0000000000
0
SPLINE
5
579
100
AcDbEntity
8
0
100
AcDbSpline
62
7
6
CONTINUOUS
70
0
71
3
72
9
73
5
74
3
42
0.0000001000
43
0.0000001000
44
0.0000000001
40
0.0000000000
40
0.0000000000
40
0.0000000000
40
0.0000000000
40
0.5003001608
40
1.0000000000
40
1.0000000000
40
1.0000000000
40
1.0000000000
10
226.6581789908
20
169.5487188352
30
0.0000000000
10
226.6742682221
20
169.4209481782
30
0.0000000000
10
226.7066977840
20
169.1655941562
30
0.0000000000
10
226.7396689306
20
168.9103094976
30
0.0000000000
10
226.7562801198
20
168.7827614797
30
0.0000000000
11
226.6581789908
21
169.5487188352
31
0.0000000000
11
226.7068528109
21
169.1654582233
31
0.0000000000
11
226.7562801198
21
168.7827614797
31
0.0000000000
0
SPLINE
5
57A
100
AcDbEntity
8
0
100
AcDbSpline
62
7
6
CONTINUOUS
70
0
71
3
72
9
73
5
74
3
42
0.0000001000
43
0.0000001000
44
0.0000000001
40
0.0000000000
40
0.0000000000
40
0.0000000000
40
0.0000000000
40
0.5003068489
40
1.0000000000
40
1.0000000000
40
1.0000000000
40
1.0000000000
10
227.1742679630
20
169.5487188352
30
0.0000000000
10
227.1905380128
20
169.4209456547
30
0.0000000000
10
227.2233318792
20
169.1655908055
30
0.0000000000
10
227.2566739954
20
168.9103069629
30
0.0000000000
10
227.2734720053
20
168.7827614797
30
0.0000000000
11
227.1742679630
21
169.5487188352
31
0.0000000000
11
227.2234892354
21
169.1654518682
31
0.0000000000
11
227.2734720053
21
168.7827614797
31
0.0000000000
0
SPLINE
5
57B
100
AcDbEntity
8
0
100
AcDbSpline
62
7
6
CONTINUOUS
70
0
71
3
72
9
73
5
74
3
42
0.0000001000
43
0.0000001000
44
0.0000000001
40
0.0000000000
40
0.0000000000
40
0.0000000000
40
0.0000000000
40
0.5001856059
40
1.0000000000
40
1.0000000000
40
1.0000000000
40
1.0000000000
10
226.6103646703
20
170.5699953092
30
0.0000000000
10
226.6182683535
20
170.3997161898
30
0.0000000000
10
226.6341381161
20
170.0592874884
30
0.0000000000
10
226.6501445512
20
169.7188651858
30
0.0000000000
10
226.6581789908
20
169.5487188352
30
0.0000000000
11
226.6103646703
21
170.5699953092
31
0.0000000000
11
226.6341782007
21
170.0591627182
31
0.0000000000
11
226.6581789908
21
169.5487188352
31
0.0000000000
0
SPLINE
5
57C
100
AcDbEntity
8
0
100
AcDbSpline
62
7
6
CONTINUOUS
70
0
71
3
72
9
73
5
74
3
42
0.0000001000
43
0.0000001000
44
0.0000000001
40
0.0000000000
40
0.0000000000
40
0.0000000000
40
0.0000000000
40
0.5001897807
40
1.0000000000
40
1.0000000000
40
1.0000000000
40
1.0000000000
10
227.1259177974
20
170.5699953092
30
0.0000000000
10
227.1339100333
20
170.3997146925
30
0.0000000000
10
227.1499575552
20
170.0592859145
30
0.0000000000
10
227.1661434605
20
169.7188636879
30
0.0000000000
10
227.1742679630
20
169.5487188352
30
0.0000000000
11
227.1259177974
21
170.5699953092
31
0.0000000000
11
227.1499982683
21
170.0591583400
31
0.0000000000
11
227.1742679630
21
169.5487188352
31
0.0000000000
0
SPLINE
5
57D
100
AcDbEntity
8
0
100
AcDbSpline
62
7
6
CONTINUOUS
70
0
71
3
72
9
73
5
74
3
42
0.0000001000
43
0.0000001000
44
0.0000000001
40
0.0000000000
40
0.0000000000
40
0.0000000000
40
0.0000000000
40
0.5001856059
40
1.0000000000
40
1.0000000000
40
1.0000000000
40
1.0000000000
10
226.6103646703
20
174.3997824443
30
0.0000000000
10
226.6182683535
20
174.5700615636
30
0.0000000000
10
226.6341381161
20
174.9104902650
30
0.0000000000
10
226.6501445512
20
175.2509125677
30
0.0000000000
10
226.6581789908
20
175.4210589183
30
0.0000000000
11
226.6103646703
21
174.3997824443
31
0.0000000000
11
226.6341782007
21
174.9106150353
31
0.0000000000
11
226.6581789908
21
175.4210589183
31
0.0000000000
0
SPLINE
5
57E
100
AcDbEntity
8
0
100
AcDbSpline
62
7
6
CONTINUOUS
70
0
71
3
72
9
73
5
74
3
42
0.0000001000
43
0.0000001000
44
0.0000000001
40
0.0000000000
40
0.0000000000
40
0.0000000000
40
0.0000000000
40
0.5001897807
40
1.0000000000
40
1.0000000000
40
1.0000000000
40
1.0000000000
10
227.1259177974
20
174.3997824443
30
0.0000000000
10
227.1339100333
20
174.5700630609
30
0.0000000000
10
227.1499575552
20
174.9104918390
30
0.0000000000
10
227.1661434605
20
175.2509140655
30
0.0000000000
10
227.1742679630
20
175.4210589183
30
0.0000000000
11
227.1259177974
21
174.3997824443
31
0.0000000000
11
227.1499982683
21
174.9106194135
31
0.0000000000
11
227.1742679630
21
175.4210589183
31
0.0000000000
0
SPLINE
5
57F
100
AcDbEntity
8
0
100
AcDbSpline
62
7
6
CONTINUOUS
70
0
71
3
72
9
73
5
74
3
42
0.0000001000
43
0.0000001000
44
0.0000000001
40
0.0000000000
40
0.0000000000
40
0.0000000000
40
0.0000000000
40
0.5003001610
40
1.0000000000
40
1.0000000000
40
1.0000000000
40
1.0000000000
10
226.6581789908
20
175.4210589183
30
0.0000000000
10
226.6742682221
20
175.5488296946
30
0.0000000000
10
226.7066977840
20
175.8041839550
30
0.0000000000
10
226.7396689305
20
176.0594688520
30
0.0000000000
10
226.7562801198
20
176.1870169891
30
0.0000000000
11
226.6581789908
21
175.4210589183
31
0.0000000000
11
226.7068528109
21
175.8043198881
31
0.0000000000
11
226.7562801198
21
176.1870169891
31
0.0000000000
0
SPLINE
5
580
100
AcDbEntity
8
0
100
AcDbSpline
62
7
6
CONTINUOUS
70
0
71
3
72
9
73
5
74
3
42
0.0000001000
43
0.0000001000
44
0.0000000001
40
0.0000000000
40
0.0000000000
40
0.0000000000
40
0.0000000000
40
0.5003068490
40
1.0000000000
40
1.0000000000
40
1.0000000000
40
1.0000000000
10
227.1742679630
20
175.4210589183
30
0.0000000000
10
227.1905380128
20
175.5488322181
30
0.0000000000
10
227.2233318792
20
175.8041873056
30
0.0000000000
10
227.2566739954
20
176.0594713867
30
0.0000000000
10
227.2734720053
20
176.1870169891
30
0.0000000000
11
227.1742679630
21
175.4210589183
31
0.0000000000
11
227.2234892354
21
175.8043262432
31
0.0000000000
11
227.2734720053
21
176.1870169891
31
0.0000000000
0
SPLINE
5
581
100
AcDbEntity
8
0
100
AcDbSpline
62
7
6
CONTINUOUS
70
0
71
3
72
9
73
5
74
3
42
0.0000001000
43
0.0000001000
44
0.0000000001
40
0.0000000000
40
0.0000000000
40
0.0000000000
40
0.0000000000
40
0.5001280187
40
1.0000000000
40
1.0000000000
40
1.0000000000
40
1.0000000000
10
226.7562801198
20
176.1870169891
30
0.0000000000
10
226.7812750384
20
176.2723158093
30
0.0000000000
10
226.8318267985
20
176.4427018976
30
0.0000000000
10
226.8835238842
20
176.6127439764
30
0.0000000000
10
226.9096510174
20
176.6976552260
30
0.0000000000
11
226.7562801198
21
176.1870169891
31
0.0000000000
11
226.8321262197
21
176.4426594764
31
0.0000000000
11
226.9096510174
21
176.6976552260
31
0.0000000000
0
SPLINE
5
582
100
AcDbEntity
8
0
100
AcDbSpline
62
7
6
CONTINUOUS
70
0
71
3
72
9
73
5
74
3
42
0.0000001000
43
0.0000001000
44
0.0000000001
40
0.0000000000
40
0.0000000000
40
0.0000000000
40
0.0000000000
40
0.5001309408
40
1.0000000000
40
1.0000000000
40
1.0000000000
40
1.0000000000
10
227.2734720053
20
176.1870169891
30
0.0000000000
10
227.2987498165
20
176.2723201303
30
0.0000000000
10
227.3498732667
20
176.4427100969
30
0.0000000000
10
227.4021545958
20
176.6127483516
30
0.0000000000
10
227.4285767243
20
176.6976552260
30
0.0000000000
11
227.2734720053
21
176.1870169891
31
0.0000000000
11
227.3501762764
21
176.4426667448
31
0.0000000000
11
227.4285767243
21
176.6976552260
31
0.0000000000
0
SPLINE
5
583
100
AcDbEntity
8
0
100
AcDbSpline
62
7
6
CONTINUOUS
70
0
71
3
72
9
73
5
74
3
42
0.0000001000
43
0.0000001000
44
0.0000000001
40
0.0000000000
40
0.0000000000
40
0.0000000000
40
0.0000000000
40
0.4973982296
40
1.0000000000
40
1.0000000000
40
1.0000000000
40
1.0000000000
10
226.9096510174
20
176.6976552260
30
0.0000000000
10
226.9448393709
20
176.7405400964
30
0.0000000000
10
227.0162657948
20
176.8262012920
30
0.0000000000
10
227.0890002136
20
176.9107543241
30
0.0000000000
10
227.1258719662
20
176.9529743445
30
0.0000000000
11
226.9096510174
21
176.6976552260
31
0.0000000000
11
227.0162177290
21
176.8254813853
31
0.0000000000
11
227.1258719662
21
176.9529743445
31
0.0000000000
0
SPLINE
5
584
100
AcDbEntity
8
0
100
AcDbSpline
62
7
6
CONTINUOUS
70
0
71
3
72
9
73
5
74
3
42
0.0000001000
43
0.0000001000
44
0.0000000001
40
0.0000000000
40
0.0000000000
40
0.0000000000
40
0.0000000000
40
0.4973644027
40
1.0000000000
40
1.0000000000
40
1.0000000000
40
1.0000000000
10
227.4285767243
20
176.6976552260
30
0.0000000000
10
227.4641687553
20
176.7405455679
30
0.0000000000
10
227.5364144225
20
176.8262149959
30
0.0000000000
10
227.6099726917
20
176.9107596757
30
0.0000000000
10
227.6472619532
20
176.9529743445
30
0.0000000000
11
227.4285767243
21
176.6976552260
31
0.0000000000
11
227.5363583016
21
176.8254851852
31
0.0000000000
11
227.6472619532
21
176.9529743445
31
0.0000000000
0
SPLINE
5
585
100
AcDbEntity
8
0
100
AcDbSpline
62
7
6
CONTINUOUS
70
0
71
3
72
9
73
5
74
3
42
0.0000001000
43
0.0000001000
44
0.0000000001
40
0.0000000000
40
0.0000000000
40
0.0000000000
40
0.0000000000
40
0.5002874080
40
1.0000000000
40
1.0000000000
40
1.0000000000
40
1.0000000000
10
225.8878183676
20
177.4636125815
30
0.0000000000
10
225.9043284975
20
177.2932441727
30
0.0000000000
10
225.9379127247
20
176.9527593418
30
0.0000000000
10
225.9726642642
20
176.6123916695
30
0.0000000000
10
225.9903220824
20
176.4423361075
30
0.0000000000
11
225.8878183676
21
177.4636125815
31
0.0000000000
11
225.9382241931
21
176.9525929490
31
0.0000000000
11
225.9903220824
21
176.4423361075
31
0.0000000000
0
SPLINE
5
586
100
AcDbEntity
8
0
100
AcDbSpline
62
7
6
CONTINUOUS
70
0
71
3
72
8
73
4
74
2
42
0.0000001000
43
0.0000001000
44
0.0000000001
40
0.0000000000
40
0.0000000000
40
0.0000000000
40
0.0000000000
40
1.0000000000
40
1.0000000000
40
1.0000000000
40
1.0000000000
10
226.3954081547
20
177.4636125815
30
0.0000000000
10
226.4120977547
20
177.2932407595
30
0.0000000000
10
226.4290822963
20
177.1228977003
30
0.0000000000
10
226.4463623244
20
176.9525846204
30
0.0000000000
11
226.3954081547
21
177.4636125815
31
0.0000000000
11
226.4463623244
21
176.9525846204
31
0.0000000000
0
SPLINE
5
587
100
AcDbEntity
8
0
100
AcDbSpline
62
7
6
CONTINUOUS
70
0
71
3
72
8
73
4
74
2
42
0.0000001000
43
0.0000001000
44
0.0000000001
40
0.0000000000
40
0.0000000000
40
0.0000000000
40
0.0000000000
40
1.0000000000
40
1.0000000000
40
1.0000000000
40
1.0000000000
10
226.4463623244
20
176.9525846204
30
0.0000000000
10
226.4549104258
20
176.8683339778
30
0.0000000000
10
226.4635308354
20
176.7840906714
30
0.0000000000
10
226.4722236216
20
176.6998548497
30
0.0000000000
11
226.4463623244
21
176.9525846204
31
0.0000000000
11
226.4722236216
21
176.6998548497
31
0.0000000000
0
SPLINE
5
588
100
AcDbEntity
8
0
100
AcDbSpline
62
7
6
CONTINUOUS
70
0
71
3
72
9
73
5
74
3
42
0.0000001000
43
0.0000001000
44
0.0000000001
40
0.0000000000
40
0.0000000000
40
0.0000000000
40
0.0000000000
40
0.5000877998
40
1.0000000000
40
1.0000000000
40
1.0000000000
40
1.0000000000
10
225.7621090515
20
178.2295699370
30
0.0000000000
10
225.7820504514
20
178.1017246673
30
0.0000000000
10
225.8229409977
20
177.8462362686
30
0.0000000000
10
225.8658579576
20
177.5910804495
30
0.0000000000
10
225.8878183676
20
177.4636125815
30
0.0000000000
11
225.7621090515
21
178.2295699370
31
0.0000000000
11
225.8234549594
21
177.8462745790
31
0.0000000000
11
225.8878183676
21
177.4636125815
31
0.0000000000
0
SPLINE
5
589
100
AcDbEntity
8
0
100
AcDbSpline
62
7
6
CONTINUOUS
70
0
71
3
72
9
73
5
74
3
42
0.0000001000
43
0.0000001000
44
0.0000000001
40
0.0000000000
40
0.0000000000
40
0.0000000000
40
0.0000000000
40
0.5000896965
40
1.0000000000
40
1.0000000000
40
1.0000000000
40
1.0000000000
10
226.2683385601
20
178.2295699370
30
0.0000000000
10
226.2884957979
20
178.1017206277
30
0.0000000000
10
226.3298288167
20
177.8462285443
30
0.0000000000
10
226.3732101989
20
177.5910762807
30
0.0000000000
10
226.3954081547
20
177.4636125815
30
0.0000000000
11
226.2683385601
21
178.2295699370
31
0.0000000000
11
226.3303485062
21
177.8462676963
31
0.0000000000
11
226.3954081547
21
177.4636125815
31
0.0000000000
0
SPLINE
5
58A
100
AcDbEntity
8
0
100
AcDbSpline
62
7
6
CONTINUOUS
70
0
71
3
72
9
73
5
74
3
42
0.0000001000
43
0.0000001000
44
0.0000000001
40
0.0000000000
40
0.0000000000
40
0.0000000000
40
0.0000000000
40
0.4964099338
40
1.0000000000
40
1.0000000000
40
1.0000000000
40
1.0000000000
10
225.6224532944
20
178.4848890555
30
0.0000000000
10
225.6443048343
20
178.4419718649
30
0.0000000000
10
225.6896323405
20
178.3561772760
30
0.0000000000
10
225.7374415976
20
178.2717418760
30
0.0000000000
10
225.7621090515
20
178.2295699370
30
0.0000000000
11
225.6224532944
21
178.4848890555
31
0.0000000000
11
225.6899184431
21
178.3571282277
31
0.0000000000
11
225.7621090515
21
178.2295699370
31
0.0000000000
0
SPLINE
5
58B
100
AcDbEntity
8
0
100
AcDbSpline
62
7
6
CONTINUOUS
70
0
71
3
72
9
73
5
74
3
42
0.0000001000
43
0.0000001000
44
0.0000000001
40
0.0000000000
40
0.0000000000
40
0.0000000000
40
0.0000000000
40
0.4963506129
40
1.0000000000
40
1.0000000000
40
1.0000000000
40
1.0000000000
10
226.1271801820
20
178.4848890555
30
0.0000000000
10
226.1492694751
20
178.4419653667
30
0.0000000000
10
226.1950905445
20
178.3561591920
30
0.0000000000
10
226.2434087469
20
178.2717353749
30
0.0000000000
10
226.2683385601
20
178.2295699370
30
0.0000000000
11
226.1271801820
21
178.4848890555
31
0.0000000000
11
226.1953713104
21
178.3571260349
31
0.0000000000
11
226.2683385601
21
178.2295699370
31
0.0000000000
0
SPLINE
5
58C
100
AcDbEntity
8
0
100
AcDbSpline
62
7
6
CONTINUOUS
70
0
71
3
72
9
73
5
74
3
42
0.0000001000
43
0.0000001000
44
0.0000000001
40
0.0000000000
40
0.0000000000
40
0.0000000000
40
0.0000000000
40
0.5003104848
40
1.0000000000
40
1.0000000000
40
1.0000000000
40
1.0000000000
10
228.5636823350
20
176.6976552260
30
0.0000000000
10
228.5762364375
20
176.4847524557
30
0.0000000000
10
228.6014066064
20
176.0592157321
30
0.0000000000
10
228.6267321508
20
175.6336882273
30
0.0000000000
10
228.6394259513
20
175.4210589183
30
0.0000000000
11
228.5636823350
21
176.6976552260
31
0.0000000000
11
228.6014611284
21
176.0589537943
31
0.0000000000
11
228.6394259513
21
175.4210589183
31
0.0000000000
0
SPLINE
5
58D
100
AcDbEntity
8
0
100
AcDbSpline
62
7
6
CONTINUOUS
70
0
71
3
72
9
73
5
74
3
42
0.0000001000
43
0.0000001000
44
0.0000000001
40
0.0000000000
40
0.0000000000
40
0.0000000000
40
0.0000000000
40
0.5003181032
40
1.0000000000
40
1.0000000000
40
1.0000000000
40
1.0000000000
10
229.1020775631
20
176.6976552260
30
0.0000000000
10
229.1147852187
20
176.4847490851
30
0.0000000000
10
229.1402631209
20
176.0592122320
30
0.0000000000
10
229.1658988189
20
175.6336848559
30
0.0000000000
10
229.1787480116
20
175.4210589183
30
0.0000000000
11
229.1020775631
21
176.6976552260
31
0.0000000000
11
229.1403188293
21
176.0589438750
31
0.0000000000
11
229.1787480116
21
175.4210589183
31
0.0000000000
0
SPLINE
5
58E
100
AcDbEntity
8
0
100
AcDbSpline
62
7
6
CONTINUOUS
70
0
71
3
72
9
73
5
74
3
42
0.0000001000
43
0.0000001000
44
0.0000000001
40
0.0000000000
40
0.0000000000
40
0.0000000000
40
0.0000000000
40
0.5005882396
40
1.0000000000
40
1.0000000000
40
1.0000000000
40
1.0000000000
10
228.2699956814
20
177.7189317000
30
0.0000000000
10
228.3178626405
20
177.5481944147
30
0.0000000000
10
228.4146210164
20
177.2074388278
30
0.0000000000
10
228.5136549696
20
176.8673376088
30
0.0000000000
10
228.5636823350
20
176.6976552260
30
0.0000000000
11
228.2699956814
21
177.7189317000
31
0.0000000000
11
228.4153050843
21
177.2072019131
31
0.0000000000
11
228.5636823350
21
176.6976552260
31
0.0000000000
0
SPLINE
5
58F
100
AcDbEntity
8
0
100
AcDbSpline
62
7
6
CONTINUOUS
70
0
71
3
72
9
73
5
74
3
42
0.0000001000
43
0.0000001000
44
0.0000000001
40
0.0000000000
40
0.0000000000
40
0.0000000000
40
0.0000000000
40
0.5006016641
40
1.0000000000
40
1.0000000000
40
1.0000000000
40
1.0000000000
10
228.8048273336
20
177.7189317000
30
0.0000000000
10
228.8532749056
20
177.5481814952
30
0.0000000000
10
228.9512058455
20
177.2074173994
30
0.0000000000
10
229.0514430028
20
176.8673245291
30
0.0000000000
10
229.1020775631
20
176.6976552260
30
0.0000000000
11
228.8048273336
21
177.7189317000
31
0.0000000000
11
228.9519016313
21
177.2071755589
31
0.0000000000
11
229.1020775631
21
176.6976552260
31
0.0000000000
0
SPLINE
5
590
100
AcDbEntity
8
0
100
AcDbSpline
62
7
6
CONTINUOUS
70
0
71
3
72
9
73
5
74
3
42
0.0000001000
43
0.0000001000
44
0.0000000001
40
0.0000000000
40
0.0000000000
40
0.0000000000
40
0.0000000000
40
0.4995523450
40
1.0000000000
40
1.0000000000
40
1.0000000000
40
1.0000000000
10
227.9909501469
20
178.2295699370
30
0.0000000000
10
228.0364815433
20
178.1440340497
30
0.0000000000
10
228.1285700107
20
177.9733098758
30
0.0000000000
10
228.2225197606
20
177.8036029429
30
0.0000000000
10
228.2699956814
20
177.7189317000
30
0.0000000000
11
227.9909501469
21
178.2295699370
31
0.0000000000
11
228.1289520508
21
177.9737165820
31
0.0000000000
11
228.2699956814
21
177.7189317000
31
0.0000000000
0
SPLINE
5
591
100
AcDbEntity
8
0
100
AcDbSpline
62
7
6
CONTINUOUS
70
0
71
3
72
9
73
5
74
3
42
0.0000001000
43
0.0000001000
44
0.0000000001
40
0.0000000000
40
0.0000000000
40
0.0000000000
40
0.0000000000
40
0.4995451022
40
1.0000000000
40
1.0000000000
40
1.0000000000
40
1.0000000000
10
228.5224395676
20
178.2295699370
30
0.0000000000
10
228.5685180579
20
178.1440244409
30
0.0000000000
10
228.6617120748
20
177.9732893626
30
0.0000000000
10
228.7567846650
20
177.8035932749
30
0.0000000000
10
228.8048273336
20
177.7189317000
30
0.0000000000
11
228.5224395676
21
178.2295699370
31
0.0000000000
11
228.6620960765
21
177.9737039719
31
0.0000000000
11
228.8048273336
21
177.7189317000
31
0.0000000000
0
SPLINE
5
592
100
AcDbEntity
8
0
100
AcDbSpline
62
7
6
CONTINUOUS
70
0
71
3
72
9
73
5
74
3
42
0.0000001000
43
0.0000001000
44
0.0000000001
40
0.0000000000
40
0.0000000000
40
0.0000000000
40
0.0000000000
40
0.4957037905
40
1.0000000000
40
1.0000000000
40
1.0000000000
40
1.0000000000
10
227.6623228608
20
178.4848890555
30
0.0000000000
10
227.7159149545
20
178.4418013702
30
0.0000000000
10
227.8247729815
20
178.3558020541
30
0.0000000000
10
227.9350231576
20
178.2715959395
30
0.0000000000
10
227.9909501469
20
178.2295699370
30
0.0000000000
11
227.6623228608
21
178.4848890555
31
0.0000000000
11
227.8241797097
21
178.3569816257
31
0.0000000000
11
227.9909501469
21
178.2295699370
31
0.0000000000
0
SPLINE
5
593
100
AcDbEntity
8
0
100
AcDbSpline
62
7
6
CONTINUOUS
70
0
71
3
72
9
73
5
74
3
42
0.0000001000
43
0.0000001000
44
0.0000000001
40
0.0000000000
40
0.0000000000
40
0.0000000000
40
0.0000000000
40
0.4956667705
40
1.0000000000
40
1.0000000000
40
1.0000000000
40
1.0000000000
10
228.1899296765
20
178.4848890555
30
0.0000000000
10
228.2441593822
20
178.4417941429
30
0.0000000000
10
228.3543120312
20
178.3557847922
30
0.0000000000
10
228.4658562155
20
178.2715890448
30
0.0000000000
10
228.5224395676
20
178.2295699370
30
0.0000000000
11
228.1899296765
21
178.4848890555
31
0.0000000000
11
228.3536992779
21
178.3569757648
31
0.0000000000
11
228.5224395676
21
178.2295699370
31
0.0000000000
0
SPLINE
5
594
100
AcDbEntity
8
0
100
AcDbSpline
62
7
6
CONTINUOUS
70
0
71
3
72
9
73
5
74
3
42
0.0000001000
43
0.0000001000
44
0.0000000001
40
0.0000000000
40
0.0000000000
40
0.0000000000
40
0.0000000000
40
0.4964099344
40
1.0000000000
40
1.0000000000
40
1.0000000000
40
1.0000000000
10
225.6224532944
20
166.4848890555
30
0.0000000000
10
225.6443048343
20
166.5278062499
30
0.0000000000
10
225.6896323404
20
166.6136008462
30
0.0000000000
10
225.7374415976
20
166.6980362537
30
0.0000000000
10
225.7621090515
20
166.7402081964
30
0.0000000000
11
225.6224532944
21
166.4848890555
31
0.0000000000
11
225.6899184431
21
166.6126498946
31
0.0000000000
11
225.7621090515
21
166.7402081964
31
0.0000000000
0
SPLINE
5
595
100
AcDbEntity
8
0
100
AcDbSpline
62
7
6
CONTINUOUS
70
0
71
3
72
9
73
5
74
3
42
0.0000001000
43
0.0000001000
44
0.0000000001
40
0.0000000000
40
0.0000000000
40
0.0000000000
40
0.0000000000
40
0.4963506134
40
1.0000000000
40
1.0000000000
40
1.0000000000
40
1.0000000000
10
226.1271801820
20
166.4848890555
30
0.0000000000
10
226.1492694751
20
166.5278127481
30
0.0000000000
10
226.1950905444
20
166.6136189303
30
0.0000000000
10
226.2434087469
20
166.6980427548
30
0.0000000000
10
226.2683385601
20
166.7402081964
30
0.0000000000
11
226.1271801820
21
166.4848890555
31
0.0000000000
11
226.1953713104
21
166.6126520873
31
0.0000000000
11
226.2683385601
21
166.7402081964
31
0.0000000000
0
SPLINE
5
596
100
AcDbEntity
8
0
100
AcDbSpline
62
7
6
CONTINUOUS
70
0
71
3
72
9
73
5
74
3
42
0.0000001000
43
0.0000001000
44
0.0000000001
40
0.0000000000
40
0.0000000000
40
0.0000000000
40
0.0000000000
40
0.5000877999
40
1.0000000000
40
1.0000000000
40
1.0000000000
40
1.0000000000
10
225.7621090515
20
166.7402081964
30
0.0000000000
10
225.7820504514
20
166.8680534773
30
0.0000000000
10
225.8229409977
20
167.1235418984
30
0.0000000000
10
225.8658579576
20
167.3786977399
30
0.0000000000
10
225.8878183676
20
167.5061656190
30
0.0000000000
11
225.7621090515
21
166.7402081964
31
0.0000000000
11
225.8234549594
21
167.1235035880
31
0.0000000000
11
225.8878183676
21
167.5061656190
31
0.0000000000
0
SPLINE
5
597
100
AcDbEntity
8
0
100
AcDbSpline
62
7
6
CONTINUOUS
70
0
71
3
72
9
73
5
74
3
42
0.0000001000
43
0.0000001000
44
0.0000000001
40
0.0000000000
40
0.0000000000
40
0.0000000000
40
0.0000000000
40
0.5000896965
40
1.0000000000
40
1.0000000000
40
1.0000000000
40
1.0000000000
10
226.2683385601
20
166.7402081964
30
0.0000000000
10
226.2884957979
20
166.8680575169
30
0.0000000000
10
226.3298288167
20
167.1235496227
30
0.0000000000
10
226.3732101989
20
167.3787019086
30
0.0000000000
10
226.3954081547
20
167.5061656190
30
0.0000000000
11
226.2683385601
21
166.7402081964
31
0.0000000000
11
226.3303485062
21
167.1235104707
31
0.0000000000
11
226.3954081547
21
167.5061656190
31
0.0000000000
0
SPLINE
5
598
100
AcDbEntity
8
0
100
AcDbSpline
62
7
6
CONTINUOUS
70
0
71
3
72
9
73
5
74
3
42
0.0000001000
43
0.0000001000
44
0.0000000001
40
0.0000000000
40
0.0000000000
40
0.0000000000
40
0.0000000000
40
0.5002874080
40
1.0000000000
40
1.0000000000
40
1.0000000000
40
1.0000000000
10
225.8878183676
20
167.5061656190
30
0.0000000000
10
225.9043284975
20
167.6765340427
30
0.0000000000
10
225.9379127247
20
168.0170189034
30
0.0000000000
10
225.9726642642
20
168.3573866055
30
0.0000000000
10
225.9903220824
20
168.5274421824
30
0.0000000000
11
225.8878183676
21
167.5061656190
31
0.0000000000
11
225.9382241931
21
168.0171852962
31
0.0000000000
11
225.9903220824
21
168.5274421824
31
0.0000000000
0
SPLINE
5
599
100
AcDbEntity
8
0
100
AcDbSpline
62
7
6
CONTINUOUS
70
0
71
3
72
9
73
5
74
3
42
0.0000001000
43
0.0000001000
44
0.0000000001
40
0.0000000000
40
0.0000000000
40
0.0000000000
40
0.0000000000
40
0.5003134949
40
1.0000000000
40
1.0000000000
40
1.0000000000
40
1.0000000000
10
229.1020775631
20
168.2721230639
30
0.0000000000
10
229.1147852595
20
168.4424484573
30
0.0000000000
10
229.1402633214
20
168.7828799343
30
0.0000000000
10
229.1658988610
20
169.1232995890
30
0.0000000000
10
229.1787480116
20
169.2933997167
30
0.0000000000
11
229.1020775631
21
168.2721230639
31
0.0000000000
11
229.1403187147
21
168.7830904220
31
0.0000000000
11
229.1787480116
21
169.2933997167
31
0.0000000000
0
SPLINE
5
59A
100
AcDbEntity
8
0
100
AcDbSpline
62
7
6
CONTINUOUS
70
0
71
3
72
8
73
4
74
2
42
0.0000001000
43
0.0000001000
44
0.0000000001
40
0.0000000000
40
0.0000000000
40
0.0000000000
40
0.0000000000
40
1.0000000000
40
1.0000000000
40
1.0000000000
40
1.0000000000
10
226.3954081547
20
167.5061656190
30
0.0000000000
10
226.4120977547
20
167.6765374559
30
0.0000000000
10
226.4290822963
20
167.8468805300
30
0.0000000000
10
226.4463623244
20
168.0171936248
30
0.0000000000
11
226.3954081547
21
167.5061656190
31
0.0000000000
11
226.4463623244
21
168.0171936248
31
0.0000000000
0
SPLINE
5
59B
100
AcDbEntity
8
0
100
AcDbSpline
62
7
6
CONTINUOUS
70
0
71
3
72
8
73
4
74
2
42
0.0000001000
43
0.0000001000
44
0.0000000001
40
0.0000000000
40
0.0000000000
40
0.0000000000
40
0.0000000000
40
1.0000000000
40
1.0000000000
40
1.0000000000
40
1.0000000000
10
226.4463623244
20
168.0171936248
30
0.0000000000
10
226.4549947171
20
168.1022750560
30
0.0000000000
10
226.4637008512
20
168.1873490055
30
0.0000000000
10
226.4724807969
20
168.2724153205
30
0.0000000000
11
226.4463623244
21
168.0171936248
31
0.0000000000
11
226.4724807969
21
168.2724153205
31
0.0000000000
0
SPLINE
5
59C
100
AcDbEntity
8
0
100
AcDbSpline
62
7
6
CONTINUOUS
70
0
71
3
72
9
73
5
74
3
42
0.0000001000
43
0.0000001000
44
0.0000000001
40
0.0000000000
40
0.0000000000
40
0.0000000000
40
0.0000000000
40
0.5003060009
40
1.0000000000
40
1.0000000000
40
1.0000000000
40
1.0000000000
10
228.5636823350
20
168.2721230639
30
0.0000000000
10
228.5762364766
20
168.4424457459
30
0.0000000000
10
228.6014067992
20
168.7828770617
30
0.0000000000
10
228.6267321913
20
169.1232968766
30
0.0000000000
10
228.6394259513
20
169.2933997167
30
0.0000000000
11
228.5636823350
21
168.2721230639
31
0.0000000000
11
228.6014610183
21
168.7830825275
31
0.0000000000
11
228.6394259513
21
169.2933997167
31
0.0000000000
0
SPLINE
5
59D
100
AcDbEntity
8
0
100
AcDbSpline
62
7
6
CONTINUOUS
70
0
71
3
72
9
73
5
74
3
42
0.0000001000
43
0.0000001000
44
0.0000000001
40
0.0000000000
40
0.0000000000
40
0.0000000000
40
0.0000000000
40
0.5006016642
40
1.0000000000
40
1.0000000000
40
1.0000000000
40
1.0000000000
10
228.8048273336
20
167.2508465005
30
0.0000000000
10
228.8532749056
20
167.4215967202
30
0.0000000000
10
228.9512058455
20
167.7623608458
30
0.0000000000
10
229.0514430028
20
168.1024537459
30
0.0000000000
10
229.1020775631
20
168.2721230639
30
0.0000000000
11
228.8048273336
21
167.2508465005
31
0.0000000000
11
228.9519016313
21
167.7626026865
31
0.0000000000
11
229.1020775631
21
168.2721230639
31
0.0000000000
0
SPLINE
5
59E
100
AcDbEntity
8
0
100
AcDbSpline
62
7
6
CONTINUOUS
70
0
71
3
72
9
73
5
74
3
42
0.0000001000
43
0.0000001000
44
0.0000000001
40
0.0000000000
40
0.0000000000
40
0.0000000000
40
0.0000000000
40
0.5005882397
40
1.0000000000
40
1.0000000000
40
1.0000000000
40
1.0000000000
10
228.2699956814
20
167.2508465005
30
0.0000000000
10
228.3178626405
20
167.4215838007
30
0.0000000000
10
228.4146210164
20
167.7623394175
30
0.0000000000
10
228.5136549696
20
168.1024406662
30
0.0000000000
10
228.5636823350
20
168.2721230639
30
0.0000000000
11
228.2699956814
21
167.2508465005
31
0.0000000000
11
228.4153050843
21
167.7625763322
31
0.0000000000
11
228.5636823350
21
168.2721230639
31
0.0000000000
0
SPLINE
5
59F
100
AcDbEntity
8
0
100
AcDbSpline
62
7
6
CONTINUOUS
70
0
71
3
72
9
73
5
74
3
42
0.0000001000
43
0.0000001000
44
0.0000000001
40
0.0000000000
40
0.0000000000
40
0.0000000000
40
0.0000000000
40
0.5001332021
40
1.0000000000
40
1.0000000000
40
1.0000000000
40
1.0000000000
10
225.9903220824
20
168.5274421824
30
0.0000000000
10
225.9962151500
20
168.6551388311
30
0.0000000000
10
226.0080637479
20
168.9104610858
30
0.0000000000
10
226.0200436500
20
169.1657772132
30
0.0000000000
10
226.0260648480
20
169.2933997167
30
0.0000000000
11
225.9903220824
21
168.5274421824
31
0.0000000000
11
226.0080997480
21
168.9105275721
31
0.0000000000
11
226.0260648480
21
169.2933997167
31
0.0000000000
0
SPLINE
5
5A0
100
AcDbEntity
8
0
100
AcDbSpline
62
7
6
CONTINUOUS
70
0
71
3
72
9
73
5
74
3
42
0.0000001000
43
0.0000001000
44
0.0000000001
40
0.0000000000
40
0.0000000000
40
0.0000000000
40
0.0000000000
40
0.4995451025
40
1.0000000000
40
1.0000000000
40
1.0000000000
40
1.0000000000
10
228.5224395676
20
166.7402081964
30
0.0000000000
10
228.5685180579
20
166.8257537037
30
0.0000000000
10
228.6617120748
20
166.9964888043
30
0.0000000000
10
228.7567846650
20
167.1661849145
30
0.0000000000
10
228.8048273336
20
167.2508465005
30
0.0000000000
11
228.5224395676
21
166.7402081964
31
0.0000000000
11
228.6620960765
21
166.9960741952
31
0.0000000000
11
228.8048273336
21
167.2508465005
31
0.0000000000
0
SPLINE
5
5A1
100
AcDbEntity
8
0
100
AcDbSpline
62
7
6
CONTINUOUS
70
0
71
3
72
9
73
5
74
3
42
0.0000001000
43
0.0000001000
44
0.0000000001
40
0.0000000000
40
0.0000000000
40
0.0000000000
40
0.0000000000
40
0.4995523453
40
1.0000000000
40
1.0000000000
40
1.0000000000
40
1.0000000000
10
227.9909501469
20
166.7402081964
30
0.0000000000
10
228.0364815433
20
166.8257440950
30
0.0000000000
10
228.1285700107
20
166.9964682911
30
0.0000000000
10
228.2225197606
20
167.1661752465
30
0.0000000000
10
228.2699956814
20
167.2508465005
30
0.0000000000
11
227.9909501469
21
166.7402081964
31
0.0000000000
11
228.1289520508
21
166.9960615851
31
0.0000000000
11
228.2699956814
21
167.2508465005
31
0.0000000000
0
SPLINE
5
5A2
100
AcDbEntity
8
0
100
AcDbSpline
62
7
6
CONTINUOUS
70
0
71
3
72
9
73
5
74
3
42
0.0000001000
43
0.0000001000
44
0.0000000001
40
0.0000000000
40
0.0000000000
40
0.0000000000
40
0.0000000000
40
0.4956667709
40
1.0000000000
40
1.0000000000
40
1.0000000000
40
1.0000000000
10
228.1899296765
20
166.4848890555
30
0.0000000000
10
228.2441593822
20
166.5279839719
30
0.0000000000
10
228.3543120311
20
166.6139933301
30
0.0000000000
10
228.4658562155
20
166.6981890850
30
0.0000000000
10
228.5224395676
20
166.7402081964
30
0.0000000000
11
228.1899296765
21
166.4848890555
31
0.0000000000
11
228.3536992779
21
166.6128023575
31
0.0000000000
11
228.5224395676
21
166.7402081964
31
0.0000000000
0
SPLINE
5
5A3
100
AcDbEntity
8
0
100
AcDbSpline
62
7
6
CONTINUOUS
70
0
71
3
72
9
73
5
74
3
42
0.0000001000
43
0.0000001000
44
0.0000000001
40
0.0000000000
40
0.0000000000
40
0.0000000000
40
0.0000000000
40
0.4957037909
40
1.0000000000
40
1.0000000000
40
1.0000000000
40
1.0000000000
10
227.6623228608
20
166.4848890555
30
0.0000000000
10
227.7159149544
20
166.5279767446
30
0.0000000000
10
227.8247729814
20
166.6139760683
30
0.0000000000
10
227.9350231575
20
166.6981821902
30
0.0000000000
10
227.9909501469
20
166.7402081964
30
0.0000000000
11
227.6623228608
21
166.4848890555
31
0.0000000000
11
227.8241797097
21
166.6127964966
31
0.0000000000
11
227.9909501469
21
166.7402081964
31
0.0000000000
0
SPLINE
5
5A4
100
AcDbEntity
8
0
100
AcDbSpline
62
7
6
CONTINUOUS
70
0
71
3
72
9
73
5
74
3
42
0.0000001000
43
0.0000001000
44
0.0000000001
40
0.0000000000
40
0.0000000000
40
0.0000000000
40
0.0000000000
40
0.5001332021
40
1.0000000000
40
1.0000000000
40
1.0000000000
40
1.0000000000
10
225.9903220824
20
171.3359530223
30
0.0000000000
10
225.9962151500
20
171.2082563437
30
0.0000000000
10
226.0080637479
20
170.9529340295
30
0.0000000000
10
226.0200436500
20
170.6976178424
30
0.0000000000
10
226.0260648480
20
170.5699953092
30
0.0000000000
11
225.9903220824
21
171.3359530223
31
0.0000000000
11
226.0080997480
21
170.9528675431
31
0.0000000000
11
226.0260648480
21
170.5699953092
31
0.0000000000
0
SPLINE
5
5A5
100
AcDbEntity
8
0
100
AcDbSpline
62
7
6
CONTINUOUS
70
0
71
3
72
12
73
8
74
6
42
0.0000001000
43
0.0000001000
44
0.0000000001
40
0.0000000000
40
0.0000000000
40
0.0000000000
40
0.0000000000
40
0.2144346222
40
0.4173831257
40
0.6140549713
40
0.8076156115
40
1.0000000000
40
1.0000000000
40
1.0000000000
40
1.0000000000
10
280.6776266151
20
225.8491696865
30
0.0000000000
10
281.8017607357
20
226.2238810601
30
0.0000000000
10
284.0073483224
20
226.9024234221
30
0.0000000000
10
287.3024221295
20
227.7202713677
30
0.0000000000
10
290.5290855318
20
228.3108230350
30
0.0000000000
10
293.7309932907
20
228.6709441824
30
0.0000000000
10
295.8645323009
20
228.7519526044
30
0.0000000000
10
296.9276266154
20
228.7519526046
30
0.0000000000
11
280.6776266151
21
225.8491696865
31
0.0000000000
11
284.0770526222
21
226.8887263391
31
0.0000000000
11
287.3436791632
21
227.6939679721
31
0.0000000000
11
290.5515739419
21
228.2765068697
31
0.0000000000
11
293.7405985997
21
228.6320438013
31
0.0000000000
11
296.9276266154
21
228.7519526046
31
0.0000000000
0
SPLINE
5
5A6
100
AcDbEntity
8
0
100
AcDbSpline
62
7
6
CONTINUOUS
70
0
71
3
72
12
73
8
74
6
42
0.0000001000
43
0.0000001000
44
0.0000000001
40
0.0000000000
40
0.0000000000
40
0.0000000000
40
0.0000000000
40
0.1924237016
40
0.3860043262
40
0.5826712958
40
0.7855694331
40
1.0000000000
40
1.0000000000
40
1.0000000000
40
1.0000000000
10
296.9276266154
20
228.7519526046
30
0.0000000000
10
297.9909381604
20
228.7519526045
30
0.0000000000
10
300.1248053261
20
228.6709149756
30
0.0000000000
10
303.3270058548
20
228.3107009560
30
0.0000000000
10
306.5534659843
20
227.7201233048
30
0.0000000000
10
309.8482140019
20
226.9023288286
30
0.0000000000
10
312.0535137637
20
226.2238739703
30
0.0000000000
10
313.1776266151
20
225.8491696865
30
0.0000000000
11
296.9276266154
21
228.7519526046
31
0.0000000000
11
300.1153049482
21
228.6319950166
31
0.0000000000
11
303.3046523818
21
228.2763635303
31
0.0000000000
11
306.5124565654
21
227.6937783238
31
0.0000000000
11
309.7782654513
21
226.8887083849
31
0.0000000000
11
313.1776266151
21
225.8491696865
31
0.0000000000
0
SPLINE
5
5A7
100
AcDbEntity
8
0
100
AcDbSpline
62
7
6
CONTINUOUS
70
0
71
3
72
12
73
8
74
6
42
0.0000001000
43
0.0000001000
44
0.0000000001
40
0.0000000000
40
0.0000000000
40
0.0000000000
40
0.0000000000
40
0.2340124151
40
0.4554900331
40
0.6701179370
40
0.8813505841
40
1.0000000000
40
1.0000000000
40
1.0000000000
40
1.0000000000
10
248.1776266151
20
225.8491696865
30
0.0000000000
10
249.3017608188
20
226.2238810878
30
0.0000000000
10
251.5073485676
20
226.9024234964
30
0.0000000000
10
254.8024226199
20
227.7202714765
30
0.0000000000
10
258.0290862636
20
228.3108231593
30
0.0000000000
10
260.7712136917
20
228.6192323501
30
0.0000000000
10
262.4401452199
20
228.7094292182
30
0.0000000000
10
263.0407679606
20
228.7291451432
30
0.0000000000
11
248.1776266151
21
225.8491696865
31
0.0000000000
11
251.5770528754
21
226.8887264092
31
0.0000000000
11
254.8436796567
21
227.6939680782
31
0.0000000000
11
258.0515746741
21
228.2765069776
31
0.0000000000
11
261.2405995731
21
228.6320438743
31
0.0000000000
11
263.0407679606
21
228.7291451432
31
0.0000000000
0
SPLINE
5
5A8
100
AcDbEntity
8
0
100
AcDbSpline
62
7
6
CONTINUOUS
70
0
71
3
72
8
73
4
74
2
42
0.0000001000
43
0.0000001000
44
0.0000000001
40
0.0000000000
40
0.0000000000
40
0.0000000000
40
0.0000000000
40
1.0000000000
40
1.0000000000
40
1.0000000000
40
1.0000000000
10
263.0407679606
20
228.7291451432
30
0.0000000000
10
263.5029414093
20
228.7443163588
30
0.0000000000
10
263.9653247172
20
228.7519526774
30
0.0000000000
10
264.4276278476
20
228.7519526508
30
0.0000000000
11
263.0407679606
21
228.7291451432
31
0.0000000000
11
264.4276278476
21
228.7519526508
31
0.0000000000
0
SPLINE
5
5A9
100
AcDbEntity
8
0
100
AcDbSpline
62
7
6
CONTINUOUS
70
0
71
3
72
12
73
8
74
6
42
0.0000001000
43
0.0000001000
44
0.0000000001
40
0.0000000000
40
0.0000000000
40
0.0000000000
40
0.0000000000
40
0.1924237603
40
0.3860043706
40
0.5826713262
40
0.7855694491
40
1.0000000000
40
1.0000000000
40
1.0000000000
40
1.0000000000
10
264.4276278476
20
228.7519526508
30
0.0000000000
10
265.4909396381
20
228.7519525893
30
0.0000000000
10
267.6248068863
20
228.6709148528
30
0.0000000000
10
270.8270073301
20
228.3107007272
30
0.0000000000
10
274.0534669722
20
227.7201230794
30
0.0000000000
10
277.3482144960
20
226.9023286808
30
0.0000000000
10
279.5535139311
20
226.2238739146
30
0.0000000000
10
280.6776266151
20
225.8491696865
30
0.0000000000
11
264.4276278476
21
228.7519526508
31
0.0000000000
11
267.6153069100
21
228.6319948694
31
0.0000000000
11
270.8046538573
21
228.2763633130
31
0.0000000000
11
274.0124575597
21
227.6937781101
31
0.0000000000
11
277.2782659615
21
226.8887082436
31
0.0000000000
11
280.6776266151
21
225.8491696865
31
0.0000000000
0
SPLINE
5
5AA
100
AcDbEntity
8
0
100
AcDbSpline
62
7
6
CONTINUOUS
70
0
71
3
72
24
73
20
74
18
42
0.0000001000
43
0.0000001000
44
0.0000000001
40
0.0000000000
40
0.0000000000
40
0.0000000000
40
0.0000000000
40
0.0662213464
40
0.1324799892
40
0.1926485637
40
0.2471605878
40
0.2966453094
40
0.3421043974
40
0.3851727812
40
0.4279228492
40
0.4733309242
40
0.5241745221
40
0.5822279632
40
0.6468715029
40
0.7166778637
40
0.7898831667
40
0.8646644525
40
0.9402819146
40
1.0000000000
40
1.0000000000
40
1.0000000000
40
1.0000000000
10
165.9456239387
20
-96.1077649295
30
0.0000000000
10
166.6267659394
20
-96.0650227317
30
0.0000000000
10
167.9888765466
20
-95.9702568040
30
0.0000000000
10
169.9671324178
20
-95.8002523322
30
0.0000000000
10
171.8217137002
20
-95.6043059277
30
0.0000000000
10
173.4998851568
20
-95.3878817089
30
0.0000000000
10
175.0217164123
20
-95.1485539376
30
0.0000000000
10
176.4187735565
20
-94.8796792247
30
0.0000000000
10
177.7356939988
20
-94.5673135677
30
0.0000000000
10
179.0335696555
20
-94.1842031594
30
0.0000000000
10
180.3775603814
20
-93.6842242471
30
0.0000000000
10
181.8155853069
20
-92.9992102841
30
0.0000000000
10
183.3390657849
20
-92.0538118959
30
0.0000000000
10
184.8768891196
20
-90.7897404504
30
0.0000000000
10
186.3142031160
20
-89.1921425502
30
0.0000000000
10
187.5312226650
20
-87.2936487194
30
0.0000000000
10
188.4332823472
20
-85.1604881902
30
0.0000000000
10
188.9217745084
20
-83.0399713193
30
0.0000000000
10
189.0187365646
20
-81.6422801467
30
0.0000000000
10
189.0187918588
20
-81.0263285734
30
0.0000000000
11
165.9456239387
21
-96.1077649295
31
0.0000000000
11
167.9880659395
21
-95.9647510394
31
0.0000000000
11
170.0290104977
21
-95.7879163479
31
0.0000000000
11
171.8788301555
21
-95.5907493697
31
0.0000000000
11
173.5501345070
21
-95.3731678246
31
0.0000000000
11
175.0611657104
21
-95.1331613632
31
0.0000000000
11
176.4408465964
21
-94.8649552107
31
0.0000000000
11
177.7358346659
21
-94.5548839346
31
0.0000000000
11
179.0026898854
21
-94.1779188258
31
0.0000000000
11
180.3175176661
21
-93.6857291516
31
0.0000000000
11
181.7355623354
21
-93.0072801305
31
0.0000000000
11
183.2595059183
21
-92.0589824498
31
0.0000000000
11
184.8024852041
21
-90.7886135318
31
0.0000000000
11
186.2452338280
21
-89.1834195526
31
0.0000000000
11
187.4661492257
21
-87.2775856972
31
0.0000000000
11
188.3663516957
21
-85.1479335207
31
0.0000000000
11
188.8907824246
21
-82.8695628825
31
0.0000000000
11
189.0187918588
21
-81.0263285734
31
0.0000000000
0
SPLINE
5
5AB
100
AcDbEntity
8
0
100
AcDbSpline
62
7
6
CONTINUOUS
70
0
71
3
72
11
73
7
74
5
42
0.0000001000
43
0.0000001000
44
0.0000000001
40
0.0000000000
40
0.0000000000
40
0.0000000000
40
0.0000000000
40
0.2439662094
40
0.4985558990
40
0.7535067484
40
1.0000000000
40
1.0000000000
40
1.0000000000
40
1.0000000000
10
130.8914859856
20
-97.4801208908
30
0.0000000000
10
133.7441600000
20
-97.4310300886
30
0.0000000000
10
139.5732559196
20
-97.3007609221
30
0.0000000000
10
148.3806171024
20
-97.0100074167
30
0.0000000000
10
157.2136537606
20
-96.6180827103
30
0.0000000000
10
163.0687571295
20
-96.2883155788
30
0.0000000000
10
165.9457459674
20
-96.1077566267
30
0.0000000000
11
130.8914859856
21
-97.4801208908
31
0.0000000000
11
139.4486330834
21
-97.2886646237
31
0.0000000000
11
148.3757459200
21
-96.9932885266
31
0.0000000000
11
157.3115719677
21
-96.5956493878
31
0.0000000000
11
165.9457459674
21
-96.1077566267
31
0.0000000000
0
SPLINE
5
5AC
100
AcDbEntity
8
0
100
AcDbSpline
62
7
6
CONTINUOUS
70
0
71
3
72
10
73
6
74
4
42
0.0000001000
43
0.0000001000
44
0.0000000001
40
0.0000000000
40
0.0000000000
40
0.0000000000
40
0.0000000000
40
0.3070028765
40
0.7278658219
40
1.0000000000
40
1.0000000000
40
1.0000000000
40
1.0000000000
10
129.3589258113
20
-97.4926585620
30
0.0000000000
10
129.5157459103
20
-97.4926586600
30
0.0000000000
10
129.8875475011
20
-97.4917676627
30
0.0000000000
10
130.3983426198
20
-97.4875152055
30
0.0000000000
10
130.7522978826
20
-97.4824525087
30
0.0000000000
10
130.8912872818
20
-97.4801262073
30
0.0000000000
11
129.3589258113
21
-97.4926585620
31
0.0000000000
11
129.8293845617
21
-97.4915149049
31
0.0000000000
11
130.4743035912
21
-97.4861024023
31
0.0000000000
11
130.8912872818
21
-97.4801262073
31
0.0000000000
0
SPLINE
5
5AD
100
AcDbEntity
8
0
100
AcDbSpline
62
7
6
CONTINUOUS
70
0
71
3
72
24
73
20
74
18
42
0.0000001000
43
0.0000001000
44
0.0000000001
40
0.0000000000
40
0.0000000000
40
0.0000000000
40
0.0000000000
40
0.0596500639
40
0.1352321949
40
0.2100039762
40
0.2832253183
40
0.3530718758
40
0.4177593925
40
0.4758529261
40
0.5267086449
40
0.5721107231
40
0.6148521163
40
0.6579144228
40
0.7033708207
40
0.7528545659
40
0.8073659544
40
0.8675329448
40
0.9337873769
40
1.0000000000
40
1.0000000000
40
1.0000000000
40
1.0000000000
10
189.0187919374
20
-77.9589885166
30
0.0000000000
10
189.0187368801
20
-77.3437391014
30
0.0000000000
10
188.9219600625
20
-75.9471210302
30
0.0000000000
10
188.4341546977
20
-73.8276546158
30
0.0000000000
10
187.5327451895
20
-71.6945461517
30
0.0000000000
10
186.3159184130
20
-69.7953480180
30
0.0000000000
10
184.8781803898
20
-68.1967216376
30
0.0000000000
10
183.3394529492
20
-66.9317113803
30
0.0000000000
10
181.8151066047
20
-65.9858112433
30
0.0000000000
10
180.3766049653
20
-65.3006869100
30
0.0000000000
10
179.0326084198
20
-64.8008012448
30
0.0000000000
10
177.7349228419
20
-64.4178044502
30
0.0000000000
10
176.4181701561
20
-64.1055115593
30
0.0000000000
10
175.0212078192
20
-63.8366758400
30
0.0000000000
10
173.4994180480
20
-63.5973694762
30
0.0000000000
10
171.8212777338
20
-63.3809607972
30
0.0000000000
10
169.9667613491
20
-63.1850301294
30
0.0000000000
10
167.9886539757
20
-63.0150441595
30
0.0000000000
10
166.6266762050
20
-62.9202886805
30
0.0000000000
10
165.9456238910
20
-62.8775521093
30
0.0000000000
11
189.0187919374
21
-77.9589885166
31
0.0000000000
11
188.8910740213
21
-76.1178448058
31
0.0000000000
11
188.3673410427
21
-73.8404344070
31
0.0000000000
11
187.4677845012
21
-71.7108281592
31
0.0000000000
11
186.2470594477
21
-69.8042833600
31
0.0000000000
11
184.8037586319
21
-68.1979145389
31
0.0000000000
11
183.2598270237
21
-66.9265629510
31
0.0000000000
11
181.7348166859
21
-65.9776331392
31
0.0000000000
11
180.3163900168
21
-65.2991140219
31
0.0000000000
11
179.0017051087
21
-64.8070713152
31
0.0000000000
11
177.7350912258
21
-64.4302353111
31
0.0000000000
11
176.4402782279
21
-64.1202394557
31
0.0000000000
11
175.0606749452
21
-63.8520695254
31
0.0000000000
11
173.5496711149
21
-63.6120825952
31
0.0000000000
11
171.8783846452
21
-63.3945151590
31
0.0000000000
11
170.0286126178
21
-63.1973623923
31
0.0000000000
11
167.9877971073
21
-63.0205451005
31
0.0000000000
11
165.9456238910
21
-62.8775521093
31
0.0000000000
0
SPLINE
5
5AE
100
AcDbEntity
8
0
100
AcDbSpline
62
7
6
CONTINUOUS
70
0
71
3
72
11
73
7
74
5
42
0.0000001000
43
0.0000001000
44
0.0000000001
40
0.0000000000
40
0.0000000000
40
0.0000000000
40
0.0000000000
40
0.2464932516
40
0.5014441010
40
0.7560337906
40
1.0000000000
40
1.0000000000
40
1.0000000000
40
1.0000000000
10
165.9457459674
20
-62.8775604149
30
0.0000000000
10
163.0687571295
20
-62.6970014628
30
0.0000000000
10
157.2136537606
20
-62.3672343313
30
0.0000000000
10
148.3806171024
20
-61.9753096249
30
0.0000000000
10
139.5732559196
20
-61.6845561195
30
0.0000000000
10
133.7441600000
20
-61.5542869530
30
0.0000000000
10
130.8914859856
20
-61.5051961508
30
0.0000000000
11
165.9457459674
21
-62.8775604149
31
0.0000000000
11
157.3115719677
21
-62.3896676537
31
0.0000000000
11
148.3757459200
21
-61.9920285150
31
0.0000000000
11
139.4486330834
21
-61.6966524179
31
0.0000000000
11
130.8914859856
21
-61.5051961508
31
0.0000000000
0
SPLINE
5
5AF
100
AcDbEntity
8
0
100
AcDbSpline
62
7
6
CONTINUOUS
70
0
71
3
72
10
73
6
74
4
42
0.0000001000
43
0.0000001000
44
0.0000000001
40
0.0000000000
40
0.0000000000
40
0.0000000000
40
0.0000000000
40
0.2721341781
40
0.6929971235
40
1.0000000000
40
1.0000000000
40
1.0000000000
40
1.0000000000
10
130.8912872818
20
-61.5051908343
30
0.0000000000
10
130.7522978826
20
-61.5028645329
30
0.0000000000
10
130.3983426198
20
-61.4978018361
30
0.0000000000
10
129.8875475011
20
-61.4935493788
30
0.0000000000
10
129.5157459103
20
-61.4926583816
30
0.0000000000
10
129.3589258113
20
-61.4926584795
30
0.0000000000
11
130.8912872818
21
-61.5051908343
31
0.0000000000
11
130.4743035912
21
-61.4992146393
31
0.0000000000
11
129.8293845617
21
-61.4938021367
31
0.0000000000
11
129.3589258113
21
-61.4926584795
31
0.0000000000
0
SPLINE
5
5B0
100
AcDbEntity
8
0
100
AcDbSpline
62
7
6
CONTINUOUS
70
0
71
3
72
24
73
20
74
18
42
0.0000001000
43
0.0000001000
44
0.0000000001
40
0.0000000000
40
0.0000000000
40
0.0000000000
40
0.0000000000
40
0.0596500639
40
0.1352321949
40
0.2100039762
40
0.2832253183
40
0.3530718758
40
0.4177593925
40
0.4758529261
40
0.5267086449
40
0.5721107231
40
0.6148521163
40
0.6579144228
40
0.7033708207
40
0.7528545659
40
0.8073659544
40
0.8675329448
40
0.9337873769
40
1.0000000000
40
1.0000000000
40
1.0000000000
40
1.0000000000
10
33.0188517054
20
-81.0263285250
30
0.0000000000
10
33.0189067627
20
-81.6415779402
30
0.0000000000
10
33.1156835803
20
-83.0381960113
30
0.0000000000
10
33.6034889451
20
-85.1576624258
30
0.0000000000
10
34.5048984533
20
-87.2907708899
30
0.0000000000
10
35.7217252298
20
-89.1899690236
30
0.0000000000
10
37.1594632530
20
-90.7885954040
30
0.0000000000
10
38.6981906936
20
-92.0536056613
30
0.0000000000
10
40.2225370382
20
-92.9995057983
30
0.0000000000
10
41.6610386776
20
-93.6846301316
30
0.0000000000
10
43.0050352230
20
-94.1845157968
30
0.0000000000
10
44.3027208009
20
-94.5675125914
30
0.0000000000
10
45.6194734867
20
-94.8798054823
30
0.0000000000
10
47.0164358236
20
-95.1486412016
30
0.0000000000
10
48.5382255948
20
-95.3879475654
30
0.0000000000
10
50.2163659091
20
-95.6043562444
30
0.0000000000
10
52.0708822937
20
-95.8002869122
30
0.0000000000
10
54.0489896671
20
-95.9702728821
30
0.0000000000
10
55.4109674378
20
-96.0650283610
30
0.0000000000
10
56.0920197518
20
-96.1077649323
30
0.0000000000
11
33.0188517054
21
-81.0263285250
31
0.0000000000
11
33.1465696215
21
-82.8674722357
31
0.0000000000
11
33.6703026002
21
-85.1448826346
31
0.0000000000
11
34.5698591416
21
-87.2744888823
31
0.0000000000
11
35.7905841951
21
-89.1810336815
31
0.0000000000
11
37.2338850109
21
-90.7874025027
31
0.0000000000
11
38.7778166191
21
-92.0587540906
31
0.0000000000
11
40.3028269569
21
-93.0076839024
31
0.0000000000
11
41.7212536260
21
-93.6862030197
31
0.0000000000
11
43.0359385341
21
-94.1782457264
31
0.0000000000
11
44.3025524170
21
-94.5550817304
31
0.0000000000
11
45.5973654149
21
-94.8650775858
31
0.0000000000
11
46.9769686976
21
-95.1332475161
31
0.0000000000
11
48.4879725279
21
-95.3732344464
31
0.0000000000
11
50.1592589976
21
-95.5908018826
31
0.0000000000
11
52.0090310250
21
-95.7879546493
31
0.0000000000
11
54.0498465355
21
-95.9647719411
31
0.0000000000
11
56.0920197518
21
-96.1077649323
31
0.0000000000
0
SPLINE
5
5B1
100
AcDbEntity
8
0
100
AcDbSpline
62
7
6
CONTINUOUS
70
0
71
3
72
11
73
7
74
5
42
0.0000001000
43
0.0000001000
44
0.0000000001
40
0.0000000000
40
0.0000000000
40
0.0000000000
40
0.0000000000
40
0.2464932516
40
0.5014441010
40
0.7560337906
40
1.0000000000
40
1.0000000000
40
1.0000000000
40
1.0000000000
10
56.0918976754
20
-96.1077566267
30
0.0000000000
10
58.9688865133
20
-96.2883155788
30
0.0000000000
10
64.8239898822
20
-96.6180827103
30
0.0000000000
10
73.6570265404
20
-97.0100074167
30
0.0000000000
10
82.4643877232
20
-97.3007609221
30
0.0000000000
10
88.2934836428
20
-97.4310300886
30
0.0000000000
10
91.1461576572
20
-97.4801208908
30
0.0000000000
11
56.0918976754
21
-96.1077566267
31
0.0000000000
11
64.7260716752
21
-96.5956493878
31
0.0000000000
11
73.6618977228
21
-96.9932885266
31
0.0000000000
11
82.5890105594
21
-97.2886646237
31
0.0000000000
11
91.1461576572
21
-97.4801208908
31
0.0000000000
0
SPLINE
5
5B2
100
AcDbEntity
8
0
100
AcDbSpline
62
7
6
CONTINUOUS
70
0
71
3
72
10
73
6
74
4
42
0.0000001000
43
0.0000001000
44
0.0000000001
40
0.0000000000
40
0.0000000000
40
0.0000000000
40
0.0000000000
40
0.2721341781
40
0.6929971235
40
1.0000000000
40
1.0000000000
40
1.0000000000
40
1.0000000000
10
91.1463563610
20
-97.4801262073
30
0.0000000000
10
91.2853457603
20
-97.4824525087
30
0.0000000000
10
91.6393010230
20
-97.4875152055
30
0.0000000000
10
92.1500961417
20
-97.4917676627
30
0.0000000000
10
92.5218977325
20
-97.4926586600
30
0.0000000000
10
92.6787178316
20
-97.4926585620
30
0.0000000000
11
91.1463563610
21
-97.4801262073
31
0.0000000000
11
91.5633400516
21
-97.4861024023
31
0.0000000000
11
92.2082590811
21
-97.4915149049
31
0.0000000000
11
92.6787178316
21
-97.4926585620
31
0.0000000000
0
SPLINE
5
5B3
100
AcDbEntity
8
0
100
AcDbSpline
62
7
6
CONTINUOUS
70
0
71
3
72
24
73
20
74
18
42
0.0000001000
43
0.0000001000
44
0.0000000001
40
0.0000000000
40
0.0000000000
40
0.0000000000
40
0.0000000000
40
0.0662213464
40
0.1324799892
40
0.1926485637
40
0.2471605878
40
0.2966453094
40
0.3421043974
40
0.3851727812
40
0.4279228492
40
0.4733309242
40
0.5241745221
40
0.5822279632
40
0.6468715029
40
0.7166778637
40
0.7898831667
40
0.8646644525
40
0.9402819146
40
1.0000000000
40
1.0000000000
40
1.0000000000
40
1.0000000000
10
56.0920197041
20
-62.8775521121
30
0.0000000000
10
55.4108777034
20
-62.9202943099
30
0.0000000000
10
54.0487670962
20
-63.0150602376
30
0.0000000000
10
52.0705112250
20
-63.1850647094
30
0.0000000000
10
50.2159299426
20
-63.3810111139
30
0.0000000000
10
48.5377584860
20
-63.5974353327
30
0.0000000000
10
47.0159272305
20
-63.8367631040
30
0.0000000000
10
45.6188700863
20
-64.1056378169
30
0.0000000000
10
44.3019496440
20
-64.4180034739
30
0.0000000000
10
43.0040739873
20
-64.8011138822
30
0.0000000000
10
41.6600832614
20
-65.3010927945
30
0.0000000000
10
40.2220583359
20
-65.9861067574
30
0.0000000000
10
38.6985778579
20
-66.9315051456
30
0.0000000000
10
37.1607545232
20
-68.1955765912
30
0.0000000000
10
35.7234405268
20
-69.7931744913
30
0.0000000000
10
34.5064209778
20
-71.6916683222
30
0.0000000000
10
33.6043612956
20
-73.8248288514
30
0.0000000000
10
33.1158691344
20
-75.9453457223
30
0.0000000000
10
33.0189070782
20
-77.3430368949
30
0.0000000000
10
33.0188517840
20
-77.9589884682
30
0.0000000000
11
56.0920197041
21
-62.8775521121
31
0.0000000000
11
54.0495777033
21
-63.0205660022
31
0.0000000000
11
52.0086331452
21
-63.1974006937
31
0.0000000000
11
50.1588134874
21
-63.3945676719
31
0.0000000000
11
48.4875091358
21
-63.6121492169
31
0.0000000000
11
46.9764779324
21
-63.8521556784
31
0.0000000000
11
45.5967970464
21
-64.1203618309
31
0.0000000000
11
44.3018089769
21
-64.4304331069
31
0.0000000000
11
43.0349537574
21
-64.8073982158
31
0.0000000000
11
41.7201259767
21
-65.2995878899
31
0.0000000000
11
40.3020813074
21
-65.9780369111
31
0.0000000000
11
38.7781377246
21
-66.9263345917
31
0.0000000000
11
37.2351584387
21
-68.1967035098
31
0.0000000000
11
35.7924098148
21
-69.8018974890
31
0.0000000000
11
34.5714944171
21
-71.7077313444
31
0.0000000000
11
33.6712919471
21
-73.8373835208
31
0.0000000000
11
33.1468612182
21
-76.1157541591
31
0.0000000000
11
33.0188517840
21
-77.9589884682
31
0.0000000000
0
SPLINE
5
5B4
100
AcDbEntity
8
0
100
AcDbSpline
62
7
6
CONTINUOUS
70
0
71
3
72
11
73
7
74
5
42
0.0000001000
43
0.0000001000
44
0.0000000001
40
0.0000000000
40
0.0000000000
40
0.0000000000
40
0.0000000000
40
0.2439662094
40
0.4985558990
40
0.7535067484
40
1.0000000000
40
1.0000000000
40
1.0000000000
40
1.0000000000
10
91.1461576572
20
-61.5051961508
30
0.0000000000
10
88.2934836428
20
-61.5542869530
30
0.0000000000
10
82.4643877232
20
-61.6845561195
30
0.0000000000
10
73.6570265404
20
-61.9753096249
30
0.0000000000
10
64.8239898822
20
-62.3672343313
30
0.0000000000
10
58.9688865133
20
-62.6970014628
30
0.0000000000
10
56.0918976754
20
-62.8775604149
30
0.0000000000
11
91.1461576572
21
-61.5051961508
31
0.0000000000
11
82.5890105594
21
-61.6966524179
31
0.0000000000
11
73.6618977228
21
-61.9920285150
31
0.0000000000
11
64.7260716752
21
-62.3896676537
31
0.0000000000
11
56.0918976754
21
-62.8775604149
31
0.0000000000
0
SPLINE
5
5B5
100
AcDbEntity
8
0
100
AcDbSpline
62
7
6
CONTINUOUS
70
0
71
3
72
10
73
6
74
4
42
0.0000001000
43
0.0000001000
44
0.0000000001
40
0.0000000000
40
0.0000000000
40
0.0000000000
40
0.0000000000
40
0.3070028765
40
0.7278658219
40
1.0000000000
40
1.0000000000
40
1.0000000000
40
1.0000000000
10
92.6787178316
20
-61.4926584795
30
0.0000000000
10
92.5218977325
20
-61.4926583816
30
0.0000000000
10
92.1500961417
20
-61.4935493788
30
0.0000000000
10
91.6393010230
20
-61.4978018361
30
0.0000000000
10
91.2853457603
20
-61.5028645329
30
0.0000000000
10
91.1463563610
20
-61.5051908343
30
0.0000000000
11
92.6787178316
21
-61.4926584795
31
0.0000000000
11
92.2082590811
21
-61.4938021367
31
0.0000000000
11
91.5633400516
21
-61.4992146393
31
0.0000000000
11
91.1463563610
21
-61.5051908343
31
0.0000000000
0
ENDSEC
0
SECTION
2
OBJECTS
0
DICTIONARY
5
5B6
100
AcDbDictionary
3
ACAD_GROUP
350
5B7
3
ACAD_MLINESTYLE
350
5B8
0
DICTIONARY
5
5B7
102
{ACAD_REACTORS
330
5B6
102
}
100
AcDbDictionary
0
DICTIONARY
5
5B8
102
{ACAD_REACTORS
330
5B6
102
}
100
AcDbDictionary
3
STANDARD
350
5B9
0
MLINESTYLE
5
5B9
102
{ACAD_REACTORS
330
5B8
102
}
100
AcDbMlineStyle
2
STANDARD
70
0
3

62
256
51
90.0
52
90.0
71
2
49
0.5
62
256
6
BYLAYER
49
-0.5
62
256
6
BYLAYER
0
ENDSEC
0
EOF
