999
DXF file: 001-m33721-p-5.dxf
999
Pro/ENGINEER 2011490 by Parametric Technology Corporation
  0
SECTION
  2
HEADER
  9
$ACADVER
  1
AC1015
  9
$DWGCODEPAGE
  3
ANSI_1252
  9
$EXTMAX
 10
594.0
 20
420.0
 30
0.0
  9
$EXTMIN
 10
0.0
 20
0.0
 30
0.0
  9
$LIMMIN
 10
0.0
 20
0.0
  9
$LIMMAX
 10
594.0
 20
420.0
  9
$VIEWCTR
 10
297.0
 20
210.0
  9
$VIEWSIZE
 40
420.0
  9
$CLAYER
  8
0
  9
$LTSCALE
 40
32.67
  9
$CELTYPE
  6
BYLAYER
  9
$DIMSCALE
 40
1.0
  9
$DIMASZ
 40
3.5
  9
$DIMEXO
 40
3.7125
  9
$DIMDLI
 40
22.572
  9
$DIMEXE
 40
10.692
  9
$DIMCEN
 40
5.346
  9
$DIMLFAC
 40
1.0
  9
$DIMBLK
  1
_FILLED
  9
$DIMTXT
 40
3.5
  9
$DIMTOL
 70
1
  9
$DIMLIM
 70
0
  9
$DIMTFAC
 40
1.0
  9
$DIMTP
 40
0.005
  9
$DIMTM
 40
0.005
  9
$PDMODE
 70
3
  9
$PDSIZE
 40
0.3125
  9
$HANDSEED
  5
55A
  9
$TILEMODE
 70
1
  9
$MEASUREMENT
 70
1
  9
$INSUNITS
 70
4
  0
ENDSEC
  0
SECTION
  2
CLASSES
  0
CLASS
  1
ACDBDICTIONARYWDFLT
  2
AcDbDictionaryWithDefault
  3
AutoCAD 2000
 90
0
280
0
281
0
  0
CLASS
  1
ACDBPLACEHOLDER
  2
AcDbPlaceHolder
  3
AutoCAD 2000
 90
0
280
0
281
0
  0
CLASS
  1
LAYOUT
  2
AcDbLayout
  3
AutoCAD 2000
 90
0
280
0
281
0
  0
ENDSEC
  0
SECTION
  2
TABLES
  0
TABLE
  2
VPORT
  5
8
100
AcDbSymbolTable
 70
2
  0
VPORT
  5
1F4
100
AcDbSymbolTableRecord
100
AcDbViewportTableRecord
  2
*ACTIVE
 70
0
 10
0.0
 20
0.0
 11
1.0
 21
1.0
 12
297.0
 22
210.0
 13
0.0
 23
0.0
 14
1.0
 24
1.0
 15
0.0
 25
0.0
 16
0.0
 26
0.0
 36
1.0
 17
0.0
 27
0.0
 37
0.0
 40
420.0
 41
1.4142857143
 42
50.0
 43
0.0
 44
0.0
 50
0.0
 51
0.0
 71
0
 72
100
 73
1
 74
1
 75
0
 76
0
 77
0
 78
0
  0
ENDTAB
  0
TABLE
  2
LTYPE
  5
5
100
AcDbSymbolTable
 70
6
  0
LTYPE
  5
14
100
AcDbSymbolTableRecord
100
AcDbLinetypeTableRecord
  2
BYBLOCK
 70
0
  3

 72
65
 73
0
 40
0.0
  0
LTYPE
  5
15
100
AcDbSymbolTableRecord
100
AcDbLinetypeTableRecord
  2
BYLAYER
 70
0
  3

 72
65
 73
0
 40
0.0
  0
LTYPE
  5
16
100
AcDbSymbolTableRecord
100
AcDbLinetypeTableRecord
  2
CONTINUOUS
 70
64
  3
Solid line
 72
65
 73
0
 40
0.0
  0
LTYPE
  5
1F5
100
AcDbSymbolTableRecord
100
AcDbLinetypeTableRecord
  2
CENTER
 70
64
  3
____ _ ____ _ ____ _ ____ _ ____ _ ____ _ ____
 72
65
 73
4
 40
0.6
 49
0.375
 74
0
 49
-0.075
 74
0
 49
0.075
 74
0
 49
-0.075
 74
0
  0
LTYPE
  5
1F6
100
AcDbSymbolTableRecord
100
AcDbLinetypeTableRecord
  2
HIDDEN
 70
64
  3
- - - - - - - - - - - - - - - - - - - -
 72
65
 73
2
 40
0.2
 49
0.1
 74
0
 49
-0.1
 74
0
  0
LTYPE
  5
1F7
100
AcDbSymbolTableRecord
100
AcDbLinetypeTableRecord
  2
PHANTOM
 70
64
  3
_____ _ _ _____ _ _ _____ _ _ _____
 72
65
 73
6
 40
0.8
 49
0.45
 74
0
 49
-0.05
 74
0
 49
0.1
 74
0
 49
-0.05
 74
0
 49
0.1
 74
0
 49
-0.05
 74
0
  0
LTYPE
  5
1F8
100
AcDbSymbolTableRecord
100
AcDbLinetypeTableRecord
  2
DOT
 70
64
  3
. . . . . . . . . . . . . . . . . . . .
 72
65
 73
2
 40
0.2
 49
0.1
 74
0
 49
-0.1
 74
0
  0
LTYPE
  5
1F9
100
AcDbSymbolTableRecord
100
AcDbLinetypeTableRecord
  2
DASHED
 70
64
  3
- - - - - - - - - - - - - - - - - - - -
 72
65
 73
2
 40
0.2
 49
0.1
 74
0
 49
-0.1
 74
0
  0
ENDTAB
  0
TABLE
  2
LAYER
  5
2
100
AcDbSymbolTable
 70
36
  0
LAYER
  5
10
100
AcDbSymbolTableRecord
100
AcDbLayerTableRecord
  2
0
 70
0
 62
7
  6
CONTINUOUS
370
-3
390
F
  0
LAYER
  5
1FA
100
AcDbSymbolTableRecord
100
AcDbLayerTableRecord
  2
DEFAULT_1
 70
0
 62
7
  6
CENTER
370
-3
390
F
  0
LAYER
  5
1FB
100
AcDbSymbolTableRecord
100
AcDbLayerTableRecord
  2
DEFAULT_2
 70
0
 62
8
  6
HIDDEN
370
-3
390
F
  0
LAYER
  5
1FC
100
AcDbSymbolTableRecord
100
AcDbLayerTableRecord
  2
DEFAULT_3
 70
0
 62
7
  6
PHANTOM
370
-3
390
F
  0
LAYER
  5
1FD
100
AcDbSymbolTableRecord
100
AcDbLayerTableRecord
  2
BEZUGSACHSEN
 70
0
 62
7
  6
CONTINUOUS
370
-3
390
F
  0
LAYER
  5
1FE
100
AcDbSymbolTableRecord
100
AcDbLayerTableRecord
  2
BEZUGSEBENEN
 70
0
 62
7
  6
CONTINUOUS
370
-3
390
F
  0
LAYER
  5
1FF
100
AcDbSymbolTableRecord
100
AcDbLayerTableRecord
  2
BG_STARTBEZUEGE
 70
0
 62
7
  6
CONTINUOUS
370
-3
390
F
  0
LAYER
  5
200
100
AcDbSymbolTableRecord
100
AcDbLayerTableRecord
  2
FASEN
 70
0
 62
7
  6
CONTINUOUS
370
-3
390
F
  0
LAYER
  5
201
100
AcDbSymbolTableRecord
100
AcDbLayerTableRecord
  2
FLAECHEN
 70
0
 62
7
  6
CONTINUOUS
370
-3
390
F
  0
LAYER
  5
202
100
AcDbSymbolTableRecord
100
AcDbLayerTableRecord
  2
GEWINDE
 70
0
 62
7
  6
CONTINUOUS
370
-3
390
F
  0
LAYER
  5
203
100
AcDbSymbolTableRecord
100
AcDbLayerTableRecord
  2
HILFEN
 70
0
 62
7
  6
CONTINUOUS
370
-3
390
F
  0
LAYER
  5
204
100
AcDbSymbolTableRecord
100
AcDbLayerTableRecord
  2
KONSTRUKTIONSELEMENTE
 70
0
 62
7
  6
CONTINUOUS
370
-3
390
F
  0
LAYER
  5
205
100
AcDbSymbolTableRecord
100
AcDbLayerTableRecord
  2
KURVEN
 70
0
 62
7
  6
CONTINUOUS
370
-3
390
F
  0
LAYER
  5
206
100
AcDbSymbolTableRecord
100
AcDbLayerTableRecord
  2
NORM
 70
0
 62
7
  6
CONTINUOUS
370
-3
390
F
  0
LAYER
  5
207
100
AcDbSymbolTableRecord
100
AcDbLayerTableRecord
  2
PLATZIERUNG
 70
0
 62
7
  6
CONTINUOUS
370
-3
390
F
  0
LAYER
  5
208
100
AcDbSymbolTableRecord
100
AcDbLayerTableRecord
  2
RUNDUNGEN
 70
0
 62
7
  6
CONTINUOUS
370
-3
390
F
  0
LAYER
  5
209
100
AcDbSymbolTableRecord
100
AcDbLayerTableRecord
  2
TEIL_STARTBEZUEGE
 70
0
 62
7
  6
CONTINUOUS
370
-3
390
F
  0
LAYER
  5
20A
100
AcDbSymbolTableRecord
100
AcDbLayerTableRecord
  2
T_STARTBEZUEGE
 70
0
 62
7
  6
CONTINUOUS
370
-3
390
F
  0
LAYER
  5
20B
100
AcDbSymbolTableRecord
100
AcDbLayerTableRecord
  2
ZEICHNUNGSBEMASSUNGEN
 70
0
 62
7
  6
CONTINUOUS
370
-3
390
F
  0
ENDTAB
  0
TABLE
  2
STYLE
  5
3
100
AcDbSymbolTable
 70
1
  0
STYLE
  5
11
100
AcDbSymbolTableRecord
100
AcDbTextStyleTableRecord
  2
STANDARD
 70
0
 40
0.0
 41
0.7
 50
0.0
 71
0
 42
0.2
  3
txt
  4

  0
STYLE
  5
20C
100
AcDbSymbolTableRecord
100
AcDbTextStyleTableRecord
  2
TEXTSTYLE_1
 70
0
 40
0.0
 41
0.8
 50
0.0
 71
0
 42
0.2
  3
gdt
  4

  0
ENDTAB
  0
TABLE
  2
VIEW
  5
6
100
AcDbSymbolTable
 70
0
  0
ENDTAB
  0
TABLE
  2
UCS
  5
7
100
AcDbSymbolTable
 70
0
  0
ENDTAB
  0
TABLE
  2
APPID
  5
9
100
AcDbSymbolTable
 70
1
  0
APPID
  5
20D
100
AcDbSymbolTableRecord
100
AcDbRegAppTableRecord
  2
ACAD
 70
0
  0
ENDTAB
  0
TABLE
  2
BLOCK_RECORD
  5
1
100
AcDbSymbolTable
 70
0
  0
BLOCK_RECORD
  5
20E
100
AcDbSymbolTableRecord
100
AcDbBlockTableRecord
  2
*Model_Space
  0
BLOCK_RECORD
  5
20F
100
AcDbSymbolTableRecord
100
AcDbBlockTableRecord
  2
*Paper_Space
  0
ENDTAB
  0
TABLE
  2
DIMSTYLE
  5
A
100
AcDbSymbolTable
 70
1
100
AcDbDimStyleTable
 71
0
  0
DIMSTYLE
105
210
100
AcDbSymbolTableRecord
100
AcDbDimStyleTableRecord
  2
STANDARD
 70
0
  3

  4

 40
1.0
 41
3.5
 42
0.0625
 43
0.38
 44
0.18
 45
0.0
 46
0.0
 47
0.005
 48
0.005
140
3.5
141
0.09
142
0.0
143
25.4
144
1.0
145
0.0
146
1.0
147
0.09
 71
1.0
 72
0.0
 73
0
 74
0
 75
0
 76
0
 77
1
 78
8
170
0
171
2
172
0
173
0
174
0
175
0
176
0
177
0
178
5
270
2
271
3
272
3
273
2
274
2
275
0
280
0
281
0
282
0
283
1
284
8
285
0
286
0
287
3
288
0
340
11
  0
ENDTAB
  0
ENDSEC
  0
SECTION
  2
BLOCKS
  0
BLOCK
  5
20
100
AcDbEntity
  8
0
100
AcDbBlockBegin
  2
*Model_Space
 70
0
 10
0.0
 20
0.0
 30
0.0
  3
*Model_Space
  1

  0
ENDBLK
  5
21
100
AcDbEntity
  8
0
100
AcDbBlockEnd
  0
BLOCK
  5
1C
100
AcDbEntity
  8
0
100
AcDbBlockBegin
  2
*Paper_Space
 70
0
 10
0.0
 20
0.0
 30
0.0
  3
*Paper_Space
  1

  0
ENDBLK
  5
1D
100
AcDbEntity
  8
0
100
AcDbBlockEnd
  0
ENDSEC
  0
SECTION
  2
ENTITIES
  0
MTEXT
  5
211
100
AcDbEntity
  8
0
100
AcDbMText
 62
5
  6
CONTINUOUS
  7
STANDARD
 71
1
 72
1
 10
319.6760121322
 20
327.6929840264
 30
0.0
 11
0.0
 21
1.0
 31
0.0
 44
0.9
  1
VRS 3,2t RUD
 40
5.0
 41
46.4285714286
  0
MTEXT
  5
212
100
AcDbEntity
  8
0
100
AcDbMText
 62
5
  6
CONTINUOUS
  7
STANDARD
 71
1
 72
1
 10
137.9117332742
 20
79.4621604663
 30
0.0
 11
1.0
 21
0.0
 31
0.0
 44
0.9
  1
VRS 3,2t RUD
 40
5.0
 41
46.4285714286
  0
LINE
  5
213
100
AcDbEntity
  8
0
100
AcDbLine
 62
7
  6
CONTINUOUS
 10
0.0
 20
0.0
 11
0.0
 21
420.0
  0
LINE
  5
214
100
AcDbEntity
  8
0
100
AcDbLine
 62
7
  6
CONTINUOUS
 10
0.0
 20
0.0
 11
594.0
 21
0.0
  0
LINE
  5
215
100
AcDbEntity
  8
0
100
AcDbLine
 62
7
  6
CONTINUOUS
 10
0.0
 20
420.0
 11
594.0
 21
420.0
  0
LINE
  5
216
100
AcDbEntity
  8
0
100
AcDbLine
 62
7
  6
CONTINUOUS
 10
594.0
 20
0.0
 11
594.0
 21
420.0
  0
LINE
  5
217
100
AcDbEntity
  8
KONSTRUKTIONSELEMENTE
100
AcDbLine
 62
7
  6
CONTINUOUS
 10
150.6506054891
 20
153.9051336085
 11
170.6506054891
 21
153.9051336085
  0
LINE
  5
218
100
AcDbEntity
  8
KONSTRUKTIONSELEMENTE
100
AcDbLine
 62
7
  6
CONTINUOUS
 10
148.6506054891
 20
155.9051336085
 11
172.6506054891
 21
155.9051336085
  0
LINE
  5
219
100
AcDbEntity
  8
BEZUGSACHSEN
100
AcDbLine
 62
7
  6
CONTINUOUS
 10
174.1506054891
 20
165.9051336085
 11
147.1506054891
 21
165.9051336085
  0
LINE
  5
21A
100
AcDbEntity
  8
KONSTRUKTIONSELEMENTE
100
AcDbLine
 62
7
  6
CONTINUOUS
 10
182.6506054891
 20
189.9051336085
 11
138.6506054891
 21
189.9051336085
  0
LINE
  5
21B
100
AcDbEntity
  8
KONSTRUKTIONSELEMENTE
100
AcDbLine
 62
7
  6
CONTINUOUS
 10
182.6506054891
 20
193.9051336085
 11
138.6506054891
 21
193.9051336085
  0
LINE
  5
21C
100
AcDbEntity
  8
KONSTRUKTIONSELEMENTE
100
AcDbLine
 62
7
  6
CONTINUOUS
 10
148.6506054891
 20
155.9051336085
 11
150.6506054891
 21
153.9051336085
  0
LINE
  5
21D
100
AcDbEntity
  8
BEZUGSACHSEN
100
AcDbLine
 62
7
  6
CONTINUOUS
 10
139.8659957983
 20
173.1897432994
 11
147.1506054891
 21
165.9051336085
  0
LINE
  5
21E
100
AcDbEntity
  8
KONSTRUKTIONSELEMENTE
100
AcDbLine
 62
7
  6
CONTINUOUS
 10
178.6506054891
 20
189.9051336085
 11
181.4352151799
 21
188.2974384539
  0
LINE
  5
21F
100
AcDbEntity
  8
RUNDUNGEN
100
AcDbLine
 62
7
  6
CONTINUOUS
 10
128.9594456734
 20
370.7282254055
 11
158.7371883273
 21
383.0625702696
  0
LINE
  5
220
100
AcDbEntity
  8
RUNDUNGEN
100
AcDbLine
 62
7
  6
CONTINUOUS
 10
120.1506054891
 20
323.1051336085
 11
120.1506054891
 21
313.1051336085
  0
LINE
  5
221
100
AcDbEntity
  8
BEZUGSACHSEN
100
AcDbLine
 62
7
  6
CONTINUOUS
 10
120.1506054891
 20
313.1051336085
 11
120.1506054891
 21
323.1051336085
  0
LINE
  5
222
100
AcDbEntity
  8
BEZUGSACHSEN
100
AcDbLine
 62
7
  6
CONTINUOUS
 10
115.1603786929
 20
341.2411650768
 11
115.4241352597
 21
341.8779297574
  0
LINE
  5
223
100
AcDbEntity
  8
RUNDUNGEN
100
AcDbLine
 62
7
  6
CONTINUOUS
 10
115.4241352597
 20
341.8779297574
 11
126.2534651727
 21
368.0222449048
  0
LINE
  5
224
100
AcDbEntity
  8
0
100
AcDbLine
 62
7
  6
CONTINUOUS
 10
138.4724953069
 20
367.8387116717
 11
138.2530910361
 21
367.4688591676
  0
LINE
  5
225
100
AcDbEntity
  8
0
100
AcDbLine
 62
7
  6
CONTINUOUS
 10
138.8407795268
 20
368.2069958916
 11
138.4724953069
 21
367.8387116717
  0
LINE
  5
226
100
AcDbEntity
  8
0
100
AcDbLine
 62
7
  6
CONTINUOUS
 10
135.6735306837
 20
365.0397470485
 11
133.9057637307
 21
363.2719800956
  0
LINE
  5
227
100
AcDbEntity
  8
0
100
AcDbLine
 62
7
  6
CONTINUOUS
 10
133.3165080095
 20
362.6827243743
 11
132.8745662713
 21
362.2407826361
  0
LINE
  5
228
100
AcDbEntity
  8
0
100
AcDbLine
 62
7
  6
CONTINUOUS
 10
130.812171563
 20
360.1783879279
 11
130.3702298248
 21
359.7364461896
  0
LINE
  5
229
100
AcDbEntity
  8
0
100
AcDbLine
 62
7
  6
CONTINUOUS
 10
134.7238260524
 20
363.3378012504
 11
136.123308364
 21
364.737283562
  0
LINE
  5
22A
100
AcDbEntity
  8
0
100
AcDbLine
 62
7
  6
CONTINUOUS
 10
138.923840007
 20
367.3873669716
 11
139.3657817453
 21
367.8293087098
  0
LINE
  5
22B
100
AcDbEntity
  8
0
100
AcDbLine
 62
7
  6
CONTINUOUS
 10
140.183844067
 20
367.8951298646
 11
140.6257858052
 21
368.3370716028
  0
LINE
  5
22C
100
AcDbEntity
  8
0
100
AcDbLine
 62
7
  6
CONTINUOUS
 10
140.4189195897
 20
366.7761708654
 11
139.9769778514
 21
366.3342291272
  0
LINE
  5
22D
100
AcDbEntity
  8
0
100
AcDbLine
 62
7
  6
CONTINUOUS
 10
137.2516703251
 20
363.6089216009
 11
135.8521880135
 21
362.2094392893
  0
LINE
  5
22E
100
AcDbEntity
  8
0
100
AcDbLine
 62
7
  6
CONTINUOUS
 10
136.3035327137
 20
361.7580945891
 11
137.5557008315
 21
363.010262707
  0
LINE
  5
22F
100
AcDbEntity
  8
0
100
AcDbLine
 62
7
  6
CONTINUOUS
 10
140.4283225516
 20
365.882884427
 11
140.8702642898
 21
366.3248261653
  0
LINE
  5
230
100
AcDbEntity
  8
0
100
AcDbLine
 62
7
  6
CONTINUOUS
 10
140.2935454648
 20
364.5445212624
 11
139.851604148
 21
364.1025799457
  0
LINE
  5
231
100
AcDbEntity
  8
0
100
AcDbLine
 62
7
  6
CONTINUOUS
 10
141.9986261982
 20
365.1964642569
 11
141.4093702663
 21
364.6072083249
  0
LINE
  5
232
100
AcDbEntity
  8
0
100
AcDbLine
 62
7
  6
CONTINUOUS
 10
135.0842750678
 20
357.3794236208
 11
135.6735306837
 21
357.9686792367
  0
LINE
  5
233
100
AcDbEntity
  8
0
100
AcDbLine
 62
7
  6
CONTINUOUS
 10
137.4412976367
 20
359.7364461896
 11
137.8832393749
 21
360.1783879279
  0
LINE
  5
234
100
AcDbEntity
  8
0
100
AcDbLine
 62
7
  6
CONTINUOUS
 10
139.7246634247
 20
362.0198119777
 11
140.2402618384
 21
362.5354103913
  0
LINE
  5
235
100
AcDbEntity
  8
0
100
AcDbLine
 62
7
  6
CONTINUOUS
 10
141.8607150191
 20
364.1558635721
 11
142.449970951
 21
364.745119504
  0
LINE
  5
236
100
AcDbEntity
  8
0
100
AcDbLine
 62
7
  6
CONTINUOUS
 10
139.2842887063
 20
368.5000568378
 11
138.8407795268
 21
368.2069958916
  0
LINE
  5
237
100
AcDbEntity
  8
0
100
AcDbLine
 62
7
  6
CONTINUOUS
 10
136.1170394418
 20
365.3328075732
 11
135.6735306837
 21
365.0397470485
  0
LINE
  5
238
100
AcDbEntity
  8
0
100
AcDbLine
 62
7
  6
CONTINUOUS
 10
140.8624279263
 20
367.0692309686
 11
140.4189195897
 21
366.7761708654
  0
LINE
  5
239
100
AcDbEntity
  8
0
100
AcDbLine
 62
7
  6
CONTINUOUS
 10
141.417205833
 20
363.8628026325
 11
141.8607150191
 21
364.1558635721
  0
LINE
  5
23A
100
AcDbEntity
  8
0
100
AcDbLine
 62
7
  6
CONTINUOUS
 10
140.8702642898
 20
366.3248261653
 11
141.240115951
 21
366.5442295931
  0
LINE
  5
23B
100
AcDbEntity
  8
0
100
AcDbLine
 62
7
  6
CONTINUOUS
 10
140.0584700474
 20
365.6634801563
 11
140.4283225516
 21
365.882884427
  0
LINE
  5
23C
100
AcDbEntity
  8
0
100
AcDbLine
 62
7
  6
CONTINUOUS
 10
141.4093702663
 20
364.6072083249
 11
141.039518605
 21
364.3878048971
  0
LINE
  5
23D
100
AcDbEntity
  8
0
100
AcDbLine
 62
7
  6
CONTINUOUS
 10
156.90060686
 20
372.5519421255
 11
157.3172734273
 21
372.7647080576
  0
LINE
  5
23E
100
AcDbEntity
  8
0
100
AcDbLine
 62
7
  6
CONTINUOUS
 10
161.275606562
 20
370.2115165839
 11
161.6922734273
 21
370.4242825439
  0
LINE
  5
23F
100
AcDbEntity
  8
0
100
AcDbLine
 62
7
  6
CONTINUOUS
 10
139.3657817453
 20
367.8293087098
 11
139.6619767311
 21
367.9750554622
  0
LINE
  5
240
100
AcDbEntity
  8
0
100
AcDbLine
 62
7
  6
CONTINUOUS
 10
136.123308364
 20
364.737283562
 11
136.4195033498
 21
364.8830303144
  0
LINE
  5
241
100
AcDbEntity
  8
0
100
AcDbLine
 62
7
  6
CONTINUOUS
 10
139.9769778514
 20
366.3342291272
 11
139.6807828656
 21
366.1884823747
  0
LINE
  5
242
100
AcDbEntity
  8
0
100
AcDbLine
 62
7
  6
CONTINUOUS
 10
156.7964399947
 20
373.0838569557
 11
156.4839399947
 21
372.9774739897
  0
LINE
  5
243
100
AcDbEntity
  8
0
100
AcDbLine
 62
7
  6
CONTINUOUS
 10
141.3075045471
 20
367.2134111227
 11
140.8624279263
 21
367.0692309686
  0
LINE
  5
244
100
AcDbEntity
  8
0
100
AcDbLine
 62
7
  6
CONTINUOUS
 10
139.6133942695
 20
365.5193008451
 11
140.0584700474
 21
365.6634801563
  0
LINE
  5
245
100
AcDbEntity
  8
0
100
AcDbLine
 62
7
  6
CONTINUOUS
 10
138.7075706188
 20
366.7197528833
 11
138.7780932546
 21
367.0911719858
  0
LINE
  5
246
100
AcDbEntity
  8
0
100
AcDbLine
 62
7
  6
CONTINUOUS
 10
142.2885522091
 20
365.9377350732
 11
142.218029626
 21
365.5663159181
  0
LINE
  5
247
100
AcDbEntity
  8
0
100
AcDbLine
 62
7
  6
CONTINUOUS
 10
138.2530910361
 20
367.4688591676
 11
138.108911725
 21
367.0237833897
  0
LINE
  5
248
100
AcDbEntity
  8
0
100
AcDbLine
 62
7
  6
CONTINUOUS
 10
137.8471943364
 20
363.6026526786
 11
137.991374069
 21
364.047728878
  0
LINE
  5
249
100
AcDbEntity
  8
0
100
AcDbLine
 62
7
  6
CONTINUOUS
 10
142.7430310477
 20
365.1886278472
 11
142.887211182
 21
365.6337044878
  0
LINE
  5
24A
100
AcDbEntity
  8
0
100
AcDbLine
 62
7
  6
CONTINUOUS
 10
138.7780932546
 20
367.0911719858
 11
138.923840007
 21
367.3873669716
  0
LINE
  5
24B
100
AcDbEntity
  8
0
100
AcDbLine
 62
7
  6
CONTINUOUS
 10
137.3974170775
 20
363.9051165867
 11
137.2516703251
 21
363.6089216009
  0
LINE
  5
24C
100
AcDbEntity
  8
0
100
AcDbLine
 62
7
  6
CONTINUOUS
 10
142.218029626
 20
365.5663159181
 11
141.9986261982
 21
365.1964642569
  0
LINE
  5
24D
100
AcDbEntity
  8
0
100
AcDbLine
 62
7
  6
CONTINUOUS
 10
142.449970951
 20
364.745119504
 11
142.7430310477
 21
365.1886278472
  0
LINE
  5
24E
100
AcDbEntity
  8
0
100
AcDbLine
 62
7
  6
CONTINUOUS
 10
157.3172734273
 20
372.7647080576
 11
157.6297734273
 21
373.1902399218
  0
LINE
  5
24F
100
AcDbEntity
  8
0
100
AcDbLine
 62
7
  6
CONTINUOUS
 10
157.0047734273
 20
373.2966228878
 11
156.7964399947
 21
373.0838569557
  0
LINE
  5
250
100
AcDbEntity
  8
0
100
AcDbLine
 62
7
  6
CONTINUOUS
 10
161.6922734273
 20
370.4242825439
 11
162.1089402927
 21
370.8498144453
  0
LINE
  5
251
100
AcDbEntity
  8
0
100
AcDbLine
 62
7
  6
CONTINUOUS
 10
166.6922734273
 20
370.4242825439
 11
167.1089396967
 21
370.8498144453
  0
LINE
  5
252
100
AcDbEntity
  8
0
100
AcDbLine
 62
7
  6
CONTINUOUS
 10
161.4839402927
 20
371.0625804519
 11
161.1714402927
 21
370.8498144453
  0
LINE
  5
253
100
AcDbEntity
  8
0
100
AcDbLine
 62
7
  6
CONTINUOUS
 10
166.4839396967
 20
371.0625804519
 11
166.1714396967
 21
370.8498144453
  0
LINE
  5
254
100
AcDbEntity
  8
0
100
AcDbLine
 62
7
  6
CONTINUOUS
 10
166.275607158
 20
370.2115165839
 11
166.6922734273
 21
370.4242825439
  0
LINE
  5
255
100
AcDbEntity
  8
KONSTRUKTIONSELEMENTE
100
AcDbLine
 62
7
  6
CONTINUOUS
 10
143.1506054891
 20
293.9051336085
 11
178.1506054891
 21
293.9051336085
  0
LINE
  5
256
100
AcDbEntity
  8
BEZUGSACHSEN
100
AcDbLine
 62
7
  6
CONTINUOUS
 10
186.1505324901
 20
294.1051336085
 11
135.1506784884
 21
294.1051336085
  0
LINE
  5
257
100
AcDbEntity
  8
0
100
AcDbLine
 62
7
  6
CONTINUOUS
 10
157.0672719968
 20
298.0838570153
 11
157.9006054891
 21
298.0838570153
  0
LINE
  5
258
100
AcDbEntity
  8
0
100
AcDbLine
 62
7
  6
CONTINUOUS
 10
152.2339385046
 20
299.9561974561
 11
151.4006051315
 21
300.1264102017
  0
LINE
  5
259
100
AcDbEntity
  8
0
100
AcDbLine
 62
7
  6
CONTINUOUS
 10
151.4006051315
 20
299.2753463691
 11
152.0672717584
 21
299.1051336085
  0
LINE
  5
25A
100
AcDbEntity
  8
0
100
AcDbLine
 62
7
  6
CONTINUOUS
 10
150.7339385046
 20
299.6157719051
 11
151.4006051315
 21
299.2753463691
  0
LINE
  5
25B
100
AcDbEntity
  8
0
100
AcDbLine
 62
7
  6
CONTINUOUS
 10
151.4006051315
 20
300.1264102017
 11
151.0672718776
 21
300.2966229474
  0
LINE
  5
25C
100
AcDbEntity
  8
0
100
AcDbLine
 62
7
  6
CONTINUOUS
 10
150.2339385046
 20
299.9561974561
 11
150.7339385046
 21
299.6157719051
  0
LINE
  5
25D
100
AcDbEntity
  8
BEZUGSACHSEN
100
AcDbLine
 62
7
  6
CONTINUOUS
 10
127.1629653066
 20
308.5196183555
 11
126.8570932651
 21
309.2559665231
  0
LINE
  5
25E
100
AcDbEntity
  8
BEZUGSACHSEN
100
AcDbLine
 62
7
  6
CONTINUOUS
 10
120.0903717543
 20
325.5459908116
 11
115.162302418
 21
337.4096930573
  0
LINE
  5
25F
100
AcDbEntity
  8
0
100
AcDbLine
 62
7
  6
CONTINUOUS
 10
137.3942826164
 20
364.2028785923
 11
137.3974170775
 21
363.9051165867
  0
LINE
  5
260
100
AcDbEntity
  8
0
100
AcDbLine
 62
7
  6
CONTINUOUS
 10
138.108911725
 20
367.0237833897
 11
138.1151806472
 21
366.4282593784
  0
LINE
  5
261
100
AcDbEntity
  8
0
100
AcDbLine
 62
7
  6
CONTINUOUS
 10
142.887211182
 20
365.6337044878
 11
142.8809422334
 21
366.2292285254
  0
LINE
  5
262
100
AcDbEntity
  8
KONSTRUKTIONSELEMENTE
100
AcDbLine
 62
7
  6
CONTINUOUS
 10
138.6506054891
 20
193.9051336085
 11
138.6506054891
 21
189.9051336085
  0
LINE
  5
263
100
AcDbEntity
  8
KONSTRUKTIONSELEMENTE
100
AcDbLine
 62
7
  6
CONTINUOUS
 10
139.8659957983
 20
188.2974384539
 11
139.8659957983
 21
173.1897432994
  0
LINE
  5
264
100
AcDbEntity
  8
KONSTRUKTIONSELEMENTE
100
AcDbLine
 62
7
  6
CONTINUOUS
 10
143.1506054891
 20
294.1051336085
 11
143.1506054891
 21
293.9051336085
  0
LINE
  5
265
100
AcDbEntity
  8
0
100
AcDbLine
 62
7
  6
CONTINUOUS
 10
146.6506054891
 20
327.9051336085
 11
146.6506054891
 21
330.4051336085
  0
LINE
  5
266
100
AcDbEntity
  8
KONSTRUKTIONSELEMENTE
100
AcDbLine
 62
7
  6
CONTINUOUS
 10
148.6506054891
 20
293.9051336085
 11
148.6506054891
 21
193.9051336085
  0
LINE
  5
267
100
AcDbEntity
  8
KONSTRUKTIONSELEMENTE
100
AcDbLine
 62
7
  6
CONTINUOUS
 10
148.6506054891
 20
165.9051336085
 11
148.6506054891
 21
155.9051336085
  0
LINE
  5
268
100
AcDbEntity
  8
0
100
AcDbLine
 62
7
  6
CONTINUOUS
 10
157.1089399947
 20
373.6157717859
 11
157.0047734273
 21
373.2966228878
  0
LINE
  5
269
100
AcDbEntity
  8
0
100
AcDbLine
 62
7
  6
CONTINUOUS
 10
157.6297734273
 20
373.1902399218
 11
157.7339399947
 21
373.5093888199
  0
LINE
  5
26A
100
AcDbEntity
  8
0
100
AcDbLine
 62
7
  6
CONTINUOUS
 10
162.1089402927
 20
370.8498144453
 11
162.3172734273
 21
371.275346384
  0
LINE
  5
26B
100
AcDbEntity
  8
0
100
AcDbLine
 62
7
  6
CONTINUOUS
 10
167.1089396967
 20
370.8498144453
 11
167.3172734273
 21
371.275346384
  0
LINE
  5
26C
100
AcDbEntity
  8
0
100
AcDbLine
 62
7
  6
CONTINUOUS
 10
161.6922734273
 20
371.38172935
 11
161.4839402927
 21
371.0625804519
  0
LINE
  5
26D
100
AcDbEntity
  8
0
100
AcDbLine
 62
7
  6
CONTINUOUS
 10
166.6922734273
 20
371.38172935
 11
166.4839396967
 21
371.0625804519
  0
LINE
  5
26E
100
AcDbEntity
  8
0
100
AcDbLine
 62
7
  6
CONTINUOUS
 10
153.4006052507
 20
299.1051336085
 11
154.0672719968
 21
299.2753463691
  0
LINE
  5
26F
100
AcDbEntity
  8
0
100
AcDbLine
 62
7
  6
CONTINUOUS
 10
154.0672719968
 20
300.1264102017
 11
153.2339385046
 21
299.9561974561
  0
LINE
  5
270
100
AcDbEntity
  8
0
100
AcDbLine
 62
7
  6
CONTINUOUS
 10
162.06727152
 20
306.0838571345
 11
162.9006054891
 21
306.2540698802
  0
LINE
  5
271
100
AcDbEntity
  8
0
100
AcDbLine
 62
7
  6
CONTINUOUS
 10
151.5672718776
 20
306.0838571345
 11
152.4006052507
 21
306.2540698802
  0
LINE
  5
272
100
AcDbEntity
  8
0
100
AcDbLine
 62
7
  6
CONTINUOUS
 10
163.06727152
 20
307.1051336085
 11
161.9006054891
 21
306.9349208629
  0
LINE
  5
273
100
AcDbEntity
  8
0
100
AcDbLine
 62
7
  6
CONTINUOUS
 10
152.5672717584
 20
307.1051336085
 11
151.4006051315
 21
306.9349208629
  0
LINE
  5
274
100
AcDbEntity
  8
0
100
AcDbLine
 62
7
  6
CONTINUOUS
 10
152.0672717584
 20
299.1051336085
 11
153.4006052507
 21
299.1051336085
  0
LINE
  5
275
100
AcDbEntity
  8
0
100
AcDbLine
 62
7
  6
CONTINUOUS
 10
160.2339385046
 20
299.1051336085
 11
166.2339385046
 21
299.1051336085
  0
LINE
  5
276
100
AcDbEntity
  8
0
100
AcDbLine
 62
7
  6
CONTINUOUS
 10
166.2339385046
 20
299.9561974561
 11
161.56727152
 21
299.9561974561
  0
LINE
  5
277
100
AcDbEntity
  8
0
100
AcDbLine
 62
7
  6
CONTINUOUS
 10
158.9006054891
 20
299.9561974561
 11
158.06727152
 21
299.9561974561
  0
LINE
  5
278
100
AcDbEntity
  8
0
100
AcDbLine
 62
7
  6
CONTINUOUS
 10
153.2339385046
 20
299.9561974561
 11
152.2339385046
 21
299.9561974561
  0
LINE
  5
279
100
AcDbEntity
  8
0
100
AcDbLine
 62
7
  6
CONTINUOUS
 10
150.567271818
 20
300.9774740493
 11
149.7339385046
 21
300.9774740493
  0
LINE
  5
27A
100
AcDbEntity
  8
0
100
AcDbLine
 62
7
  6
CONTINUOUS
 10
152.4006052507
 20
302.84981449
 11
153.0672717584
 21
302.84981449
  0
LINE
  5
27B
100
AcDbEntity
  8
0
100
AcDbLine
 62
7
  6
CONTINUOUS
 10
153.0672717584
 20
303.5306654727
 11
152.4006052507
 21
303.5306654727
  0
LINE
  5
27C
100
AcDbEntity
  8
0
100
AcDbLine
 62
7
  6
CONTINUOUS
 10
167.5672724737
 20
303.871090964
 11
168.9006045354
 21
303.871090964
  0
LINE
  5
27D
100
AcDbEntity
  8
0
100
AcDbLine
 62
7
  6
CONTINUOUS
 10
169.7339385046
 20
303.871090964
 11
171.5672724737
 21
303.871090964
  0
LINE
  5
27E
100
AcDbEntity
  8
0
100
AcDbLine
 62
7
  6
CONTINUOUS
 10
171.5672724737
 20
304.5519419467
 11
169.7339385046
 21
304.5519419467
  0
LINE
  5
27F
100
AcDbEntity
  8
0
100
AcDbLine
 62
7
  6
CONTINUOUS
 10
168.9006045354
 20
304.5519419467
 11
167.5672724737
 21
304.5519419467
  0
LINE
  5
280
100
AcDbEntity
  8
0
100
AcDbLine
 62
7
  6
CONTINUOUS
 10
149.9006051762
 20
305.2327934062
 11
150.7339385046
 21
305.2327934062
  0
LINE
  5
281
100
AcDbEntity
  8
0
100
AcDbLine
 62
7
  6
CONTINUOUS
 10
160.4006054891
 20
305.2327934062
 11
161.2339385046
 21
305.2327934062
  0
LINE
  5
282
100
AcDbEntity
  8
0
100
AcDbLine
 62
7
  6
CONTINUOUS
 10
169.7339385046
 20
305.9136443889
 11
168.9006045354
 21
305.9136443889
  0
LINE
  5
283
100
AcDbEntity
  8
0
100
AcDbLine
 62
7
  6
CONTINUOUS
 10
152.4006052507
 20
306.2540698802
 11
153.0672717584
 21
306.2540698802
  0
LINE
  5
284
100
AcDbEntity
  8
0
100
AcDbLine
 62
7
  6
CONTINUOUS
 10
162.9006054891
 20
306.2540698802
 11
163.56727152
 21
306.2540698802
  0
LINE
  5
285
100
AcDbEntity
  8
0
100
AcDbLine
 62
7
  6
CONTINUOUS
 10
163.7339385046
 20
307.1051336085
 11
163.06727152
 21
307.1051336085
  0
LINE
  5
286
100
AcDbEntity
  8
0
100
AcDbLine
 62
7
  6
CONTINUOUS
 10
152.9006052507
 20
307.1051336085
 11
152.5672717584
 21
307.1051336085
  0
LINE
  5
287
100
AcDbEntity
  8
0
100
AcDbLine
 62
7
  6
CONTINUOUS
 10
122.1506054891
 20
311.1051336085
 11
124.0866089026
 21
311.1051336085
  0
LINE
  5
288
100
AcDbEntity
  8
0
100
AcDbLine
 62
7
  6
CONTINUOUS
 10
197.2146020756
 20
311.1051336085
 11
199.1506054891
 21
311.1051336085
  0
LINE
  5
289
100
AcDbEntity
  8
0
100
AcDbLine
 62
7
  6
CONTINUOUS
 10
154.0672719968
 20
306.9349208629
 11
152.9006052507
 21
307.1051336085
  0
LINE
  5
28A
100
AcDbEntity
  8
0
100
AcDbLine
 62
7
  6
CONTINUOUS
 10
170.2339385046
 20
299.2753463691
 11
171.2339385046
 21
299.1051336085
  0
LINE
  5
28B
100
AcDbEntity
  8
0
100
AcDbLine
 62
7
  6
CONTINUOUS
 10
153.0672717584
 20
302.84981449
 11
154.0672719968
 21
302.6796017444
  0
LINE
  5
28C
100
AcDbEntity
  8
0
100
AcDbLine
 62
7
  6
CONTINUOUS
 10
164.7339385046
 20
306.9349208629
 11
163.7339385046
 21
307.1051336085
  0
LINE
  5
28D
100
AcDbEntity
  8
0
100
AcDbLine
 62
7
  6
CONTINUOUS
 10
171.2339385046
 20
299.7859846508
 11
170.4006045354
 21
299.9561974561
  0
LINE
  5
28E
100
AcDbEntity
  8
0
100
AcDbLine
 62
7
  6
CONTINUOUS
 10
153.0672717584
 20
306.2540698802
 11
153.9006050123
 21
306.0838571345
  0
LINE
  5
28F
100
AcDbEntity
  8
0
100
AcDbLine
 62
7
  6
CONTINUOUS
 10
163.56727152
 20
306.2540698802
 11
164.4006054891
 21
306.0838571345
  0
LINE
  5
290
100
AcDbEntity
  8
0
100
AcDbLine
 62
7
  6
CONTINUOUS
 10
169.7339385046
 20
299.4455591297
 11
170.2339385046
 21
299.2753463691
  0
LINE
  5
291
100
AcDbEntity
  8
0
100
AcDbLine
 62
7
  6
CONTINUOUS
 10
155.2339385046
 20
302.84981449
 11
154.4006050123
 21
303.1902399814
  0
LINE
  5
292
100
AcDbEntity
  8
0
100
AcDbLine
 62
7
  6
CONTINUOUS
 10
154.7339385046
 20
306.5944953715
 11
154.0672719968
 21
306.9349208629
  0
LINE
  5
293
100
AcDbEntity
  8
0
100
AcDbLine
 62
7
  6
CONTINUOUS
 10
165.4006054891
 20
306.5944953715
 11
164.7339385046
 21
306.9349208629
  0
LINE
  5
294
100
AcDbEntity
  8
0
100
AcDbLine
 62
7
  6
CONTINUOUS
 10
154.0672719968
 20
302.6796017444
 11
154.5672719968
 21
302.339176253
  0
LINE
  5
295
100
AcDbEntity
  8
0
100
AcDbLine
 62
7
  6
CONTINUOUS
 10
153.9006050123
 20
306.0838571345
 11
154.4006050123
 21
305.7434316432
  0
LINE
  5
296
100
AcDbEntity
  8
0
100
AcDbLine
 62
7
  6
CONTINUOUS
 10
169.2339385046
 20
299.7859846508
 11
169.7339385046
 21
299.4455591297
  0
LINE
  5
297
100
AcDbEntity
  8
0
100
AcDbLine
 62
7
  6
CONTINUOUS
 10
170.4006045354
 20
299.9561974561
 11
169.9006045354
 21
300.2966229474
  0
LINE
  5
298
100
AcDbEntity
  8
0
100
AcDbLine
 62
7
  6
CONTINUOUS
 10
164.4006054891
 20
306.0838571345
 11
164.9006054891
 21
305.7434316432
  0
LINE
  5
299
100
AcDbEntity
  8
0
100
AcDbLine
 62
7
  6
CONTINUOUS
 10
151.0672718776
 20
300.2966229474
 11
150.7339385046
 21
300.6370485579
  0
LINE
  5
29A
100
AcDbEntity
  8
0
100
AcDbLine
 62
7
  6
CONTINUOUS
 10
155.4006050123
 20
305.9136443889
 11
154.7339385046
 21
306.5944953715
  0
LINE
  5
29B
100
AcDbEntity
  8
0
100
AcDbLine
 62
7
  6
CONTINUOUS
 10
149.9006051762
 20
300.4668356931
 11
150.2339385046
 21
299.9561974561
  0
LINE
  5
29C
100
AcDbEntity
  8
0
100
AcDbLine
 62
7
  6
CONTINUOUS
 10
155.5672719968
 20
302.339176253
 11
155.2339385046
 21
302.84981449
  0
LINE
  5
29D
100
AcDbEntity
  8
0
100
AcDbLine
 62
7
  6
CONTINUOUS
 10
154.4006050123
 20
305.7434316432
 11
154.7339385046
 21
305.2327934062
  0
LINE
  5
29E
100
AcDbEntity
  8
0
100
AcDbLine
 62
7
  6
CONTINUOUS
 10
150.7339385046
 20
300.6370485579
 11
150.567271818
 21
300.9774740493
  0
LINE
  5
29F
100
AcDbEntity
  8
0
100
AcDbLine
 62
7
  6
CONTINUOUS
 10
154.5672719968
 20
302.339176253
 11
154.9006050123
 21
301.6583250319
  0
LINE
  5
2A0
100
AcDbEntity
  8
0
100
AcDbLine
 62
7
  6
CONTINUOUS
 10
149.7339385046
 20
300.9774740493
 11
149.9006051762
 21
300.4668356931
  0
LINE
  5
2A1
100
AcDbEntity
  8
0
100
AcDbLine
 62
7
  6
CONTINUOUS
 10
137.991374069
 20
364.047728878
 11
137.9114484713
 21
364.5695962139
  0
LINE
  5
2A2
100
AcDbEntity
  8
KONSTRUKTIONSELEMENTE
100
AcDbLine
 62
7
  6
CONTINUOUS
 10
150.2583006437
 20
188.2974384539
 11
150.2583006437
 21
173.1897432994
  0
LINE
  5
2A3
100
AcDbEntity
  8
0
100
AcDbLine
 62
7
  6
CONTINUOUS
 10
152.4006052507
 20
303.5306654727
 11
152.4006052507
 21
302.84981449
  0
LINE
  5
2A4
100
AcDbEntity
  8
0
100
AcDbLine
 62
7
  6
CONTINUOUS
 10
152.6831717743
 20
326.4051336085
 11
152.6831717743
 21
317.3023906712
  0
LINE
  5
2A5
100
AcDbEntity
  8
BEZUGSACHSEN
100
AcDbLine
 62
7
  6
CONTINUOUS
 10
153.4833926742
 20
326.4051336085
 11
153.4833926742
 21
317.1880577276
  0
LINE
  5
2A6
100
AcDbEntity
  8
0
100
AcDbLine
 62
7
  6
CONTINUOUS
 10
153.8797734273
 20
375.1051336085
 11
153.8797734273
 21
370.1051336085
  0
LINE
  5
2A7
100
AcDbEntity
  8
0
100
AcDbLine
 62
7
  6
CONTINUOUS
 10
154.5047734273
 20
370.1051336085
 11
154.5047734273
 21
372.3391761934
  0
LINE
  5
2A8
100
AcDbEntity
  8
0
100
AcDbLine
 62
7
  6
CONTINUOUS
 10
154.5047734273
 20
372.9774739897
 11
154.5047734273
 21
374.5732187783
  0
LINE
  5
2A9
100
AcDbEntity
  8
0
100
AcDbLine
 62
7
  6
CONTINUOUS
 10
154.7339385046
 20
305.2327934062
 11
154.7339385046
 21
304.892367438
  0
LINE
  5
2AA
100
AcDbEntity
  8
0
100
AcDbLine
 62
7
  6
CONTINUOUS
 10
154.9006050123
 20
301.6583250319
 11
154.9006050123
 21
300.9774740493
  0
LINE
  5
2AB
100
AcDbEntity
  8
0
100
AcDbLine
 62
7
  6
CONTINUOUS
 10
155.5672719968
 20
304.892367438
 11
155.5672719968
 21
305.2327934062
  0
LINE
  5
2AC
100
AcDbEntity
  8
0
100
AcDbLine
 62
7
  6
CONTINUOUS
 10
155.6506054891
 20
331.9051336085
 11
155.6506054891
 21
332.2051336085
  0
LINE
  5
2AD
100
AcDbEntity
  8
0
100
AcDbLine
 62
7
  6
CONTINUOUS
 10
155.7339385046
 20
300.9774740493
 11
155.7339385046
 21
301.6583250319
  0
LINE
  5
2AE
100
AcDbEntity
  8
BEZUGSACHSEN
100
AcDbLine
 62
7
  6
CONTINUOUS
 10
155.8666677318
 20
326.4051336085
 11
155.8666677318
 21
316.8855591899
  0
LINE
  5
2AF
100
AcDbEntity
  8
0
100
AcDbLine
 62
7
  6
CONTINUOUS
 10
156.6668886317
 20
326.4051336085
 11
156.6668886317
 21
316.8010879351
  0
LINE
  5
2B0
100
AcDbEntity
  8
0
100
AcDbLine
 62
7
  6
CONTINUOUS
 10
157.1089399947
 20
373.9349209821
 11
157.1089399947
 21
373.6157717859
  0
LINE
  5
2B1
100
AcDbEntity
  8
0
100
AcDbLine
 62
7
  6
CONTINUOUS
 10
157.7339399947
 20
373.5093888199
 11
157.7339399947
 21
373.9349209821
  0
LINE
  5
2B2
100
AcDbEntity
  8
BEZUGSACHSEN
100
AcDbLine
 62
7
  6
CONTINUOUS
 10
158.2673304316
 20
326.4051336085
 11
158.2673304316
 21
316.6694446771
  0
LINE
  5
2B3
100
AcDbEntity
  8
0
100
AcDbLine
 62
7
  6
CONTINUOUS
 10
158.6714399947
 20
375.1051336085
 11
158.6714399947
 21
371.8072612142
  0
LINE
  5
2B4
100
AcDbEntity
  8
0
100
AcDbLine
 62
7
  6
CONTINUOUS
 10
159.2964402927
 20
371.8072612142
 11
159.2964402927
 21
375.1051336085
  0
LINE
  5
2B5
100
AcDbEntity
  8
0
100
AcDbLine
 62
7
  6
CONTINUOUS
 10
160.2339385046
 20
299.9561974561
 11
160.2339385046
 21
299.1051336085
  0
LINE
  5
2B6
100
AcDbEntity
  8
0
100
AcDbLine
 62
7
  6
CONTINUOUS
 10
160.6506054891
 20
331.9051336085
 11
160.6506054891
 21
332.2051336085
  0
LINE
  5
2B7
100
AcDbEntity
  8
0
100
AcDbLine
 62
7
  6
CONTINUOUS
 10
161.7964402927
 20
375.1051336085
 11
161.7964402927
 21
371.8072612142
  0
LINE
  5
2B8
100
AcDbEntity
  8
0
100
AcDbLine
 62
7
  6
CONTINUOUS
 10
162.4214402927
 20
371.8072612142
 11
162.4214402927
 21
375.1051336085
  0
LINE
  5
2B9
100
AcDbEntity
  8
0
100
AcDbLine
 62
7
  6
CONTINUOUS
 10
162.3172734273
 20
371.275346384
 11
162.4214402927
 21
371.8072612142
  0
LINE
  5
2BA
100
AcDbEntity
  8
0
100
AcDbLine
 62
7
  6
CONTINUOUS
 10
167.3172734273
 20
371.275346384
 11
167.4214396967
 21
371.8072612142
  0
LINE
  5
2BB
100
AcDbEntity
  8
0
100
AcDbLine
 62
7
  6
CONTINUOUS
 10
161.7964402927
 20
371.8072612142
 11
161.6922734273
 21
371.38172935
  0
LINE
  5
2BC
100
AcDbEntity
  8
0
100
AcDbLine
 62
7
  6
CONTINUOUS
 10
150.0672718478
 20
305.9136443889
 11
149.9006051762
 21
305.2327934062
  0
LINE
  5
2BD
100
AcDbEntity
  8
0
100
AcDbLine
 62
7
  6
CONTINUOUS
 10
166.7964396967
 20
371.8072612142
 11
166.6922734273
 21
371.38172935
  0
LINE
  5
2BE
100
AcDbEntity
  8
0
100
AcDbLine
 62
7
  6
CONTINUOUS
 10
155.4006050123
 20
304.2115164554
 11
155.5672719968
 21
304.892367438
  0
LINE
  5
2BF
100
AcDbEntity
  8
0
100
AcDbLine
 62
7
  6
CONTINUOUS
 10
184.0407280782
 20
361.2714819638
 11
184.5821553643
 21
361.81290925
  0
LINE
  5
2C0
100
AcDbEntity
  8
0
100
AcDbLine
 62
7
  6
CONTINUOUS
 10
187.0867511401
 20
364.3175050258
 11
187.6281784263
 21
364.8589323119
  0
LINE
  5
2C1
100
AcDbEntity
  8
0
100
AcDbLine
 62
7
  6
CONTINUOUS
 10
188.2680571492
 20
360.0942020873
 11
188.8094844353
 21
360.6356293734
  0
LINE
  5
2C2
100
AcDbEntity
  8
0
100
AcDbLine
 62
7
  6
CONTINUOUS
 10
187.1107280782
 20
358.2014819638
 11
187.6521553643
 21
358.74290925
  0
LINE
  5
2C3
100
AcDbEntity
  8
0
100
AcDbLine
 62
7
  6
CONTINUOUS
 10
190.1567511401
 20
361.2475050258
 11
190.6981784263
 21
361.7889323119
  0
LINE
  5
2C4
100
AcDbEntity
  8
0
100
AcDbLine
 62
7
  6
CONTINUOUS
 10
166.0672724737
 20
305.9136443889
 11
165.4006054891
 21
306.5944953715
  0
LINE
  5
2C5
100
AcDbEntity
  8
0
100
AcDbLine
 62
7
  6
CONTINUOUS
 10
164.9006054891
 20
305.7434316432
 11
165.2339385046
 21
305.2327934062
  0
LINE
  5
2C6
100
AcDbEntity
  8
0
100
AcDbLine
 62
7
  6
CONTINUOUS
 10
137.2422673632
 20
364.5022080392
 11
137.3942826164
 21
364.2028785923
  0
LINE
  5
2C7
100
AcDbEntity
  8
0
100
AcDbLine
 62
7
  6
CONTINUOUS
 10
137.9114484713
 20
364.5695962139
 11
137.7594332181
 21
364.8689256608
  0
LINE
  5
2C8
100
AcDbEntity
  8
0
100
AcDbLine
 62
7
  6
CONTINUOUS
 10
138.8595856613
 20
366.4204228041
 11
138.7075706188
 21
366.7197528833
  0
LINE
  5
2C9
100
AcDbEntity
  8
0
100
AcDbLine
 62
7
  6
CONTINUOUS
 10
135.6735306837
 20
357.9686792367
 11
133.3165080095
 21
362.6827243743
  0
LINE
  5
2CA
100
AcDbEntity
  8
0
100
AcDbLine
 62
7
  6
CONTINUOUS
 10
132.8745662713
 20
362.2407826361
 11
134.9275580703
 21
358.1253961289
  0
LINE
  5
2CB
100
AcDbEntity
  8
0
100
AcDbLine
 62
7
  6
CONTINUOUS
 10
168.9006045354
 20
300.4668356931
 11
169.2339385046
 21
299.7859846508
  0
LINE
  5
2CC
100
AcDbEntity
  8
0
100
AcDbLine
 62
7
  6
CONTINUOUS
 10
142.8809422334
 20
366.2292285254
 11
142.7273599077
 21
366.6774392386
  0
LINE
  5
2CD
100
AcDbEntity
  8
0
100
AcDbLine
 62
7
  6
CONTINUOUS
 10
169.9006045354
 20
300.2966229474
 11
169.7339385046
 21
300.8072613036
  0
LINE
  5
2CE
100
AcDbEntity
  8
0
100
AcDbLine
 62
7
  6
CONTINUOUS
 10
155.7339385046
 20
301.6583250319
 11
155.5672719968
 21
302.339176253
  0
LINE
  5
2CF
100
AcDbEntity
  8
0
100
AcDbLine
 62
7
  6
CONTINUOUS
 10
155.5672719968
 20
305.2327934062
 11
155.4006050123
 21
305.9136443889
  0
LINE
  5
2D0
100
AcDbEntity
  8
0
100
AcDbLine
 62
7
  6
CONTINUOUS
 10
166.2339385046
 20
305.2327934062
 11
166.0672724737
 21
305.9136443889
  0
LINE
  5
2D1
100
AcDbEntity
  8
0
100
AcDbLine
 62
7
  6
CONTINUOUS
 10
142.2101940528
 20
366.310721617
 11
142.2885522091
 21
365.9377350732
  0
LINE
  5
2D2
100
AcDbEntity
  8
BEZUGSACHSEN
100
AcDbLine
 62
7
  6
CONTINUOUS
 10
163.0338805467
 20
326.4051336085
 11
163.0338805467
 21
316.6694269871
  0
LINE
  5
2D3
100
AcDbEntity
  8
0
100
AcDbLine
 62
7
  6
CONTINUOUS
 10
163.2547734273
 20
375.1051336085
 11
163.2547734273
 21
370.1051336085
  0
LINE
  5
2D4
100
AcDbEntity
  8
0
100
AcDbLine
 62
7
  6
CONTINUOUS
 10
163.8797734273
 20
370.7434314793
 11
163.8797734273
 21
374.4668358123
  0
LINE
  5
2D5
100
AcDbEntity
  8
0
100
AcDbLine
 62
7
  6
CONTINUOUS
 10
164.6343223465
 20
326.4051336085
 11
164.6343223465
 21
316.8010956908
  0
LINE
  5
2D6
100
AcDbEntity
  8
0
100
AcDbLine
 62
7
  6
CONTINUOUS
 10
165.2339385046
 20
305.2327934062
 11
165.2339385046
 21
304.892367438
  0
LINE
  5
2D7
100
AcDbEntity
  8
BEZUGSACHSEN
100
AcDbLine
 62
7
  6
CONTINUOUS
 10
165.4345432464
 20
326.4051336085
 11
165.4345432464
 21
316.8855599121
  0
LINE
  5
2D8
100
AcDbEntity
  8
0
100
AcDbLine
 62
7
  6
CONTINUOUS
 10
165.6506054891
 20
331.9051336085
 11
165.6506054891
 21
332.2051336085
  0
LINE
  5
2D9
100
AcDbEntity
  8
0
100
AcDbLine
 62
7
  6
CONTINUOUS
 10
166.2339385046
 20
299.1051336085
 11
166.2339385046
 21
299.9561974561
  0
LINE
  5
2DA
100
AcDbEntity
  8
0
100
AcDbLine
 62
7
  6
CONTINUOUS
 10
166.2339385046
 20
304.892367438
 11
166.2339385046
 21
305.2327934062
  0
LINE
  5
2DB
100
AcDbEntity
  8
0
100
AcDbLine
 62
7
  6
CONTINUOUS
 10
166.7964396967
 20
373.4030058538
 11
166.7964396967
 21
371.8072612142
  0
LINE
  5
2DC
100
AcDbEntity
  8
0
100
AcDbLine
 62
7
  6
CONTINUOUS
 10
167.4214396967
 20
371.8072612142
 11
167.4214396967
 21
373.4030058538
  0
LINE
  5
2DD
100
AcDbEntity
  8
0
100
AcDbLine
 62
7
  6
CONTINUOUS
 10
167.5672724737
 20
304.5519419467
 11
167.5672724737
 21
303.871090964
  0
LINE
  5
2DE
100
AcDbEntity
  8
BEZUGSACHSEN
100
AcDbLine
 62
7
  6
CONTINUOUS
 10
167.817818304
 20
326.4051336085
 11
167.817818304
 21
317.1880544621
  0
LINE
  5
2DF
100
AcDbEntity
  8
0
100
AcDbLine
 62
7
  6
CONTINUOUS
 10
168.6180392039
 20
326.4051336085
 11
168.6180392039
 21
317.3023882382
  0
LINE
  5
2E0
100
AcDbEntity
  8
0
100
AcDbLine
 62
7
  6
CONTINUOUS
 10
168.9006045354
 20
305.9136443889
 11
168.9006045354
 21
304.5519419467
  0
LINE
  5
2E1
100
AcDbEntity
  8
0
100
AcDbLine
 62
7
  6
CONTINUOUS
 10
168.9006045354
 20
303.871090964
 11
168.9006045354
 21
300.4668356931
  0
LINE
  5
2E2
100
AcDbEntity
  8
0
100
AcDbLine
 62
7
  6
CONTINUOUS
 10
169.7339385046
 20
300.8072613036
 11
169.7339385046
 21
303.871090964
  0
LINE
  5
2E3
100
AcDbEntity
  8
0
100
AcDbLine
 62
7
  6
CONTINUOUS
 10
169.7339385046
 20
304.5519419467
 11
169.7339385046
 21
305.9136443889
  0
LINE
  5
2E4
100
AcDbEntity
  8
KONSTRUKTIONSELEMENTE
100
AcDbLine
 62
7
  6
CONTINUOUS
 10
171.0429103345
 20
188.2974384539
 11
171.0429103345
 21
173.1897432994
  0
LINE
  5
2E5
100
AcDbEntity
  8
0
100
AcDbLine
 62
7
  6
CONTINUOUS
 10
171.2339385046
 20
299.1051336085
 11
171.2339385046
 21
299.7859846508
  0
LINE
  5
2E6
100
AcDbEntity
  8
0
100
AcDbLine
 62
7
  6
CONTINUOUS
 10
171.5672724737
 20
303.871090964
 11
171.5672724737
 21
304.5519419467
  0
LINE
  5
2E7
100
AcDbEntity
  8
KONSTRUKTIONSELEMENTE
100
AcDbLine
 62
7
  6
CONTINUOUS
 10
172.6506054891
 20
293.9051336085
 11
172.6506054891
 21
193.9051336085
  0
LINE
  5
2E8
100
AcDbEntity
  8
KONSTRUKTIONSELEMENTE
100
AcDbLine
 62
7
  6
CONTINUOUS
 10
172.6506054891
 20
165.9051336085
 11
172.6506054891
 21
155.9051336085
  0
LINE
  5
2E9
100
AcDbEntity
  8
0
100
AcDbLine
 62
7
  6
CONTINUOUS
 10
160.56727152
 20
305.9136443889
 11
160.4006054891
 21
305.2327934062
  0
LINE
  5
2EA
100
AcDbEntity
  8
0
100
AcDbLine
 62
7
  6
CONTINUOUS
 10
166.0672724737
 20
304.2115164554
 11
166.2339385046
 21
304.892367438
  0
LINE
  5
2EB
100
AcDbEntity
  8
0
100
AcDbLine
 62
7
  6
CONTINUOUS
 10
155.5672719968
 20
300.4668356931
 11
155.7339385046
 21
300.9774740493
  0
LINE
  5
2EC
100
AcDbEntity
  8
0
100
AcDbLine
 62
7
  6
CONTINUOUS
 10
154.7339385046
 20
304.892367438
 11
154.4006050123
 21
304.2115164554
  0
LINE
  5
2ED
100
AcDbEntity
  8
0
100
AcDbLine
 62
7
  6
CONTINUOUS
 10
154.9006050123
 20
300.9774740493
 11
154.7339385046
 21
300.6370485579
  0
LINE
  5
2EE
100
AcDbEntity
  8
0
100
AcDbLine
 62
7
  6
CONTINUOUS
 10
165.2339385046
 20
304.892367438
 11
164.9006054891
 21
304.2115164554
  0
LINE
  5
2EF
100
AcDbEntity
  8
0
100
AcDbLine
 62
7
  6
CONTINUOUS
 10
158.06727152
 20
299.9561974561
 11
157.0672719968
 21
298.0838570153
  0
LINE
  5
2F0
100
AcDbEntity
  8
0
100
AcDbLine
 62
7
  6
CONTINUOUS
 10
157.9006054891
 20
298.0838570153
 11
158.9006054891
 21
299.9561974561
  0
LINE
  5
2F1
100
AcDbEntity
  8
0
100
AcDbLine
 62
7
  6
CONTINUOUS
 10
150.7339385046
 20
305.2327934062
 11
151.0672718776
 21
305.7434316432
  0
LINE
  5
2F2
100
AcDbEntity
  8
0
100
AcDbLine
 62
7
  6
CONTINUOUS
 10
155.0672719968
 20
303.7008782184
 11
155.4006050123
 21
304.2115164554
  0
LINE
  5
2F3
100
AcDbEntity
  8
0
100
AcDbLine
 62
7
  6
CONTINUOUS
 10
155.2339385046
 20
299.9561974561
 11
155.5672719968
 21
300.4668356931
  0
LINE
  5
2F4
100
AcDbEntity
  8
0
100
AcDbLine
 62
7
  6
CONTINUOUS
 10
161.2339385046
 20
305.2327934062
 11
161.56727152
 21
305.7434316432
  0
LINE
  5
2F5
100
AcDbEntity
  8
0
100
AcDbLine
 62
7
  6
CONTINUOUS
 10
150.7339385046
 20
306.5944953715
 11
150.0672718478
 21
305.9136443889
  0
LINE
  5
2F6
100
AcDbEntity
  8
0
100
AcDbLine
 62
7
  6
CONTINUOUS
 10
154.4006050123
 20
304.2115164554
 11
154.0672719968
 21
303.871090964
  0
LINE
  5
2F7
100
AcDbEntity
  8
0
100
AcDbLine
 62
7
  6
CONTINUOUS
 10
154.7339385046
 20
300.6370485579
 11
154.4006050123
 21
300.2966229474
  0
LINE
  5
2F8
100
AcDbEntity
  8
0
100
AcDbLine
 62
7
  6
CONTINUOUS
 10
161.2339385046
 20
306.5944953715
 11
160.56727152
 21
305.9136443889
  0
LINE
  5
2F9
100
AcDbEntity
  8
0
100
AcDbLine
 62
7
  6
CONTINUOUS
 10
154.4006050123
 20
303.1902399814
 11
155.0672719968
 21
303.7008782184
  0
LINE
  5
2FA
100
AcDbEntity
  8
0
100
AcDbLine
 62
7
  6
CONTINUOUS
 10
151.0672718776
 20
305.7434316432
 11
151.5672718776
 21
306.0838571345
  0
LINE
  5
2FB
100
AcDbEntity
  8
0
100
AcDbLine
 62
7
  6
CONTINUOUS
 10
151.4006051315
 20
306.9349208629
 11
150.7339385046
 21
306.5944953715
  0
LINE
  5
2FC
100
AcDbEntity
  8
RUNDUNGEN
100
AcDbLine
 62
7
  6
CONTINUOUS
 10
209.1506054891
 20
326.4051336085
 11
148.1506054891
 21
326.4051336085
  0
LINE
  5
2FD
100
AcDbEntity
  8
RUNDUNGEN
100
AcDbLine
 62
7
  6
CONTINUOUS
 10
148.1506054891
 20
331.9051336085
 11
209.1506054891
 21
331.9051336085
  0
LINE
  5
2FE
100
AcDbEntity
  8
0
100
AcDbLine
 62
7
  6
CONTINUOUS
 10
155.6506054891
 20
332.2051336085
 11
165.6506054891
 21
332.2051336085
  0
LINE
  5
2FF
100
AcDbEntity
  8
0
100
AcDbLine
 62
7
  6
CONTINUOUS
 10
133.9057637307
 20
363.2719800956
 11
137.4412976367
 21
359.7364461896
  0
LINE
  5
300
100
AcDbEntity
  8
0
100
AcDbLine
 62
7
  6
CONTINUOUS
 10
137.8832393749
 20
360.1783879279
 11
136.3035327137
 21
361.7580945891
  0
LINE
  5
301
100
AcDbEntity
  8
0
100
AcDbLine
 62
7
  6
CONTINUOUS
 10
135.8521880135
 20
362.2094392893
 11
134.7238260524
 21
363.3378012504
  0
LINE
  5
302
100
AcDbEntity
  8
0
100
AcDbLine
 62
7
  6
CONTINUOUS
 10
137.0165948024
 20
364.7278806
 11
137.2422673632
 21
364.5022080392
  0
LINE
  5
303
100
AcDbEntity
  8
0
100
AcDbLine
 62
7
  6
CONTINUOUS
 10
137.7594332181
 20
364.8689256608
 11
137.4585365406
 21
365.1698223383
  0
LINE
  5
304
100
AcDbEntity
  8
0
100
AcDbLine
 62
7
  6
CONTINUOUS
 10
138.3424195957
 20
366.0537053933
 11
138.6433162732
 21
365.7528087158
  0
LINE
  5
305
100
AcDbEntity
  8
0
100
AcDbLine
 62
7
  6
CONTINUOUS
 10
139.0100338947
 20
366.2699745707
 11
138.8595856613
 21
366.4204228041
  0
LINE
  5
306
100
AcDbEntity
  8
0
100
AcDbLine
 62
7
  6
CONTINUOUS
 10
138.1151806472
 20
366.4282593784
 11
138.3424195957
 21
366.0537053933
  0
LINE
  5
307
100
AcDbEntity
  8
0
100
AcDbLine
 62
7
  6
CONTINUOUS
 10
157.83810686
 20
370.1051336085
 11
156.90060686
 21
372.5519421255
  0
LINE
  5
308
100
AcDbEntity
  8
0
100
AcDbLine
 62
7
  6
CONTINUOUS
 10
156.275606711
 20
372.3391761934
 11
157.1089399947
 21
370.1051336085
  0
LINE
  5
309
100
AcDbEntity
  8
0
100
AcDbLine
 62
7
  6
CONTINUOUS
 10
157.0047734273
 20
374.2540698802
 11
157.1089399947
 21
373.9349209821
  0
LINE
  5
30A
100
AcDbEntity
  8
0
100
AcDbLine
 62
7
  6
CONTINUOUS
 10
157.7339399947
 20
373.9349209821
 11
157.6297734273
 21
374.2540698802
  0
LINE
  5
30B
100
AcDbEntity
  8
0
100
AcDbLine
 62
7
  6
CONTINUOUS
 10
159.400606562
 20
371.38172935
 11
159.2964402927
 21
371.8072612142
  0
LINE
  5
30C
100
AcDbEntity
  8
0
100
AcDbLine
 62
7
  6
CONTINUOUS
 10
158.6714399947
 20
371.8072612142
 11
158.77560686
 21
371.275346384
  0
LINE
  5
30D
100
AcDbEntity
  8
KONSTRUKTIONSELEMENTE
100
AcDbLine
 62
7
  6
CONTINUOUS
 10
178.1506054891
 20
294.1051336085
 11
178.1506054891
 21
293.9051336085
  0
LINE
  5
30E
100
AcDbEntity
  8
KONSTRUKTIONSELEMENTE
100
AcDbLine
 62
7
  6
CONTINUOUS
 10
181.4352151799
 20
188.2974384539
 11
181.4352151799
 21
173.1897432994
  0
LINE
  5
30F
100
AcDbEntity
  8
KONSTRUKTIONSELEMENTE
100
AcDbLine
 62
7
  6
CONTINUOUS
 10
182.6506054891
 20
193.9051336085
 11
182.6506054891
 21
189.9051336085
  0
LINE
  5
310
100
AcDbEntity
  8
0
100
AcDbLine
 62
7
  6
CONTINUOUS
 10
165.7339385046
 20
303.7008782184
 11
166.0672724737
 21
304.2115164554
  0
LINE
  5
311
100
AcDbEntity
  8
0
100
AcDbLine
 62
7
  6
CONTINUOUS
 10
164.9006054891
 20
304.2115164554
 11
160.2339385046
 21
299.9561974561
  0
LINE
  5
312
100
AcDbEntity
  8
0
100
AcDbLine
 62
7
  6
CONTINUOUS
 10
161.56727152
 20
299.9561974561
 11
165.7339385046
 21
303.7008782184
  0
LINE
  5
313
100
AcDbEntity
  8
0
100
AcDbLine
 62
7
  6
CONTINUOUS
 10
161.56727152
 20
305.7434316432
 11
162.06727152
 21
306.0838571345
  0
LINE
  5
314
100
AcDbEntity
  8
0
100
AcDbLine
 62
7
  6
CONTINUOUS
 10
154.7339385046
 20
299.6157719051
 11
155.2339385046
 21
299.9561974561
  0
LINE
  5
315
100
AcDbEntity
  8
0
100
AcDbLine
 62
7
  6
CONTINUOUS
 10
161.9006054891
 20
306.9349208629
 11
161.2339385046
 21
306.5944953715
  0
LINE
  5
316
100
AcDbEntity
  8
0
100
AcDbLine
 62
7
  6
CONTINUOUS
 10
154.4006050123
 20
300.2966229474
 11
154.0672719968
 21
300.1264102017
  0
LINE
  5
317
100
AcDbEntity
  8
0
100
AcDbLine
 62
7
  6
CONTINUOUS
 10
154.0672719968
 20
299.2753463691
 11
154.7339385046
 21
299.6157719051
  0
LINE
  5
318
100
AcDbEntity
  8
0
100
AcDbLine
 62
7
  6
CONTINUOUS
 10
154.0672719968
 20
303.871090964
 11
153.0672717584
 21
303.5306654727
  0
LINE
  5
319
100
AcDbEntity
  8
0
100
AcDbLine
 62
7
  6
CONTINUOUS
 10
140.2402618384
 20
362.5354103913
 11
137.8471943364
 21
363.6026526786
  0
LINE
  5
31A
100
AcDbEntity
  8
0
100
AcDbLine
 62
7
  6
CONTINUOUS
 10
137.5557008315
 20
363.010262707
 11
139.7246634247
 21
362.0198119777
  0
LINE
  5
31B
100
AcDbEntity
  8
0
100
AcDbLine
 62
7
  6
CONTINUOUS
 10
134.9275580703
 20
358.1253961289
 11
130.812171563
 21
360.1783879279
  0
LINE
  5
31C
100
AcDbEntity
  8
0
100
AcDbLine
 62
7
  6
CONTINUOUS
 10
130.3702298248
 20
359.7364461896
 11
135.0842750678
 21
357.3794236208
  0
LINE
  5
31D
100
AcDbEntity
  8
0
100
AcDbLine
 62
7
  6
CONTINUOUS
 10
136.7172653555
 20
364.8798958533
 11
137.0165948024
 21
364.7278806
  0
LINE
  5
31E
100
AcDbEntity
  8
0
100
AcDbLine
 62
7
  6
CONTINUOUS
 10
137.4585365406
 20
365.1698223383
 11
137.1592070937
 21
365.3218375915
  0
LINE
  5
31F
100
AcDbEntity
  8
0
100
AcDbLine
 62
7
  6
CONTINUOUS
 10
140.5928753332
 20
364.3925064307
 11
140.2935454648
 21
364.5445212624
  0
LINE
  5
320
100
AcDbEntity
  8
0
100
AcDbLine
 62
7
  6
CONTINUOUS
 10
139.3093637631
 20
366.117959739
 11
139.0100338947
 21
366.2699745707
  0
LINE
  5
321
100
AcDbEntity
  8
0
100
AcDbLine
 62
7
  6
CONTINUOUS
 10
139.851604148
 20
364.1025799457
 11
140.2261572901
 21
363.8753401543
  0
LINE
  5
322
100
AcDbEntity
  8
0
100
AcDbLine
 62
7
  6
CONTINUOUS
 10
138.6433162732
 20
365.7528087158
 11
139.0178702582
 21
365.5255697674
  0
LINE
  5
323
100
AcDbEntity
  8
0
100
AcDbLine
 62
7
  6
CONTINUOUS
 10
141.9845217027
 20
366.5363939671
 11
142.2101940528
 21
366.310721617
  0
LINE
  5
324
100
AcDbEntity
  8
0
100
AcDbLine
 62
7
  6
CONTINUOUS
 10
142.7273599077
 20
366.6774392386
 11
142.3512393242
 21
367.053559822
  0
LINE
  5
325
100
AcDbEntity
  8
0
100
AcDbLine
 62
7
  6
CONTINUOUS
 10
157.6297734273
 20
374.2540698802
 11
157.3172734273
 21
374.6796017444
  0
LINE
  5
326
100
AcDbEntity
  8
0
100
AcDbLine
 62
7
  6
CONTINUOUS
 10
159.6089402927
 20
371.0625804519
 11
159.400606562
 21
371.38172935
  0
LINE
  5
327
100
AcDbEntity
  8
0
100
AcDbLine
 62
7
  6
CONTINUOUS
 10
158.77560686
 20
371.275346384
 11
158.9839402927
 21
370.8498144453
  0
LINE
  5
328
100
AcDbEntity
  8
0
100
AcDbLine
 62
7
  6
CONTINUOUS
 10
167.3172734273
 20
373.9349209821
 11
167.1089396967
 21
374.3604528462
  0
LINE
  5
329
100
AcDbEntity
  8
0
100
AcDbLine
 62
7
  6
CONTINUOUS
 10
166.6922734273
 20
373.828537718
 11
166.7964396967
 21
373.4030058538
  0
LINE
  5
32A
100
AcDbEntity
  8
0
100
AcDbLine
 62
7
  6
CONTINUOUS
 10
167.4214396967
 20
373.4030058538
 11
167.3172734273
 21
373.9349209821
  0
LINE
  5
32B
100
AcDbEntity
  8
BEZUGSACHSEN
100
AcDbLine
 62
7
  6
CONTINUOUS
 10
201.1506054891
 20
323.1051336085
 11
201.1506054891
 21
313.1051336085
  0
LINE
  5
32C
100
AcDbEntity
  8
BEZUGSACHSEN
100
AcDbLine
 62
7
  6
CONTINUOUS
 10
206.1389085602
 20
337.4096930573
 11
203.8523667988
 21
331.9051336085
  0
LINE
  5
32D
100
AcDbEntity
  8
BEZUGSACHSEN
100
AcDbLine
 62
7
  6
CONTINUOUS
 10
201.5677189892
 20
326.4051336085
 11
201.2108392239
 21
325.5459908116
  0
LINE
  5
32E
100
AcDbEntity
  8
BEZUGSACHSEN
100
AcDbLine
 62
7
  6
CONTINUOUS
 10
194.4441177131
 20
309.2559665231
 11
194.1382456716
 21
308.5196183555
  0
LINE
  5
32F
100
AcDbEntity
  8
0
100
AcDbLine
 62
7
  6
CONTINUOUS
 10
141.039518605
 20
364.3878048971
 11
140.5928753332
 21
364.3925064307
  0
LINE
  5
330
100
AcDbEntity
  8
0
100
AcDbLine
 62
7
  6
CONTINUOUS
 10
136.4195033498
 20
364.8830303144
 11
136.7172653555
 21
364.8798958533
  0
LINE
  5
331
100
AcDbEntity
  8
0
100
AcDbLine
 62
7
  6
CONTINUOUS
 10
139.0178702582
 20
365.5255697674
 11
139.6133942695
 21
365.5193008451
  0
LINE
  5
332
100
AcDbEntity
  8
0
100
AcDbLine
 62
7
  6
CONTINUOUS
 10
137.1592070937
 20
365.3218375915
 11
136.6373397578
 21
365.4017631891
  0
LINE
  5
333
100
AcDbEntity
  8
0
100
AcDbLine
 62
7
  6
CONTINUOUS
 10
140.3264559368
 20
368.4890864346
 11
139.8045886009
 21
368.5690120322
  0
LINE
  5
334
100
AcDbEntity
  8
0
100
AcDbLine
 62
7
  6
CONTINUOUS
 10
141.6115350535
 20
366.6147522288
 11
141.9845217027
 21
366.5363939671
  0
LINE
  5
335
100
AcDbEntity
  8
0
100
AcDbLine
 62
7
  6
CONTINUOUS
 10
140.2261572901
 20
363.8753401543
 11
140.8232492432
 21
363.7201907824
  0
LINE
  5
336
100
AcDbEntity
  8
0
100
AcDbLine
 62
7
  6
CONTINUOUS
 10
142.3512393242
 20
367.053559822
 11
141.9030285584
 21
367.2071422005
  0
LINE
  5
337
100
AcDbEntity
  8
0
100
AcDbLine
 62
7
  6
CONTINUOUS
 10
139.9597383152
 20
367.9719205797
 11
140.183844067
 21
367.8951298646
  0
LINE
  5
338
100
AcDbEntity
  8
0
100
AcDbLine
 62
7
  6
CONTINUOUS
 10
140.6257858052
 20
368.3370716028
 11
140.3264559368
 21
368.4890864346
  0
LINE
  5
339
100
AcDbEntity
  8
0
100
AcDbLine
 62
7
  6
CONTINUOUS
 10
159.400606562
 20
370.4242825439
 11
159.8172734273
 21
370.2115165839
  0
LINE
  5
33A
100
AcDbEntity
  8
0
100
AcDbLine
 62
7
  6
CONTINUOUS
 10
159.9214402927
 20
370.8498144453
 11
159.6089402927
 21
371.0625804519
  0
LINE
  5
33B
100
AcDbEntity
  8
0
100
AcDbLine
 62
7
  6
CONTINUOUS
 10
157.3172734273
 20
374.6796017444
 11
156.90060686
 21
374.9987506425
  0
LINE
  5
33C
100
AcDbEntity
  8
0
100
AcDbLine
 62
7
  6
CONTINUOUS
 10
158.9839402927
 20
370.8498144453
 11
159.400606562
 21
370.4242825439
  0
LINE
  5
33D
100
AcDbEntity
  8
0
100
AcDbLine
 62
7
  6
CONTINUOUS
 10
156.7964399947
 20
374.4668358123
 11
157.0047734273
 21
374.2540698802
  0
LINE
  5
33E
100
AcDbEntity
  8
0
100
AcDbLine
 62
7
  6
CONTINUOUS
 10
167.1089396967
 20
374.3604528462
 11
166.6922734273
 21
374.7859847104
  0
LINE
  5
33F
100
AcDbEntity
  8
0
100
AcDbLine
 62
7
  6
CONTINUOUS
 10
166.4839396967
 20
374.1476869142
 11
166.6922734273
 21
373.828537718
  0
LINE
  5
340
100
AcDbEntity
  8
RUNDUNGEN
100
AcDbLine
 62
7
  6
CONTINUOUS
 10
210.6506054891
 20
330.4051336085
 11
210.6506054891
 21
327.9051336085
  0
LINE
  5
341
100
AcDbEntity
  8
0
100
AcDbLine
 62
7
  6
CONTINUOUS
 10
166.1714396967
 20
370.8498144453
 11
165.7547734273
 21
370.7434314793
  0
LINE
  5
342
100
AcDbEntity
  8
0
100
AcDbLine
 62
7
  6
CONTINUOUS
 10
161.1714402927
 20
370.8498144453
 11
160.7547734273
 21
370.7434314793
  0
LINE
  5
343
100
AcDbEntity
  8
0
100
AcDbLine
 62
7
  6
CONTINUOUS
 10
140.8232492432
 20
363.7201907824
 11
141.417205833
 21
363.8628026325
  0
LINE
  5
344
100
AcDbEntity
  8
0
100
AcDbLine
 62
7
  6
CONTINUOUS
 10
165.7547734273
 20
370.1051336085
 11
166.275607158
 21
370.2115165839
  0
LINE
  5
345
100
AcDbEntity
  8
0
100
AcDbLine
 62
7
  6
CONTINUOUS
 10
160.7547734273
 20
370.1051336085
 11
161.275606562
 21
370.2115165839
  0
LINE
  5
346
100
AcDbEntity
  8
0
100
AcDbLine
 62
7
  6
CONTINUOUS
 10
139.6807828656
 20
366.1884823747
 11
139.3093637631
 21
366.117959739
  0
LINE
  5
347
100
AcDbEntity
  8
0
100
AcDbLine
 62
7
  6
CONTINUOUS
 10
141.240115951
 20
366.5442295931
 11
141.6115350535
 21
366.6147522288
  0
LINE
  5
348
100
AcDbEntity
  8
0
100
AcDbLine
 62
7
  6
CONTINUOUS
 10
136.6373397578
 20
365.4017631891
 11
136.1170394418
 21
365.3328075732
  0
LINE
  5
349
100
AcDbEntity
  8
0
100
AcDbLine
 62
7
  6
CONTINUOUS
 10
139.8045886009
 20
368.5690120322
 11
139.2842887063
 21
368.5000568378
  0
LINE
  5
34A
100
AcDbEntity
  8
0
100
AcDbLine
 62
7
  6
CONTINUOUS
 10
153.8797734273
 20
370.1051336085
 11
154.5047734273
 21
370.1051336085
  0
LINE
  5
34B
100
AcDbEntity
  8
0
100
AcDbLine
 62
7
  6
CONTINUOUS
 10
157.1089399947
 20
370.1051336085
 11
157.83810686
 21
370.1051336085
  0
LINE
  5
34C
100
AcDbEntity
  8
0
100
AcDbLine
 62
7
  6
CONTINUOUS
 10
160.338106562
 20
370.1051336085
 11
160.7547734273
 21
370.1051336085
  0
LINE
  5
34D
100
AcDbEntity
  8
0
100
AcDbLine
 62
7
  6
CONTINUOUS
 10
163.2547734273
 20
370.1051336085
 11
165.7547734273
 21
370.1051336085
  0
LINE
  5
34E
100
AcDbEntity
  8
0
100
AcDbLine
 62
7
  6
CONTINUOUS
 10
165.7547734273
 20
370.7434314793
 11
163.8797734273
 21
370.7434314793
  0
LINE
  5
34F
100
AcDbEntity
  8
0
100
AcDbLine
 62
7
  6
CONTINUOUS
 10
160.7547734273
 20
370.7434314793
 11
160.338106562
 21
370.7434314793
  0
LINE
  5
350
100
AcDbEntity
  8
0
100
AcDbLine
 62
7
  6
CONTINUOUS
 10
154.5047734273
 20
372.3391761934
 11
156.275606711
 21
372.3391761934
  0
LINE
  5
351
100
AcDbEntity
  8
0
100
AcDbLine
 62
7
  6
CONTINUOUS
 10
156.4839399947
 20
372.9774739897
 11
154.5047734273
 21
372.9774739897
  0
LINE
  5
352
100
AcDbEntity
  8
0
100
AcDbLine
 62
7
  6
CONTINUOUS
 10
163.8797734273
 20
374.4668358123
 11
165.7547734273
 21
374.4668358123
  0
LINE
  5
353
100
AcDbEntity
  8
0
100
AcDbLine
 62
7
  6
CONTINUOUS
 10
154.5047734273
 20
374.5732187783
 11
156.4839399947
 21
374.5732187783
  0
LINE
  5
354
100
AcDbEntity
  8
0
100
AcDbLine
 62
7
  6
CONTINUOUS
 10
165.7547734273
 20
375.1051336085
 11
163.2547734273
 21
375.1051336085
  0
LINE
  5
355
100
AcDbEntity
  8
0
100
AcDbLine
 62
7
  6
CONTINUOUS
 10
162.4214402927
 20
375.1051336085
 11
161.7964402927
 21
375.1051336085
  0
LINE
  5
356
100
AcDbEntity
  8
0
100
AcDbLine
 62
7
  6
CONTINUOUS
 10
159.2964402927
 20
375.1051336085
 11
158.6714399947
 21
375.1051336085
  0
LINE
  5
357
100
AcDbEntity
  8
0
100
AcDbLine
 62
7
  6
CONTINUOUS
 10
156.3797734273
 20
375.1051336085
 11
153.8797734273
 21
375.1051336085
  0
LINE
  5
358
100
AcDbEntity
  8
0
100
AcDbLine
 62
7
  6
CONTINUOUS
 10
141.9030285584
 20
367.2071422005
 11
141.3075045471
 21
367.2134111227
  0
LINE
  5
359
100
AcDbEntity
  8
0
100
AcDbLine
 62
7
  6
CONTINUOUS
 10
139.6619767311
 20
367.9750554622
 11
139.9597383152
 21
367.9719205797
  0
LINE
  5
35A
100
AcDbEntity
  8
0
100
AcDbLine
 62
7
  6
CONTINUOUS
 10
159.8172734273
 20
370.2115165839
 11
160.338106562
 21
370.1051336085
  0
LINE
  5
35B
100
AcDbEntity
  8
0
100
AcDbLine
 62
7
  6
CONTINUOUS
 10
156.90060686
 20
374.9987506425
 11
156.3797734273
 21
375.1051336085
  0
LINE
  5
35C
100
AcDbEntity
  8
0
100
AcDbLine
 62
7
  6
CONTINUOUS
 10
166.275607158
 20
374.9987506425
 11
165.7547734273
 21
375.1051336085
  0
LINE
  5
35D
100
AcDbEntity
  8
0
100
AcDbLine
 62
7
  6
CONTINUOUS
 10
160.338106562
 20
370.7434314793
 11
159.9214402927
 21
370.8498144453
  0
LINE
  5
35E
100
AcDbEntity
  8
0
100
AcDbLine
 62
7
  6
CONTINUOUS
 10
165.7547734273
 20
374.4668358123
 11
166.1714396967
 21
374.3604528462
  0
LINE
  5
35F
100
AcDbEntity
  8
0
100
AcDbLine
 62
7
  6
CONTINUOUS
 10
156.4839399947
 20
374.5732187783
 11
156.7964399947
 21
374.4668358123
  0
LINE
  5
360
100
AcDbEntity
  8
RUNDUNGEN
100
AcDbLine
 62
7
  6
CONTINUOUS
 10
162.5640226509
 20
383.0625702696
 11
192.3417653048
 21
370.7282254055
  0
LINE
  5
361
100
AcDbEntity
  8
0
100
AcDbLine
 62
7
  6
CONTINUOUS
 10
166.6922734273
 20
374.7859847104
 11
166.275607158
 21
374.9987506425
  0
LINE
  5
362
100
AcDbEntity
  8
0
100
AcDbLine
 62
7
  6
CONTINUOUS
 10
166.1714396967
 20
374.3604528462
 11
166.4839396967
 21
374.1476869142
  0
LINE
  5
363
100
AcDbEntity
  8
0
100
AcDbLine
 62
7
  6
CONTINUOUS
 10
186.9121829481
 20
358.3814094216
 11
187.1107280782
 21
358.2014819638
  0
LINE
  5
364
100
AcDbEntity
  8
0
100
AcDbLine
 62
7
  6
CONTINUOUS
 10
183.8421829481
 20
361.4514094216
 11
184.0407280782
 21
361.2714819638
  0
LINE
  5
365
100
AcDbEntity
  8
0
100
AcDbLine
 62
7
  6
CONTINUOUS
 10
187.21503386
 20
361.1472253764
 11
188.2680571492
 21
360.0942020873
  0
LINE
  5
366
100
AcDbEntity
  8
0
100
AcDbLine
 62
7
  6
CONTINUOUS
 10
188.8094844353
 20
360.6356293734
 11
187.7573426588
 21
361.6877711499
  0
LINE
  5
367
100
AcDbEntity
  8
RUNDUNGEN
100
AcDbLine
 62
7
  6
CONTINUOUS
 10
195.0477458055
 20
368.0222449048
 11
205.8770795724
 21
341.8779204533
  0
LINE
  5
368
100
AcDbEntity
  8
BEZUGSACHSEN
100
AcDbLine
 62
7
  6
CONTINUOUS
 10
205.8770795724
 20
341.8779204533
 11
206.1408322853
 21
341.2411650768
  0
LINE
  5
369
100
AcDbEntity
  8
KONSTRUKTIONSELEMENTE
100
AcDbLine
 62
7
  6
CONTINUOUS
 10
142.6506054891
 20
189.9051336085
 11
139.8659957983
 21
188.2974384539
  0
LINE
  5
36A
100
AcDbEntity
  8
BEZUGSACHSEN
100
AcDbLine
 62
7
  6
CONTINUOUS
 10
181.4352151799
 20
173.1897432994
 11
174.1506054891
 21
165.9051336085
  0
LINE
  5
36B
100
AcDbEntity
  8
KONSTRUKTIONSELEMENTE
100
AcDbLine
 62
7
  6
CONTINUOUS
 10
172.6506054891
 20
155.9051336085
 11
170.6506054891
 21
153.9051336085
  0
LINE
  5
36C
100
AcDbEntity
  8
KONSTRUKTIONSELEMENTE
100
AcDbLine
 62
7
  6
CONTINUOUS
 10
312.2861956049
 20
153.9051336085
 11
332.285961261
 21
153.9051336085
  0
LINE
  5
36D
100
AcDbEntity
  8
KONSTRUKTIONSELEMENTE
100
AcDbLine
 62
7
  6
CONTINUOUS
 10
310.2860784329
 20
155.9051336085
 11
334.2860784329
 21
155.9051336085
  0
LINE
  5
36E
100
AcDbEntity
  8
BEZUGSACHSEN
100
AcDbLine
 62
7
  6
CONTINUOUS
 10
335.7854718476
 20
165.9051336085
 11
308.7866850183
 21
165.9051336085
  0
LINE
  5
36F
100
AcDbEntity
  8
KONSTRUKTIONSELEMENTE
100
AcDbLine
 62
7
  6
CONTINUOUS
 10
310.2860784329
 20
155.9051336085
 11
312.2860784329
 21
153.9051336085
  0
LINE
  5
370
100
AcDbEntity
  8
KONSTRUKTIONSELEMENTE
100
AcDbLine
 62
7
  6
CONTINUOUS
 10
344.2854787775
 20
189.9051336085
 11
300.2866780884
 21
189.9051336085
  0
LINE
  5
371
100
AcDbEntity
  8
KONSTRUKTIONSELEMENTE
100
AcDbLine
 62
7
  6
CONTINUOUS
 10
344.2854787775
 20
193.9051336085
 11
300.2866780884
 21
193.9051336085
  0
LINE
  5
372
100
AcDbEntity
  8
BEZUGSACHSEN
100
AcDbLine
 62
7
  6
CONTINUOUS
 10
304.2310744291
 20
170.4601376124
 11
308.7860784329
 21
165.9051336085
  0
LINE
  5
373
100
AcDbEntity
  8
0
100
AcDbLine
 62
7
  6
CONTINUOUS
 10
292.8554878614
 20
305.9987512474
 11
292.946763681
 21
305.6804376898
  0
LINE
  5
374
100
AcDbEntity
  8
0
100
AcDbLine
 62
7
  6
CONTINUOUS
 10
294.4792172678
 20
300.3361369164
 11
294.8322017862
 21
299.1051336085
  0
LINE
  5
375
100
AcDbEntity
  8
0
100
AcDbLine
 62
7
  6
CONTINUOUS
 10
298.2860784329
 20
327.9051336085
 11
298.2860784329
 21
330.4051336085
  0
LINE
  5
376
100
AcDbEntity
  8
KONSTRUKTIONSELEMENTE
100
AcDbLine
 62
7
  6
CONTINUOUS
 10
300.2860784329
 20
193.9051336085
 11
300.2860784329
 21
189.9051336085
  0
LINE
  5
377
100
AcDbEntity
  8
BEZUGSACHSEN
100
AcDbLine
 62
7
  6
CONTINUOUS
 10
292.1859930616
 20
310.1475377755
 11
293.0583884181
 21
307.1051336085
  0
LINE
  5
378
100
AcDbEntity
  8
BEZUGSACHSEN
100
AcDbLine
 62
7
  6
CONTINUOUS
 10
295.3523515041
 20
299.1051336085
 11
296.7860784329
 21
294.1051336085
  0
LINE
  5
379
100
AcDbEntity
  8
BEZUGSACHSEN
100
AcDbLine
 62
7
  6
CONTINUOUS
 10
304.2860784329
 20
173.1897432994
 11
304.2860784329
 21
170.4050521814
  0
LINE
  5
37A
100
AcDbEntity
  8
KONSTRUKTIONSELEMENTE
100
AcDbLine
 62
7
  6
CONTINUOUS
 10
304.2860784329
 20
173.1897432994
 11
304.2860784329
 21
189.9051336086
  0
LINE
  5
37B
100
AcDbEntity
  8
KONSTRUKTIONSELEMENTE
100
AcDbLine
 62
7
  6
CONTINUOUS
 10
304.7860784329
 20
294.1051336085
 11
304.7860784329
 21
293.9051336085
  0
LINE
  5
37C
100
AcDbEntity
  8
KONSTRUKTIONSELEMENTE
100
AcDbLine
 62
7
  6
CONTINUOUS
 10
310.2860784329
 20
293.9051336085
 11
310.2860784329
 21
193.9051336085
  0
LINE
  5
37D
100
AcDbEntity
  8
KONSTRUKTIONSELEMENTE
100
AcDbLine
 62
7
  6
CONTINUOUS
 10
310.2860784329
 20
165.9051336085
 11
310.2860784329
 21
155.9051336085
  0
LINE
  5
37E
100
AcDbEntity
  8
BEZUGSACHSEN
100
AcDbLine
 62
7
  6
CONTINUOUS
 10
312.7860784329
 20
330.7079535423
 11
312.7860784329
 21
379.4431726071
  0
LINE
  5
37F
100
AcDbEntity
  8
KONSTRUKTIONSELEMENTE
100
AcDbLine
 62
7
  6
CONTINUOUS
 10
322.2860784329
 20
188.2974384539
 11
322.2860784329
 21
173.1897432994
  0
LINE
  5
380
100
AcDbEntity
  8
KONSTRUKTIONSELEMENTE
100
AcDbLine
 62
7
  6
CONTINUOUS
 10
304.7860784329
 20
293.9051336085
 11
339.7860784329
 21
293.9051336085
  0
LINE
  5
381
100
AcDbEntity
  8
BEZUGSACHSEN
100
AcDbLine
 62
7
  6
CONTINUOUS
 10
296.7860784329
 20
294.1051336085
 11
347.7860784329
 21
294.1051336085
  0
LINE
  5
382
100
AcDbEntity
  8
0
100
AcDbLine
 62
7
  6
CONTINUOUS
 10
295.6451978548
 20
298.0838570153
 11
295.2404722874
 21
298.0838570153
  0
LINE
  5
383
100
AcDbEntity
  8
0
100
AcDbLine
 62
7
  6
CONTINUOUS
 10
348.727055676
 20
298.0838570153
 11
349.3316845785
 21
298.0838570153
  0
LINE
  5
384
100
AcDbEntity
  8
0
100
AcDbLine
 62
7
  6
CONTINUOUS
 10
297.1200877549
 20
299.1051336085
 11
296.5673774533
 21
299.1051336085
  0
LINE
  5
385
100
AcDbEntity
  8
0
100
AcDbLine
 62
7
  6
CONTINUOUS
 10
294.832252826
 20
299.1051336085
 11
295.8307856061
 21
299.1051336085
  0
LINE
  5
386
100
AcDbEntity
  8
0
100
AcDbLine
 62
7
  6
CONTINUOUS
 10
348.0722741899
 20
299.1051336085
 11
348.9415802881
 21
299.1051336085
  0
LINE
  5
387
100
AcDbEntity
  8
0
100
AcDbLine
 62
7
  6
CONTINUOUS
 10
349.667293631
 20
299.1051336085
 11
349.7373696534
 21
299.1051336085
  0
LINE
  5
388
100
AcDbEntity
  8
0
100
AcDbLine
 62
7
  6
CONTINUOUS
 10
347.9350990528
 20
299.2753463691
 11
348.4793161952
 21
299.2753463691
  0
LINE
  5
389
100
AcDbEntity
  8
0
100
AcDbLine
 62
7
  6
CONTINUOUS
 10
347.8375017534
 20
299.6157719051
 11
348.3853009429
 21
299.6157719051
  0
LINE
  5
38A
100
AcDbEntity
  8
0
100
AcDbLine
 62
7
  6
CONTINUOUS
 10
296.9004020299
 20
299.7859846508
 11
296.3485371961
 21
299.7859846508
  0
LINE
  5
38B
100
AcDbEntity
  8
0
100
AcDbLine
 62
7
  6
CONTINUOUS
 10
349.1619333818
 20
299.9561974561
 11
348.9197225982
 21
299.9561974561
  0
LINE
  5
38C
100
AcDbEntity
  8
0
100
AcDbLine
 62
7
  6
CONTINUOUS
 10
296.5742435445
 20
299.9561974561
 11
296.0277969624
 21
299.9561974561
  0
LINE
  5
38D
100
AcDbEntity
  8
0
100
AcDbLine
 62
7
  6
CONTINUOUS
 10
295.5785156019
 20
299.9561974561
 11
294.6004653361
 21
299.9561974561
  0
LINE
  5
38E
100
AcDbEntity
  8
0
100
AcDbLine
 62
7
  6
CONTINUOUS
 10
347.782895829
 20
299.9561974561
 11
348.3334629426
 21
299.9561974561
  0
LINE
  5
38F
100
AcDbEntity
  8
0
100
AcDbLine
 62
7
  6
CONTINUOUS
 10
349.5493515599
 20
299.9561974561
 11
349.9814534088
 21
299.9561974561
  0
LINE
  5
390
100
AcDbEntity
  8
0
100
AcDbLine
 62
7
  6
CONTINUOUS
 10
348.8583517656
 20
300.1264102017
 11
349.3898299232
 21
300.1264102017
  0
LINE
  5
391
100
AcDbEntity
  8
0
100
AcDbLine
 62
7
  6
CONTINUOUS
 10
296.3168242712
 20
300.2966229474
 11
295.7735262981
 21
300.2966229474
  0
LINE
  5
392
100
AcDbEntity
  8
0
100
AcDbLine
 62
7
  6
CONTINUOUS
 10
348.9746588918
 20
300.2966229474
 11
349.5049116724
 21
300.2966229474
  0
LINE
  5
393
100
AcDbEntity
  8
0
100
AcDbLine
 62
7
  6
CONTINUOUS
 10
347.8342215428
 20
300.4668356931
 11
348.3863626766
 21
300.4668356931
  0
LINE
  5
394
100
AcDbEntity
  8
0
100
AcDbLine
 62
7
  6
CONTINUOUS
 10
349.1375639192
 20
300.6370485579
 11
349.6666170614
 21
300.6370485579
  0
LINE
  5
395
100
AcDbEntity
  8
0
100
AcDbLine
 62
7
  6
CONTINUOUS
 10
296.1095506582
 20
300.8072613036
 11
295.56757108
 21
300.8072613036
  0
LINE
  5
396
100
AcDbEntity
  8
0
100
AcDbLine
 62
7
  6
CONTINUOUS
 10
347.9417472671
 20
300.9774740493
 11
348.7647893369
 21
300.9774740493
  0
LINE
  5
397
100
AcDbEntity
  8
0
100
AcDbLine
 62
7
  6
CONTINUOUS
 10
349.2678634249
 20
300.9774740493
 11
349.7962992036
 21
300.9774740493
  0
LINE
  5
398
100
AcDbEntity
  8
0
100
AcDbLine
 62
7
  6
CONTINUOUS
 10
349.4697397761
 20
301.6583250319
 11
349.9979672774
 21
301.6583250319
  0
LINE
  5
399
100
AcDbEntity
  8
RUNDUNGEN
100
AcDbLine
 62
7
  6
CONTINUOUS
 10
331.7860784329
 20
330.7079535423
 11
331.7860784329
 21
379.4431726071
  0
LINE
  5
39A
100
AcDbEntity
  8
0
100
AcDbLine
 62
7
  6
CONTINUOUS
 10
332.2860784329
 20
375.1051336085
 11
332.2860784329
 21
370.1051336085
  0
LINE
  5
39B
100
AcDbEntity
  8
0
100
AcDbLine
 62
7
  6
CONTINUOUS
 10
332.2860784329
 20
368.5690120322
 11
332.2860784329
 21
365.5255697674
  0
LINE
  5
39C
100
AcDbEntity
  8
0
100
AcDbLine
 62
7
  6
CONTINUOUS
 10
332.2860784329
 20
365.5193008451
 11
332.2860784329
 21
357.3794236208
  0
LINE
  5
39D
100
AcDbEntity
  8
KONSTRUKTIONSELEMENTE
100
AcDbLine
 62
7
  6
CONTINUOUS
 10
334.2860784329
 20
293.9051336085
 11
334.2860784329
 21
193.9051336085
  0
LINE
  5
39E
100
AcDbEntity
  8
KONSTRUKTIONSELEMENTE
100
AcDbLine
 62
7
  6
CONTINUOUS
 10
334.2860784329
 20
165.9051336085
 11
334.2860784329
 21
155.9051336085
  0
LINE
  5
39F
100
AcDbEntity
  8
0
100
AcDbLine
 62
7
  6
CONTINUOUS
 10
349.6139704956
 20
302.339176253
 11
350.1429705898
 21
302.339176253
  0
LINE
  5
3A0
100
AcDbEntity
  8
0
100
AcDbLine
 62
7
  6
CONTINUOUS
 10
349.6231260808
 20
302.6796017444
 11
350.1535749753
 21
302.6796017444
  0
LINE
  5
3A1
100
AcDbEntity
  8
0
100
AcDbLine
 62
7
  6
CONTINUOUS
 10
349.3121778663
 20
302.84981449
 11
350.0013086038
 21
302.84981449
  0
LINE
  5
3A2
100
AcDbEntity
  8
0
100
AcDbLine
 62
7
  6
CONTINUOUS
 10
349.5205078228
 20
303.5306654727
 11
350.207233917
 21
303.5306654727
  0
LINE
  5
3A3
100
AcDbEntity
  8
0
100
AcDbLine
 62
7
  6
CONTINUOUS
 10
294.395375202
 20
303.7008782184
 11
293.8694145729
 21
303.7008782184
  0
LINE
  5
3A4
100
AcDbEntity
  8
0
100
AcDbLine
 62
7
  6
CONTINUOUS
 10
294.6178111871
 20
303.871090964
 11
295.6989871383
 21
303.871090964
  0
LINE
  5
3A5
100
AcDbEntity
  8
0
100
AcDbLine
 62
7
  6
CONTINUOUS
 10
294.125955571
 20
303.871090964
 11
294.4115724402
 21
303.871090964
  0
LINE
  5
3A6
100
AcDbEntity
  8
0
100
AcDbLine
 62
7
  6
CONTINUOUS
 10
349.9792535813
 20
303.871090964
 11
350.5092618337
 21
303.871090964
  0
LINE
  5
3A7
100
AcDbEntity
  8
0
100
AcDbLine
 62
7
  6
CONTINUOUS
 10
294.0240001732
 20
304.2115164554
 11
293.7676218588
 21
304.2115164554
  0
LINE
  5
3A8
100
AcDbEntity
  8
0
100
AcDbLine
 62
7
  6
CONTINUOUS
 10
350.141303603
 20
304.2115164554
 11
350.6701922215
 21
304.2115164554
  0
LINE
  5
3A9
100
AcDbEntity
  8
0
100
AcDbLine
 62
7
  6
CONTINUOUS
 10
350.8290049401
 20
304.2115164554
 11
350.9592520027
 21
304.2115164554
  0
LINE
  5
3AA
100
AcDbEntity
  8
0
100
AcDbLine
 62
7
  6
CONTINUOUS
 10
295.4810280042
 20
304.5519419467
 11
294.4075454175
 21
304.5519419467
  0
LINE
  5
3AB
100
AcDbEntity
  8
0
100
AcDbLine
 62
7
  6
CONTINUOUS
 10
294.203991516
 20
304.5519419467
 11
293.9220834781
 21
304.5519419467
  0
LINE
  5
3AC
100
AcDbEntity
  8
0
100
AcDbLine
 62
7
  6
CONTINUOUS
 10
294.1002872632
 20
304.892367438
 11
293.5920872169
 21
304.892367438
  0
LINE
  5
3AD
100
AcDbEntity
  8
0
100
AcDbLine
 62
7
  6
CONTINUOUS
 10
350.4000672766
 20
304.892367438
 11
350.9278259699
 21
304.892367438
  0
LINE
  5
3AE
100
AcDbEntity
  8
0
100
AcDbLine
 62
7
  6
CONTINUOUS
 10
351.0525287731
 20
304.892367438
 11
351.1179617385
 21
304.892367438
  0
LINE
  5
3AF
100
AcDbEntity
  8
0
100
AcDbLine
 62
7
  6
CONTINUOUS
 10
293.9966313386
 20
305.2327934062
 11
293.4917235734
 21
305.2327934062
  0
LINE
  5
3B0
100
AcDbEntity
  8
0
100
AcDbLine
 62
7
  6
CONTINUOUS
 10
293.3547273432
 20
305.2327934062
 11
293.0795990617
 21
305.2327934062
  0
LINE
  5
3B1
100
AcDbEntity
  8
0
100
AcDbLine
 62
7
  6
CONTINUOUS
 10
349.3611269747
 20
305.2327934062
 11
350.1523077483
 21
305.2327934062
  0
LINE
  5
3B2
100
AcDbEntity
  8
0
100
AcDbLine
 62
7
  6
CONTINUOUS
 10
350.5008628199
 20
305.2327934062
 11
351.028528289
 21
305.2327934062
  0
LINE
  5
3B3
100
AcDbEntity
  8
0
100
AcDbLine
 62
7
  6
CONTINUOUS
 10
351.1524221124
 20
305.2327934062
 11
351.4962117911
 21
305.2327934062
  0
LINE
  5
3B4
100
AcDbEntity
  8
0
100
AcDbLine
 62
7
  6
CONTINUOUS
 10
293.166449704
 20
305.7434316432
 11
292.9396488183
 21
305.7434316432
  0
LINE
  5
3B5
100
AcDbEntity
  8
0
100
AcDbLine
 62
7
  6
CONTINUOUS
 10
350.5965862243
 20
305.7434316432
 11
351.1250033899
 21
305.7434316432
  0
LINE
  5
3B6
100
AcDbEntity
  8
0
100
AcDbLine
 62
7
  6
CONTINUOUS
 10
294.5260632261
 20
305.9136443889
 11
293.2666116077
 21
305.9136443889
  0
LINE
  5
3B7
100
AcDbEntity
  8
0
100
AcDbLine
 62
7
  6
CONTINUOUS
 10
349.6284098118
 20
305.9136443889
 11
350.1738056796
 21
305.9136443889
  0
LINE
  5
3B8
100
AcDbEntity
  8
0
100
AcDbLine
 62
7
  6
CONTINUOUS
 10
351.3292312955
 20
305.9136443889
 11
351.6921741161
 21
305.9136443889
  0
LINE
  5
3B9
100
AcDbEntity
  8
0
100
AcDbLine
 62
7
  6
CONTINUOUS
 10
293.0146340181
 20
306.0838571345
 11
292.8570917932
 21
306.0838571345
  0
LINE
  5
3BA
100
AcDbEntity
  8
0
100
AcDbLine
 62
7
  6
CONTINUOUS
 10
350.6367288345
 20
306.0838571345
 11
351.1388546421
 21
306.0838571345
  0
LINE
  5
3BB
100
AcDbEntity
  8
0
100
AcDbLine
 62
7
  6
CONTINUOUS
 10
292.8478137488
 20
306.2540698802
 11
292.8926329599
 21
306.2540698802
  0
LINE
  5
3BC
100
AcDbEntity
  8
0
100
AcDbLine
 62
7
  6
CONTINUOUS
 10
350.8861641471
 20
306.2540698802
 11
351.0290599075
 21
306.2540698802
  0
LINE
  5
3BD
100
AcDbEntity
  8
0
100
AcDbLine
 62
7
  6
CONTINUOUS
 10
293.5020790829
 20
306.5944953715
 11
292.9773779162
 21
306.5944953715
  0
LINE
  5
3BE
100
AcDbEntity
  8
0
100
AcDbLine
 62
7
  6
CONTINUOUS
 10
350.0356882204
 20
306.5944953715
 11
350.5771968273
 21
306.5944953715
  0
LINE
  5
3BF
100
AcDbEntity
  8
0
100
AcDbLine
 62
7
  6
CONTINUOUS
 10
351.4310699826
 20
306.5944953715
 11
351.8831387502
 21
306.5944953715
  0
LINE
  5
3C0
100
AcDbEntity
  8
0
100
AcDbLine
 62
7
  6
CONTINUOUS
 10
293.3248460133
 20
306.9349208629
 11
292.8013959678
 21
306.9349208629
  0
LINE
  5
3C1
100
AcDbEntity
  8
0
100
AcDbLine
 62
7
  6
CONTINUOUS
 10
350.318785651
 20
306.9349208629
 11
350.8570786149
 21
306.9349208629
  0
LINE
  5
3C2
100
AcDbEntity
  8
0
100
AcDbLine
 62
7
  6
CONTINUOUS
 10
351.4649607284
 20
306.9349208629
 11
351.9652070655
 21
306.9349208629
  0
LINE
  5
3C3
100
AcDbEntity
  8
0
100
AcDbLine
 62
7
  6
CONTINUOUS
 10
293.1816222526
 20
307.1051336085
 11
292.6126406541
 21
307.1051336085
  0
LINE
  5
3C4
100
AcDbEntity
  8
0
100
AcDbLine
 62
7
  6
CONTINUOUS
 10
350.6473657398
 20
307.1051336085
 11
351.2513369829
 21
307.1051336085
  0
LINE
  5
3C5
100
AcDbEntity
  8
0
100
AcDbLine
 62
7
  6
CONTINUOUS
 10
351.5137684478
 20
307.1051336085
 11
351.9595162118
 21
307.1051336085
  0
LINE
  5
3C6
100
AcDbEntity
  8
KONSTRUKTIONSELEMENTE
100
AcDbLine
 62
7
  6
CONTINUOUS
 10
339.7860784329
 20
294.1051336085
 11
339.7860784329
 21
293.9051336085
  0
LINE
  5
3C7
100
AcDbEntity
  8
KONSTRUKTIONSELEMENTE
100
AcDbLine
 62
7
  6
CONTINUOUS
 10
340.2860784329
 20
189.9051336086
 11
340.2860784329
 21
173.1897432994
  0
LINE
  5
3C8
100
AcDbEntity
  8
BEZUGSACHSEN
100
AcDbLine
 62
7
  6
CONTINUOUS
 10
340.2860784329
 20
170.4050521814
 11
340.2860784329
 21
173.1897432994
  0
LINE
  5
3C9
100
AcDbEntity
  8
KONSTRUKTIONSELEMENTE
100
AcDbLine
 62
7
  6
CONTINUOUS
 10
344.2860784329
 20
193.9051336085
 11
344.2860784329
 21
189.9051336085
  0
LINE
  5
3CA
100
AcDbEntity
  8
0
100
AcDbLine
 62
7
  6
CONTINUOUS
 10
346.2860784329
 20
327.9051336085
 11
346.2860784329
 21
330.4051336085
  0
LINE
  5
3CB
100
AcDbEntity
  8
0
100
AcDbLine
 62
7
  6
CONTINUOUS
 10
298.2199389336
 20
316.3034924026
 11
301.3043272954
 21
317.4261179572
  0
LINE
  5
3CC
100
AcDbEntity
  8
BEZUGSACHSEN
100
AcDbLine
 62
7
  6
CONTINUOUS
 10
294.662959272
 20
315.0088576819
 11
304.2322036943
 21
318.491777816
  0
LINE
  5
3CD
100
AcDbEntity
  8
0
100
AcDbLine
 62
7
  6
CONTINUOUS
 10
346.3522179323
 20
316.3034924026
 11
343.2678295705
 21
317.4261179572
  0
LINE
  5
3CE
100
AcDbEntity
  8
RUNDUNGEN
100
AcDbLine
 62
7
  6
CONTINUOUS
 10
349.9091975938
 20
315.0088576819
 11
340.3399531715
 21
318.491777816
  0
LINE
  5
3CF
100
AcDbEntity
  8
0
100
AcDbLine
 62
7
  6
CONTINUOUS
 10
347.7860784329
 20
294.1051336085
 11
348.926959011
 21
298.0838570153
  0
LINE
  5
3D0
100
AcDbEntity
  8
0
100
AcDbLine
 62
7
  6
CONTINUOUS
 10
350.3743072843
 20
303.1313602888
 11
350.4207857602
 21
303.2934499968
  0
LINE
  5
3D1
100
AcDbEntity
  8
0
100
AcDbLine
 62
7
  6
CONTINUOUS
 10
351.4267809923
 20
306.8017722996
 11
352.3861638043
 21
310.1475377755
  0
LINE
  5
3D2
100
AcDbEntity
  8
0
100
AcDbLine
 62
7
  6
CONTINUOUS
 10
351.7166690045
 20
305.9987512474
 11
351.6921741161
 21
305.9136443889
  0
LINE
  5
3D3
100
AcDbEntity
  8
0
100
AcDbLine
 62
7
  6
CONTINUOUS
 10
350.0932048243
 20
300.3361023512
 11
349.9814534088
 21
299.9561974561
  0
LINE
  5
3D4
100
AcDbEntity
  8
RUNDUNGEN
100
AcDbLine
 62
7
  6
CONTINUOUS
 10
344.7860546255
 20
326.4051336085
 11
332.5228805318
 21
326.4051336085
  0
LINE
  5
3D5
100
AcDbEntity
  8
RUNDUNGEN
100
AcDbLine
 62
7
  6
CONTINUOUS
 10
312.0495047673
 20
326.4051336085
 11
299.7861021499
 21
326.4051336085
  0
LINE
  5
3D6
100
AcDbEntity
  8
RUNDUNGEN
100
AcDbLine
 62
7
  6
CONTINUOUS
 10
299.7861021499
 20
331.9051336085
 11
312.7860784329
 21
331.9051336085
  0
LINE
  5
3D7
100
AcDbEntity
  8
RUNDUNGEN
100
AcDbLine
 62
7
  6
CONTINUOUS
 10
331.7860784329
 20
331.9051336085
 11
344.7860546256
 21
331.9051336085
  0
LINE
  5
3D8
100
AcDbEntity
  8
0
100
AcDbLine
 62
7
  6
CONTINUOUS
 10
331.7860784329
 20
357.3794236208
 11
332.2860784329
 21
357.3794236208
  0
LINE
  5
3D9
100
AcDbEntity
  8
0
100
AcDbLine
 62
7
  6
CONTINUOUS
 10
331.7860784329
 20
359.7364461896
 11
332.2860784329
 21
359.7364461896
  0
LINE
  5
3DA
100
AcDbEntity
  8
0
100
AcDbLine
 62
7
  6
CONTINUOUS
 10
331.7860784329
 20
360.1783879279
 11
332.2860784329
 21
360.1783879279
  0
LINE
  5
3DB
100
AcDbEntity
  8
0
100
AcDbLine
 62
7
  6
CONTINUOUS
 10
331.7860784329
 20
362.2407826361
 11
332.2860784329
 21
362.2407826361
  0
LINE
  5
3DC
100
AcDbEntity
  8
0
100
AcDbLine
 62
7
  6
CONTINUOUS
 10
331.7860784329
 20
362.6827243743
 11
332.2860784329
 21
362.6827243743
  0
LINE
  5
3DD
100
AcDbEntity
  8
0
100
AcDbLine
 62
7
  6
CONTINUOUS
 10
331.7860784329
 20
363.2719800956
 11
332.2860784329
 21
363.2719800956
  0
LINE
  5
3DE
100
AcDbEntity
  8
0
100
AcDbLine
 62
7
  6
CONTINUOUS
 10
331.7860784329
 20
365.0397470485
 11
332.2860784329
 21
365.0397470485
  0
LINE
  5
3DF
100
AcDbEntity
  8
0
100
AcDbLine
 62
7
  6
CONTINUOUS
 10
331.7860784329
 20
365.3328075732
 11
332.2860784329
 21
365.3328075732
  0
LINE
  5
3E0
100
AcDbEntity
  8
0
100
AcDbLine
 62
7
  6
CONTINUOUS
 10
331.7860784329
 20
365.4017631891
 11
332.2860784329
 21
365.4017631891
  0
LINE
  5
3E1
100
AcDbEntity
  8
0
100
AcDbLine
 62
7
  6
CONTINUOUS
 10
331.7860784329
 20
365.5193008451
 11
332.2860784329
 21
365.5193008451
  0
LINE
  5
3E2
100
AcDbEntity
  8
0
100
AcDbLine
 62
7
  6
CONTINUOUS
 10
331.7860784329
 20
365.5255697674
 11
332.2860784329
 21
365.5255697674
  0
LINE
  5
3E3
100
AcDbEntity
  8
0
100
AcDbLine
 62
7
  6
CONTINUOUS
 10
331.7860784329
 20
365.7528087158
 11
332.2860784329
 21
365.7528087158
  0
LINE
  5
3E4
100
AcDbEntity
  8
0
100
AcDbLine
 62
7
  6
CONTINUOUS
 10
331.7860784329
 20
366.0537053933
 11
332.2860784329
 21
366.0537053933
  0
LINE
  5
3E5
100
AcDbEntity
  8
0
100
AcDbLine
 62
7
  6
CONTINUOUS
 10
331.7860784329
 20
366.4282593784
 11
332.2860784329
 21
366.4282593784
  0
LINE
  5
3E6
100
AcDbEntity
  8
0
100
AcDbLine
 62
7
  6
CONTINUOUS
 10
331.7860784329
 20
367.0237833897
 11
332.2860784329
 21
367.0237833897
  0
LINE
  5
3E7
100
AcDbEntity
  8
0
100
AcDbLine
 62
7
  6
CONTINUOUS
 10
331.7860784329
 20
367.4688591676
 11
332.2860784329
 21
367.4688591676
  0
LINE
  5
3E8
100
AcDbEntity
  8
0
100
AcDbLine
 62
7
  6
CONTINUOUS
 10
331.7860784329
 20
367.8387116717
 11
332.2860784329
 21
367.8387116717
  0
LINE
  5
3E9
100
AcDbEntity
  8
0
100
AcDbLine
 62
7
  6
CONTINUOUS
 10
331.7860784329
 20
368.2069958916
 11
332.2860784329
 21
368.2069958916
  0
LINE
  5
3EA
100
AcDbEntity
  8
0
100
AcDbLine
 62
7
  6
CONTINUOUS
 10
331.7860784329
 20
368.5000568378
 11
332.2860784329
 21
368.5000568378
  0
LINE
  5
3EB
100
AcDbEntity
  8
0
100
AcDbLine
 62
7
  6
CONTINUOUS
 10
331.7860784329
 20
368.5690120322
 11
332.2860784329
 21
368.5690120322
  0
LINE
  5
3EC
100
AcDbEntity
  8
0
100
AcDbLine
 62
7
  6
CONTINUOUS
 10
331.7860784329
 20
370.1051336085
 11
332.2860784329
 21
370.1051336085
  0
LINE
  5
3ED
100
AcDbEntity
  8
0
100
AcDbLine
 62
7
  6
CONTINUOUS
 10
331.7860784329
 20
375.1051336085
 11
332.2860784329
 21
375.1051336085
  0
LINE
  5
3EE
100
AcDbEntity
  8
RUNDUNGEN
100
AcDbLine
 62
7
  6
CONTINUOUS
 10
327.7860784329
 20
383.4431726071
 11
316.7860784329
 21
383.4431726071
  0
LINE
  5
3EF
100
AcDbEntity
  8
BEZUGSACHSEN
100
AcDbLine
 62
7
  6
CONTINUOUS
 10
340.3410824368
 20
170.4601376124
 11
335.7860784329
 21
165.9051336085
  0
LINE
  5
3F0
100
AcDbEntity
  8
KONSTRUKTIONSELEMENTE
100
AcDbLine
 62
7
  6
CONTINUOUS
 10
334.2860784329
 20
155.9051336085
 11
332.2860784329
 21
153.9051336085
  0
LWPOLYLINE
  5
3F1
100
AcDbEntity
  8
BEZUGSACHSEN
100
AcDbPolyline
 62
7
  6
CONTINUOUS
 90
13
 70
0
 10
126.7824490504
 20
89.9875243025
 10
126.283021742
 20
89.4284472176
 10
125.8253949364
 20
88.922503137
 10
125.3977232333
 20
88.4587554491
 10
124.9992245711
 20
88.0380933266
 10
124.6248787326
 20
87.6565120896
 10
124.2797435998
 20
87.3197578735
 10
123.9669692296
 20
87.0302565643
 10
123.6870751547
 20
86.7867620624
 10
123.4428837889
 20
86.5889842955
 10
123.2312103932
 20
86.431029188
 10
123.0509512417
 20
86.3086474179
 10
122.9027682192
 20
86.2186071871
  0
LWPOLYLINE
  5
3F2
100
AcDbEntity
  8
BEZUGSACHSEN
100
AcDbPolyline
 62
7
  6
CONTINUOUS
 90
8
 70
0
 10
132.6732659097
 20
96.2221218053
 10
131.8898288737
 20
95.4704250414
 10
131.0157475547
 20
94.5985339735
 10
130.1734887536
 20
93.7265339848
 10
129.3774176711
 20
92.8762150925
 10
128.6350606896
 20
92.0635292225
 10
127.9522637542
 20
91.3032541141
 10
126.7824490504
 20
89.9875243025
  0
LWPOLYLINE
  5
3F3
100
AcDbEntity
  8
BEZUGSACHSEN
100
AcDbPolyline
 62
7
  6
CONTINUOUS
 90
3
 70
0
 10
122.9027682192
 20
86.2186071871
 10
122.7871990623
 20
86.1571088269
 10
122.7130383411
 20
86.1235904814
  0
LWPOLYLINE
  5
3F4
100
AcDbEntity
  8
RUNDUNGEN
100
AcDbPolyline
 62
7
  6
CONTINUOUS
 90
7
 70
0
 10
114.779787207
 20
76.6235904809
 10
114.785814853
 20
75.7591916003
 10
114.8089042133
 20
74.7228047617
 10
114.8496202463
 20
73.6772916959
 10
114.9082785288
 20
72.6244473981
 10
114.9850905356
 20
71.5660663186
 10
115.0565768134
 20
70.7491756713
  0
LWPOLYLINE
  5
3F5
100
AcDbEntity
  8
BEZUGSACHSEN
100
AcDbPolyline
 62
7
  6
CONTINUOUS
 90
7
 70
0
 10
115.0565768134
 20
82.4980052914
 10
114.9850905356
 20
81.6811146442
 10
114.9082785288
 20
80.6227335647
 10
114.8496202463
 20
79.5698892669
 10
114.8089042133
 20
78.5243762011
 10
114.785814853
 20
77.4879893624
 10
114.779787207
 20
76.6235904809
  0
LINE
  5
3F6
100
AcDbEntity
  8
0
100
AcDbLine
 62
7
  6
CONTINUOUS
 10
130.3702298248
 20
67.1235904814
 11
130.3702298248
 21
66.6235904814
  0
LINE
  5
3F7
100
AcDbEntity
  8
0
100
AcDbLine
 62
7
  6
CONTINUOUS
 10
130.812171563
 20
67.1235904814
 11
130.812171563
 21
66.6235904814
  0
LINE
  5
3F8
100
AcDbEntity
  8
0
100
AcDbLine
 62
7
  6
CONTINUOUS
 10
132.8745662713
 20
67.1235904814
 11
132.8745662713
 21
66.6235904814
  0
LINE
  5
3F9
100
AcDbEntity
  8
0
100
AcDbLine
 62
7
  6
CONTINUOUS
 10
133.3165080095
 20
67.1235904814
 11
133.3165080095
 21
66.6235904814
  0
LINE
  5
3FA
100
AcDbEntity
  8
0
100
AcDbLine
 62
7
  6
CONTINUOUS
 10
133.9057637307
 20
67.1235904814
 11
133.9057637307
 21
66.6235904814
  0
LINE
  5
3FB
100
AcDbEntity
  8
0
100
AcDbLine
 62
7
  6
CONTINUOUS
 10
135.6735306837
 20
67.1235904814
 11
135.6735306837
 21
66.6235904814
  0
LINE
  5
3FC
100
AcDbEntity
  8
0
100
AcDbLine
 62
7
  6
CONTINUOUS
 10
136.1170394418
 20
67.1235904814
 11
136.1170394418
 21
66.6235904814
  0
LINE
  5
3FD
100
AcDbEntity
  8
0
100
AcDbLine
 62
7
  6
CONTINUOUS
 10
136.6373397578
 20
67.1235904814
 11
136.6373397578
 21
66.6235904814
  0
LINE
  5
3FE
100
AcDbEntity
  8
0
100
AcDbLine
 62
7
  6
CONTINUOUS
 10
137.1592070937
 20
67.1235904814
 11
137.1592070937
 21
66.6235904814
  0
LINE
  5
3FF
100
AcDbEntity
  8
0
100
AcDbLine
 62
7
  6
CONTINUOUS
 10
137.4585365406
 20
67.1235904814
 11
137.4585365406
 21
66.6235904814
  0
LINE
  5
400
100
AcDbEntity
  8
0
100
AcDbLine
 62
7
  6
CONTINUOUS
 10
137.7594332181
 20
67.1235904814
 11
137.7594332181
 21
66.6235904814
  0
LINE
  5
401
100
AcDbEntity
  8
0
100
AcDbLine
 62
7
  6
CONTINUOUS
 10
137.9114484713
 20
67.1235904814
 11
137.9114484713
 21
66.6235904814
  0
LINE
  5
402
100
AcDbEntity
  8
0
100
AcDbLine
 62
7
  6
CONTINUOUS
 10
137.991374069
 20
67.1235904814
 11
137.991374069
 21
66.6235904814
  0
LINE
  5
403
100
AcDbEntity
  8
0
100
AcDbLine
 62
7
  6
CONTINUOUS
 10
138.108911725
 20
67.1235904814
 11
138.108911725
 21
66.6235904814
  0
LINE
  5
404
100
AcDbEntity
  8
0
100
AcDbLine
 62
7
  6
CONTINUOUS
 10
138.2530910361
 20
67.1235904814
 11
138.2530910361
 21
66.6235904814
  0
LINE
  5
405
100
AcDbEntity
  8
0
100
AcDbLine
 62
7
  6
CONTINUOUS
 10
138.4724953069
 20
67.1235904814
 11
138.4724953069
 21
66.6235904814
  0
LINE
  5
406
100
AcDbEntity
  8
0
100
AcDbLine
 62
7
  6
CONTINUOUS
 10
138.8407795268
 20
67.1235904814
 11
138.8407795268
 21
66.6235904814
  0
LINE
  5
407
100
AcDbEntity
  8
0
100
AcDbLine
 62
7
  6
CONTINUOUS
 10
139.2842887063
 20
67.1235904814
 11
139.2842887063
 21
66.6235904814
  0
LINE
  5
408
100
AcDbEntity
  8
0
100
AcDbLine
 62
7
  6
CONTINUOUS
 10
139.8045886009
 20
67.1235904814
 11
139.8045886009
 21
66.6235904814
  0
LINE
  5
409
100
AcDbEntity
  8
0
100
AcDbLine
 62
7
  6
CONTINUOUS
 10
140.3264559368
 20
67.1235904814
 11
140.3264559368
 21
66.6235904814
  0
LINE
  5
40A
100
AcDbEntity
  8
0
100
AcDbLine
 62
7
  6
CONTINUOUS
 10
140.6257858052
 20
67.1235904814
 11
140.6257858052
 21
66.6235904814
  0
LINE
  5
40B
100
AcDbEntity
  8
0
100
AcDbLine
 62
7
  6
CONTINUOUS
 10
140.8624279263
 20
67.1235904814
 11
140.8624279263
 21
66.6235904814
  0
LINE
  5
40C
100
AcDbEntity
  8
0
100
AcDbLine
 62
7
  6
CONTINUOUS
 10
141.3075045471
 20
67.1235904814
 11
141.3075045471
 21
66.6235904814
  0
LINE
  5
40D
100
AcDbEntity
  8
0
100
AcDbLine
 62
7
  6
CONTINUOUS
 10
141.9030285584
 20
67.1235904814
 11
141.9030285584
 21
66.6235904814
  0
LINE
  5
40E
100
AcDbEntity
  8
0
100
AcDbLine
 62
7
  6
CONTINUOUS
 10
142.3512393242
 20
67.1235904814
 11
142.3512393242
 21
66.6235904814
  0
LINE
  5
40F
100
AcDbEntity
  8
0
100
AcDbLine
 62
7
  6
CONTINUOUS
 10
142.7273599077
 20
67.1235904814
 11
142.7273599077
 21
66.6235904814
  0
LINE
  5
410
100
AcDbEntity
  8
0
100
AcDbLine
 62
7
  6
CONTINUOUS
 10
142.8809422334
 20
67.1235904814
 11
142.8809422334
 21
66.6235904814
  0
LINE
  5
411
100
AcDbEntity
  8
0
100
AcDbLine
 62
7
  6
CONTINUOUS
 10
142.887211182
 20
67.1235904814
 11
142.887211182
 21
66.6235904814
  0
LINE
  5
412
100
AcDbEntity
  8
0
100
AcDbLine
 62
7
  6
CONTINUOUS
 10
158.0672724737
 20
91.6235904814
 11
157.6607947842
 21
90.4612372616
  0
LWPOLYLINE
  5
413
100
AcDbEntity
  8
RUNDUNGEN
100
AcDbPolyline
 62
7
  6
CONTINUOUS
 90
7
 70
0
 10
127.9575151783
 20
61.9380442133
 10
128.6372306818
 20
61.1812526766
 10
129.3760033826
 20
60.3724972904
 10
130.1688823965
 20
59.5254971152
 10
131.0094457372
 20
58.6550579051
 10
131.8851176982
 20
57.7813621738
 10
132.6732656641
 20
57.0250593887
  0
LINE
  5
414
100
AcDbEntity
  8
RUNDUNGEN
100
AcDbLine
 62
7
  6
CONTINUOUS
 10
126.2891534866
 20
63.8119046221
 11
127.9575151783
 21
61.9380442133
  0
LWPOLYLINE
  5
415
100
AcDbEntity
  8
RUNDUNGEN
100
AcDbPolyline
 62
7
  6
CONTINUOUS
 90
30
 70
0
 10
132.6732830122
 20
57.0250268103
 10
133.9171863507
 20
55.9068946951
 10
135.3348588928
 20
54.7492168058
 10
136.8135906066
 20
53.6579339897
 10
138.3528392248
 20
52.6335609658
 10
139.9513965938
 20
51.6776110794
 10
141.6078631547
 20
50.7919486451
 10
143.3211278671
 20
49.9786332338
 10
145.0892535562
 20
49.2402211035
 10
146.9119304639
 20
48.5788816626
 10
148.7826197814
 20
47.9988774278
 10
150.6965267374
 20
47.5033160629
 10
152.6462849575
 20
47.0952457715
 10
154.6247650235
 20
46.7768546646
 10
156.6243513059
 20
46.5494057744
 10
158.6378792439
 20
46.4134359804
 10
160.6581023137
 20
46.368552513
 10
162.6782992944
 20
46.4141081646
 10
164.6917539433
 20
46.5507564403
 10
166.69121593
 20
46.7788837075
 10
168.6695171541
 20
47.0979471748
 10
170.6190474075
 20
47.5066791122
 10
172.5326830567
 20
48.0028867431
 10
174.4030622959
 20
48.5835185473
 10
176.2253933408
 20
49.2454641109
 10
177.9931425261
 20
49.9844591124
 10
179.7060019592
 20
50.7983335064
 10
181.3620369609
 20
51.6845308118
 10
182.9601373556
 20
52.6409904747
 10
183.7547844463
 20
53.1702453673
  0
LINE
  5
416
100
AcDbEntity
  8
0
100
AcDbLine
 62
7
  6
CONTINUOUS
 10
153.8797734273
 20
67.1235904814
 11
153.8797734273
 21
66.6235904814
  0
LINE
  5
417
100
AcDbEntity
  8
0
100
AcDbLine
 62
7
  6
CONTINUOUS
 10
154.8172724737
 20
91.6235904814
 11
154.8172724737
 21
89.342324151
  0
LINE
  5
418
100
AcDbEntity
  8
0
100
AcDbLine
 62
7
  6
CONTINUOUS
 10
155.3172724737
 20
89.5558911041
 11
155.3172724737
 21
90.7725267531
  0
LINE
  5
419
100
AcDbEntity
  8
0
100
AcDbLine
 62
7
  6
CONTINUOUS
 10
156.3797734273
 20
67.1235904814
 11
156.3797734273
 21
66.6235904814
  0
LINE
  5
41A
100
AcDbEntity
  8
0
100
AcDbLine
 62
7
  6
CONTINUOUS
 10
156.90060686
 20
67.1235904814
 11
156.90060686
 21
66.6235904814
  0
LINE
  5
41B
100
AcDbEntity
  8
0
100
AcDbLine
 62
7
  6
CONTINUOUS
 10
157.3172734273
 20
67.1235904814
 11
157.3172734273
 21
66.6235904814
  0
LINE
  5
41C
100
AcDbEntity
  8
0
100
AcDbLine
 62
7
  6
CONTINUOUS
 10
157.6297734273
 20
67.1235904814
 11
157.6297734273
 21
66.6235904814
  0
LINE
  5
41D
100
AcDbEntity
  8
0
100
AcDbLine
 62
7
  6
CONTINUOUS
 10
157.7339399947
 20
67.1235904814
 11
157.7339399947
 21
66.6235904814
  0
LINE
  5
41E
100
AcDbEntity
  8
0
100
AcDbLine
 62
7
  6
CONTINUOUS
 10
157.83810686
 20
67.1235904814
 11
157.83810686
 21
66.6235904814
  0
LINE
  5
41F
100
AcDbEntity
  8
0
100
AcDbLine
 62
7
  6
CONTINUOUS
 10
158.6714399947
 20
67.1235904814
 11
158.6714399947
 21
66.6235904814
  0
LINE
  5
420
100
AcDbEntity
  8
0
100
AcDbLine
 62
7
  6
CONTINUOUS
 10
158.8172724737
 20
91.0027395063
 11
158.8172724737
 21
91.6235904814
  0
LINE
  5
421
100
AcDbEntity
  8
0
100
AcDbLine
 62
7
  6
CONTINUOUS
 10
159.2964402927
 20
67.1235904814
 11
159.2964402927
 21
66.6235904814
  0
LINE
  5
422
100
AcDbEntity
  8
0
100
AcDbLine
 62
7
  6
CONTINUOUS
 10
159.400606562
 20
67.1235904814
 11
159.400606562
 21
66.6235904814
  0
LINE
  5
423
100
AcDbEntity
  8
0
100
AcDbLine
 62
7
  6
CONTINUOUS
 10
159.6089402927
 20
67.1235904814
 11
159.6089402927
 21
66.6235904814
  0
LINE
  5
424
100
AcDbEntity
  8
0
100
AcDbLine
 62
7
  6
CONTINUOUS
 10
159.9214402927
 20
67.1235904814
 11
159.9214402927
 21
66.6235904814
  0
LINE
  5
425
100
AcDbEntity
  8
0
100
AcDbLine
 62
7
  6
CONTINUOUS
 10
160.338106562
 20
67.1235904814
 11
160.338106562
 21
66.6235904814
  0
LINE
  5
426
100
AcDbEntity
  8
0
100
AcDbLine
 62
7
  6
CONTINUOUS
 10
160.7547734273
 20
67.1235904814
 11
160.7547734273
 21
66.6235904814
  0
LINE
  5
427
100
AcDbEntity
  8
0
100
AcDbLine
 62
7
  6
CONTINUOUS
 10
161.1714402927
 20
67.1235904814
 11
161.1714402927
 21
66.6235904814
  0
LINE
  5
428
100
AcDbEntity
  8
0
100
AcDbLine
 62
7
  6
CONTINUOUS
 10
161.4839402927
 20
67.1235904814
 11
161.4839402927
 21
66.6235904814
  0
LINE
  5
429
100
AcDbEntity
  8
0
100
AcDbLine
 62
7
  6
CONTINUOUS
 10
161.6922734273
 20
67.1235904814
 11
161.6922734273
 21
66.6235904814
  0
LINE
  5
42A
100
AcDbEntity
  8
RUNDUNGEN
100
AcDbLine
 62
7
  6
CONTINUOUS
 10
181.935729255
 20
52.8821353289
 11
209.3852571867
 21
57.2297134475
  0
LWPOLYLINE
  5
42B
100
AcDbEntity
  8
RUNDUNGEN
100
AcDbPolyline
 62
7
  6
CONTINUOUS
 90
3
 70
0
 10
122.7130481079
 20
67.1235904814
 10
122.7874622337
 20
67.0899430755
 10
122.9032269555
 20
67.0283126449
  0
LWPOLYLINE
  5
42C
100
AcDbEntity
  8
RUNDUNGEN
100
AcDbPolyline
 62
7
  6
CONTINUOUS
 90
12
 70
0
 10
122.9032269555
 20
67.0283126449
 10
123.0516430143
 20
66.9380887664
 10
123.2321561534
 20
66.8154779479
 10
123.4440881331
 20
66.6572596034
 10
123.6885343531
 20
66.4591930928
 10
123.9686436284
 20
66.2154203801
 10
124.2816672047
 20
65.9255929716
 10
124.627128229
 20
65.5884227074
 10
125.0019895976
 20
65.2062156195
 10
125.4014226969
 20
64.7844626881
 10
125.8302147911
 20
64.3193942676
 10
126.2891534866
 20
63.8119046221
  0
LINE
  5
42D
100
AcDbEntity
  8
0
100
AcDbLine
 62
7
  6
CONTINUOUS
 10
161.7964402927
 20
67.1235904814
 11
161.7964402927
 21
66.6235904814
  0
LINE
  5
42E
100
AcDbEntity
  8
0
100
AcDbLine
 62
7
  6
CONTINUOUS
 10
162.4214402927
 20
67.1235904814
 11
162.4214402927
 21
66.6235904814
  0
LINE
  5
42F
100
AcDbEntity
  8
0
100
AcDbLine
 62
7
  6
CONTINUOUS
 10
163.2547734273
 20
67.1235904814
 11
163.2547734273
 21
66.6235904814
  0
LINE
  5
430
100
AcDbEntity
  8
0
100
AcDbLine
 62
7
  6
CONTINUOUS
 10
165.7547734273
 20
67.1235904814
 11
165.7547734273
 21
66.6235904814
  0
LINE
  5
431
100
AcDbEntity
  8
0
100
AcDbLine
 62
7
  6
CONTINUOUS
 10
166.275607158
 20
67.1235904814
 11
166.275607158
 21
66.6235904814
  0
LINE
  5
432
100
AcDbEntity
  8
0
100
AcDbLine
 62
7
  6
CONTINUOUS
 10
166.6922734273
 20
67.1235904814
 11
166.6922734273
 21
66.6235904814
  0
LINE
  5
433
100
AcDbEntity
  8
0
100
AcDbLine
 62
7
  6
CONTINUOUS
 10
167.1089396967
 20
67.1235904814
 11
167.1089396967
 21
66.6235904814
  0
LINE
  5
434
100
AcDbEntity
  8
0
100
AcDbLine
 62
7
  6
CONTINUOUS
 10
167.3172734273
 20
67.1235904814
 11
167.3172734273
 21
66.6235904814
  0
LINE
  5
435
100
AcDbEntity
  8
0
100
AcDbLine
 62
7
  6
CONTINUOUS
 10
167.4214396967
 20
67.1235904814
 11
167.4214396967
 21
66.6235904814
  0
LWPOLYLINE
  5
436
100
AcDbEntity
  8
RUNDUNGEN
100
AcDbPolyline
 62
7
  6
CONTINUOUS
 90
3
 70
0
 10
198.4003277962
 20
67.029645546
 10
198.5154444029
 20
67.0907736216
 10
198.5882504842
 20
67.1235904814
  0
LINE
  5
437
100
AcDbEntity
  8
0
100
AcDbLine
 62
7
  6
CONTINUOUS
 10
155.3172724737
 20
90.7725267531
 11
155.7111682536
 21
89.7093672523
  0
LINE
  5
438
100
AcDbEntity
  8
0
100
AcDbLine
 62
7
  6
CONTINUOUS
 10
156.1739309455
 20
89.8888054089
 11
155.5672724737
 21
91.6235904814
  0
LWPOLYLINE
  5
439
100
AcDbEntity
  8
RUNDUNGEN
100
AcDbPolyline
 62
7
  6
CONTINUOUS
 90
13
 70
0
 10
194.3978839715
 20
63.1235904814
 10
195.0184573725
 20
63.8190323549
 10
195.4772269006
 20
64.3262242086
 10
195.9058254255
 20
64.7909291189
 10
196.3050351676
 20
65.2122535316
 10
196.6796096673
 20
65.5939403414
 10
197.0247392162
 20
65.9305346167
 10
197.3373895658
 20
66.2197504754
 10
197.6170854436
 20
66.462895251
 10
197.8610819856
 20
66.6603385603
 10
198.0725221072
 20
66.8179467798
 10
198.2524995706
 20
66.9399722234
 10
198.4003277962
 20
67.029645546
  0
LINE
  5
43A
100
AcDbEntity
  8
RUNDUNGEN
100
AcDbLine
 62
7
  6
CONTINUOUS
 10
202.6506054891
 20
63.1235904814
 11
180.6506054891
 21
63.1235904814
  0
LINE
  5
43B
100
AcDbEntity
  8
0
100
AcDbLine
 62
7
  6
CONTINUOUS
 10
190.6981784263
 20
66.6235904814
 11
183.1006675263
 21
66.6235904814
  0
LINE
  5
43C
100
AcDbEntity
  8
0
100
AcDbLine
 62
7
  6
CONTINUOUS
 10
167.4214396967
 20
66.6235904814
 11
163.2547734273
 21
66.6235904814
  0
LINE
  5
43D
100
AcDbEntity
  8
0
100
AcDbLine
 62
7
  6
CONTINUOUS
 10
162.4214402927
 20
66.6235904814
 11
158.6714399947
 21
66.6235904814
  0
LINE
  5
43E
100
AcDbEntity
  8
0
100
AcDbLine
 62
7
  6
CONTINUOUS
 10
157.83810686
 20
66.6235904814
 11
153.8797734273
 21
66.6235904814
  0
LINE
  5
43F
100
AcDbEntity
  8
0
100
AcDbLine
 62
7
  6
CONTINUOUS
 10
142.887211182
 20
66.6235904814
 11
130.3702298248
 21
66.6235904814
  0
LINE
  5
440
100
AcDbEntity
  8
RUNDUNGEN
100
AcDbLine
 62
7
  6
CONTINUOUS
 10
119.0390150376
 20
67.1235904814
 11
202.2622024009
 21
67.1235904814
  0
LINE
  5
441
100
AcDbEntity
  8
0
100
AcDbLine
 62
7
  6
CONTINUOUS
 10
183.1006054891
 20
67.1235904814
 11
183.1006054891
 21
66.6235904814
  0
LINE
  5
442
100
AcDbEntity
  8
RUNDUNGEN
100
AcDbLine
 62
7
  6
CONTINUOUS
 10
209.1506054891
 20
69.1235904814
 11
205.7263015728
 21
69.1235904814
  0
LINE
  5
443
100
AcDbEntity
  8
0
100
AcDbLine
 62
7
  6
CONTINUOUS
 10
187.6281784263
 20
67.1235904814
 11
187.6281784263
 21
66.6235904814
  0
LINE
  5
444
100
AcDbEntity
  8
0
100
AcDbLine
 62
7
  6
CONTINUOUS
 10
190.6981784263
 20
67.1235904814
 11
190.6981784263
 21
66.6235904814
  0
LINE
  5
445
100
AcDbEntity
  8
RUNDUNGEN
100
AcDbLine
 62
7
  6
CONTINUOUS
 10
205.7259229654
 20
84.1235904814
 11
209.1506054891
 21
84.1235904814
  0
LINE
  5
446
100
AcDbEntity
  8
BEZUGSACHSEN
100
AcDbLine
 62
7
  6
CONTINUOUS
 10
119.0390150376
 20
86.1235904814
 11
202.2622024009
 21
86.1235904814
  0
LINE
  5
447
100
AcDbEntity
  8
RUNDUNGEN
100
AcDbLine
 62
7
  6
CONTINUOUS
 10
180.6506054891
 20
90.1235904814
 11
202.6506054891
 21
90.1235904814
  0
LINE
  5
448
100
AcDbEntity
  8
0
100
AcDbLine
 62
7
  6
CONTINUOUS
 10
158.8172724737
 20
91.6235904814
 11
158.0672724737
 21
91.6235904814
  0
LINE
  5
449
100
AcDbEntity
  8
0
100
AcDbLine
 62
7
  6
CONTINUOUS
 10
155.5672724737
 20
91.6235904814
 11
154.8172724737
 21
91.6235904814
  0
LWPOLYLINE
  5
44A
100
AcDbEntity
  8
BEZUGSACHSEN
100
AcDbPolyline
 62
7
  6
CONTINUOUS
 90
7
 70
0
 10
206.5214346358
 20
76.6235904792
 10
206.5152222885
 20
77.5002486436
 10
206.491952708
 20
78.5359719105
 10
206.4510543255
 20
79.5812173452
 10
206.3921976528
 20
80.6342270267
 10
206.3151494654
 20
81.6931966215
 10
206.2446370567
 20
82.4980432446
  0
LINE
  5
44B
100
AcDbEntity
  8
RUNDUNGEN
100
AcDbLine
 62
7
  6
CONTINUOUS
 10
204.1506054891
 20
88.6235904814
 11
204.1506054891
 21
85.6235904814
  0
LINE
  5
44C
100
AcDbEntity
  8
RUNDUNGEN
100
AcDbLine
 62
7
  6
CONTINUOUS
 10
204.1506054891
 20
67.598803414
 11
204.1506054891
 21
64.6235904814
  0
LINE
  5
44D
100
AcDbEntity
  8
RUNDUNGEN
100
AcDbLine
 62
7
  6
CONTINUOUS
 10
210.6506054891
 20
58.7112459584
 11
210.6506054891
 21
67.6235904814
  0
LINE
  5
44E
100
AcDbEntity
  8
RUNDUNGEN
100
AcDbLine
 62
7
  6
CONTINUOUS
 10
210.6506054891
 20
85.6235904814
 11
210.6506054891
 21
94.5359350044
  0
LWPOLYLINE
  5
44F
100
AcDbEntity
  8
RUNDUNGEN
100
AcDbPolyline
 62
7
  6
CONTINUOUS
 90
7
 70
0
 10
206.2446370567
 20
70.7491377182
 10
206.3151494654
 20
71.5539843413
 10
206.3921976528
 20
72.6129539361
 10
206.4510543255
 20
73.6659636176
 10
206.491952708
 20
74.7112090523
 10
206.5152222885
 20
75.7469323192
 10
206.5214346358
 20
76.6235904792
  0
LWPOLYLINE
  5
450
100
AcDbEntity
  8
BEZUGSACHSEN
100
AcDbPolyline
 62
7
  6
CONTINUOUS
 90
3
 70
0
 10
198.5882597266
 20
86.1235904814
 10
198.5157045014
 20
86.1562801569
 10
198.4007820727
 20
86.217277437
  0
LWPOLYLINE
  5
451
100
AcDbEntity
  8
BEZUGSACHSEN
100
AcDbPolyline
 62
7
  6
CONTINUOUS
 90
12
 70
0
 10
198.4007820727
 20
86.217277437
 10
198.2531854999
 20
86.3067685952
 10
198.0734608806
 20
86.4285664546
 10
197.8622787043
 20
86.585912601
 10
197.6185370207
 20
86.7830677776
 10
197.3390575083
 20
87.0259337833
 10
197.0266578257
 20
87.3148225054
 10
196.6818554457
 20
87.6509996773
 10
196.3077963864
 20
88.0320608804
 10
195.9095173271
 20
88.4522986742
 10
195.4820338808
 20
88.915688746
 10
195.0245690463
 20
89.42134298
  0
LINE
  5
452
100
AcDbEntity
  8
RUNDUNGEN
100
AcDbLine
 62
7
  6
CONTINUOUS
 10
209.3852571867
 20
96.0174675152
 11
181.935729255
 21
100.3650456339
  0
LWPOLYLINE
  5
453
100
AcDbEntity
  8
BEZUGSACHSEN
100
AcDbPolyline
 62
7
  6
CONTINUOUS
 90
30
 70
0
 10
183.7547844463
 20
100.0769355955
 10
182.9601373556
 20
100.6061904881
 10
181.3620369609
 20
101.562650151
 10
179.7060019592
 20
102.4488474564
 10
177.9931425261
 20
103.2627218504
 10
176.2253933408
 20
104.0017168518
 10
174.4030622959
 20
104.6636624154
 10
172.5326830567
 20
105.2442942197
 10
170.6190474075
 20
105.7405018506
 10
168.6695171541
 20
106.149233788
 10
166.69121593
 20
106.4682972552
 10
164.6917539433
 20
106.6964245225
 10
162.6782992944
 20
106.8330727981
 10
160.6581023137
 20
106.8786284498
 10
158.6378792439
 20
106.8337449823
 10
156.6243513059
 20
106.6977751884
 10
154.6247650235
 20
106.4703262982
 10
152.6462849575
 20
106.1519351913
 10
150.6965267374
 20
105.7438648999
 10
148.7826197814
 20
105.248303535
 10
146.9119304639
 20
104.6682993002
 10
145.0892535562
 20
104.0069598593
 10
143.3211278671
 20
103.268547729
 10
141.6078631547
 20
102.4552323176
 10
139.9513965938
 20
101.5695698834
 10
138.3528392248
 20
100.6136199969
 10
136.8135906066
 20
99.5892469731
 10
135.3348588928
 20
98.4979641569
 10
133.9171863507
 20
97.3402862677
 10
132.6732830122
 20
96.2221541525
  0
LINE
  5
454
100
AcDbEntity
  8
BEZUGSACHSEN
100
AcDbLine
 62
7
  6
CONTINUOUS
 10
195.0245690463
 20
89.42134298
 11
194.3978923822
 21
90.1235904814
  0
ARC
  5
455
100
AcDbEntity
  8
BEZUGSACHSEN
100
AcDbCircle
 62
7
  6
CONTINUOUS
 10
118.1506054891
 20
294.1051336085
 40
17.0
100
AcDbArc
 50
0.018074332
 51
57.985165672
  0
ARC
  5
456
100
AcDbEntity
  8
BEZUGSACHSEN
100
AcDbCircle
 62
7
  6
CONTINUOUS
 10
117.3198791376
 20
324.395175061
 40
3.0000109539
100
AcDbArc
 50
345.0480136354
 51
22.5571715082
  0
ARC
  5
457
100
AcDbEntity
  8
BEZUGSACHSEN
100
AcDbCircle
 62
7
  6
CONTINUOUS
 10
124.0866102415
 20
308.1051355695
 40
2.9999994117
100
AcDbArc
 50
22.5575099356
 51
90.0000255715
  0
ARC
  5
458
100
AcDbEntity
  8
BEZUGSACHSEN
100
AcDbCircle
 62
7
  6
CONTINUOUS
 10
122.1506054891
 20
323.1051336085
 40
2.0
100
AcDbArc
 50
165.0482896718
 51
180.0
  0
ARC
  5
459
100
AcDbEntity
  8
RUNDUNGEN
100
AcDbCircle
 62
7
  6
CONTINUOUS
 10
122.1506054891
 20
323.1051336085
 40
2.0
100
AcDbArc
 50
165.0482896718
 51
180.0
  0
ARC
  5
45A
100
AcDbEntity
  8
BEZUGSACHSEN
100
AcDbCircle
 62
7
  6
CONTINUOUS
 10
122.1506054891
 20
313.1051336085
 40
2.0
100
AcDbArc
 50
180.0
 51
270.0
  0
ARC
  5
45B
100
AcDbEntity
  8
RUNDUNGEN
100
AcDbCircle
 62
7
  6
CONTINUOUS
 10
148.1506054891
 20
327.9051336085
 40
1.5
100
AcDbArc
 50
180.0
 51
270.0
  0
ARC
  5
45C
100
AcDbEntity
  8
RUNDUNGEN
100
AcDbCircle
 62
7
  6
CONTINUOUS
 10
148.1506054891
 20
330.4051336085
 40
1.5
100
AcDbArc
 50
90.0
 51
180.0
  0
ARC
  5
45D
100
AcDbEntity
  8
0
100
AcDbCircle
 62
7
  6
CONTINUOUS
 10
160.6506054891
 20
339.1051336085
 40
24.5
100
AcDbArc
 50
342.9104048317
 51
343.4618141399
  0
ARC
  5
45E
100
AcDbEntity
  8
0
100
AcDbCircle
 62
7
  6
CONTINUOUS
 10
160.6506054891
 20
339.1051336085
 40
24.5
100
AcDbArc
 50
196.5381858601
 51
205.0203562652
  0
ARC
  5
45F
100
AcDbEntity
  8
RUNDUNGEN
100
AcDbCircle
 62
7
  6
CONTINUOUS
 10
160.6506054891
 20
339.1051336085
 40
24.5
100
AcDbArc
 50
343.4618141399
 51
196.5381858601
  0
ARC
  5
460
100
AcDbEntity
  8
BEZUGSACHSEN
100
AcDbCircle
 62
7
  6
CONTINUOUS
 10
130.8728628352
 20
366.108827743
 40
5.0
100
AcDbArc
 50
112.4999999954
 51
157.5000000054
  0
ARC
  5
461
100
AcDbEntity
  8
RUNDUNGEN
100
AcDbCircle
 62
7
  6
CONTINUOUS
 10
160.6506054891
 20
378.4431726071
 40
5.0
100
AcDbArc
 50
67.5
 51
112.5
  0
ARC
  5
462
100
AcDbEntity
  8
RUNDUNGEN
100
AcDbCircle
 62
7
  6
CONTINUOUS
 10
130.8728628352
 20
366.108827743
 40
5.0
100
AcDbArc
 50
112.5
 51
157.5
  0
ARC
  5
463
100
AcDbEntity
  8
BEZUGSACHSEN
100
AcDbCircle
 62
7
  6
CONTINUOUS
 10
119.7797854859
 20
339.3277699576
 40
5.0
100
AcDbArc
 50
157.5002734022
 51
202.5577278415
  0
ARC
  5
464
100
AcDbEntity
  8
BEZUGSACHSEN
100
AcDbCircle
 62
7
  6
CONTINUOUS
 10
203.1506054891
 20
294.1051336085
 40
17.0
100
AcDbArc
 50
122.014834328
 51
179.981925675
  0
ARC
  5
465
100
AcDbEntity
  8
BEZUGSACHSEN
100
AcDbCircle
 62
7
  6
CONTINUOUS
 10
203.9813313445
 20
324.395174031
 40
3.00001029
100
AcDbArc
 50
157.4428066909
 51
194.9519698045
  0
ARC
  5
466
100
AcDbEntity
  8
BEZUGSACHSEN
100
AcDbCircle
 62
7
  6
CONTINUOUS
 10
197.2146007859
 20
308.1051356922
 40
2.9999993749
100
AcDbArc
 50
89.9999753679
 51
157.4424925891
  0
ARC
  5
467
100
AcDbEntity
  8
BEZUGSACHSEN
100
AcDbCircle
 62
7
  6
CONTINUOUS
 10
199.1506054891
 20
323.1051336085
 40
2.0
100
AcDbArc
 50
0.0
 51
14.9517103282
  0
ARC
  5
468
100
AcDbEntity
  8
RUNDUNGEN
100
AcDbCircle
 62
7
  6
CONTINUOUS
 10
199.1506054891
 20
323.1051336085
 40
2.0
100
AcDbArc
 50
0.0
 51
14.9517103282
  0
ARC
  5
469
100
AcDbEntity
  8
BEZUGSACHSEN
100
AcDbCircle
 62
7
  6
CONTINUOUS
 10
199.1506054891
 20
313.1051336085
 40
2.0
100
AcDbArc
 50
270.0
 51
360.0
  0
ARC
  5
46A
100
AcDbEntity
  8
RUNDUNGEN
100
AcDbCircle
 62
7
  6
CONTINUOUS
 10
209.1506054891
 20
327.9051336085
 40
1.5
100
AcDbArc
 50
270.0
 51
360.0
  0
ARC
  5
46B
100
AcDbEntity
  8
RUNDUNGEN
100
AcDbCircle
 62
7
  6
CONTINUOUS
 10
209.1506054891
 20
330.4051336085
 40
1.5
100
AcDbArc
 50
0.0
 51
90.0
  0
ARC
  5
46C
100
AcDbEntity
  8
BEZUGSACHSEN
100
AcDbCircle
 62
7
  6
CONTINUOUS
 10
190.428348143
 20
366.108827743
 40
5.0
100
AcDbArc
 50
22.4999999954
 51
67.5000000054
  0
ARC
  5
46D
100
AcDbEntity
  8
BEZUGSACHSEN
100
AcDbCircle
 62
7
  6
CONTINUOUS
 10
201.5214346455
 20
339.3277478601
 40
5.0
100
AcDbArc
 50
337.4424657684
 51
22.5000006808
  0
ARC
  5
46E
100
AcDbEntity
  8
RUNDUNGEN
100
AcDbCircle
 62
7
  6
CONTINUOUS
 10
190.428348143
 20
366.108827743
 40
5.0
100
AcDbArc
 50
22.5
 51
67.5
  0
ARC
  5
46F
100
AcDbEntity
  8
0
100
AcDbCircle
 62
7
  6
CONTINUOUS
 10
188.7206054891
 20
360.179054901
 40
2.55
100
AcDbArc
 50
39.1479076285
 51
224.8287668717
  0
ARC
  5
470
100
AcDbEntity
  8
0
100
AcDbCircle
 62
7
  6
CONTINUOUS
 10
185.6506054891
 20
363.249054901
 40
2.55
100
AcDbArc
 50
39.1479076285
 51
224.8287668717
  0
ARC
  5
471
100
AcDbEntity
  8
0
100
AcDbCircle
 62
7
  6
CONTINUOUS
 10
188.7206054891
 20
360.179054901
 40
1.79
100
AcDbArc
 50
147.2566154263
 51
233.3518372791
  0
ARC
  5
472
100
AcDbEntity
  8
0
100
AcDbCircle
 62
7
  6
CONTINUOUS
 10
188.7206054891
 20
360.179054901
 40
1.79
100
AcDbArc
 50
36.6481627209
 51
122.5568150643
  0
ARC
  5
473
100
AcDbEntity
  8
0
100
AcDbCircle
 62
7
  6
CONTINUOUS
 10
185.6506054891
 20
363.249054901
 40
1.79
100
AcDbArc
 50
36.6481627209
 51
233.3518372791
  0
ARC
  5
474
100
AcDbEntity
  8
KONSTRUKTIONSELEMENTE
100
AcDbCircle
 62
7
  6
CONTINUOUS
 10
313.3120123416
 20
165.8063291463
 40
24.0988184167
100
AcDbArc
 50
90.0616587821
 51
97.2429972068
  0
ARC
  5
475
100
AcDbEntity
  8
KONSTRUKTIONSELEMENTE
100
AcDbCircle
 62
7
  6
CONTINUOUS
 10
331.2601455348
 20
165.806348956
 40
24.0987986059
100
AcDbArc
 50
82.7570076524
 51
89.9383435693
  0
ARC
  5
476
100
AcDbEntity
  8
0
100
AcDbCircle
 62
7
  6
CONTINUOUS
 10
213.8790127166
 20
314.1431091012
 40
135.2008418894
100
AcDbArc
 50
353.9767439919
 51
354.1943018806
  0
ARC
  5
477
100
AcDbEntity
  8
0
100
AcDbCircle
 62
7
  6
CONTINUOUS
 10
215.1743084361
 20
313.542965486
 40
133.302804606
100
AcDbArc
 50
354.1500206465
 51
354.3706075586
  0
ARC
  5
478
100
AcDbEntity
  8
0
100
AcDbCircle
 62
7
  6
CONTINUOUS
 10
225.4637779045
 20
329.2202281683
 40
127.8354550412
100
AcDbArc
 50
349.1847328246
 51
349.4176496274
  0
ARC
  5
479
100
AcDbEntity
  8
0
100
AcDbCircle
 62
7
  6
CONTINUOUS
 10
226.6057175582
 20
328.7221988748
 40
126.1021775731
100
AcDbArc
 50
349.2646516507
 51
349.4845856934
  0
ARC
  5
47A
100
AcDbEntity
  8
0
100
AcDbCircle
 62
7
  6
CONTINUOUS
 10
103.3663805089
 20
354.5402000851
 40
252.2372539913
100
AcDbArc
 50
347.8980800866
 51
348.0562042463
  0
ARC
  5
47B
100
AcDbEntity
  8
0
100
AcDbCircle
 62
7
  6
CONTINUOUS
 10
105.4062802625
 20
353.7161428175
 40
249.5535787408
100
AcDbArc
 50
347.959457751
 51
348.1192455091
  0
ARC
  5
47C
100
AcDbEntity
  8
0
100
AcDbCircle
 62
7
  6
CONTINUOUS
 10
120.8445181226
 20
358.2109308696
 40
236.3656648199
100
AcDbArc
 50
346.7937481965
 51
346.93487933
  0
ARC
  5
47D
100
AcDbEntity
  8
0
100
AcDbCircle
 62
7
  6
CONTINUOUS
 10
143.0225152888
 20
386.3746431461
 40
222.2287772355
100
AcDbArc
 50
338.5845672295
 51
338.7730038567
  0
ARC
  5
47E
100
AcDbEntity
  8
0
100
AcDbCircle
 62
7
  6
CONTINUOUS
 10
140.331522572
 20
372.3708284516
 40
221.4206729117
100
AcDbArc
 50
341.050219118
 51
341.1898674329
  0
ARC
  5
47F
100
AcDbEntity
  8
0
100
AcDbCircle
 62
7
  6
CONTINUOUS
 10
148.7986672795
 20
384.3608312534
 40
215.6073899767
100
AcDbArc
 50
338.469246023
 51
338.6636187594
  0
ARC
  5
480
100
AcDbEntity
  8
0
100
AcDbCircle
 62
7
  6
CONTINUOUS
 10
234.4528635258
 20
325.4360244692
 40
118.1297672573
100
AcDbArc
 50
348.7248404304
 51
348.977276472
  0
ARC
  5
481
100
AcDbEntity
  8
0
100
AcDbCircle
 62
7
  6
CONTINUOUS
 10
240.6225079864
 20
334.385204894
 40
114.610090887
100
AcDbArc
 50
341.5342449726
 51
342.510285905
  0
ARC
  5
482
100
AcDbEntity
  8
0
100
AcDbCircle
 62
7
  6
CONTINUOUS
 10
245.575358881
 20
340.484625137
 40
111.4577022408
100
AcDbArc
 50
339.0524613339
 51
339.2397276262
  0
ARC
  5
483
100
AcDbEntity
  8
0
100
AcDbCircle
 62
7
  6
CONTINUOUS
 10
246.1632660659
 20
334.1039523941
 40
109.1992347915
100
AcDbArc
 50
340.7538800767
 51
341.7773418221
  0
ARC
  5
484
100
AcDbEntity
  8
0
100
AcDbCircle
 62
7
  6
CONTINUOUS
 10
247.3908158866
 20
339.7762583163
 40
109.0150378421
100
AcDbArc
 50
338.959621676
 51
339.1511997346
  0
ARC
  5
485
100
AcDbEntity
  8
0
100
AcDbCircle
 62
7
  6
CONTINUOUS
 10
250.2190540431
 20
332.6347255683
 40
104.3915173924
100
AcDbArc
 50
340.6721015579
 51
341.2104263204
  0
ARC
  5
486
100
AcDbEntity
  8
0
100
AcDbCircle
 62
7
  6
CONTINUOUS
 10
279.6958712888
 20
331.8332779765
 40
76.3078266797
100
AcDbArc
 50
338.366389313
 51
338.7782727682
  0
ARC
  5
487
100
AcDbEntity
  8
0
100
AcDbCircle
 62
7
  6
CONTINUOUS
 10
283.1725733781
 20
326.5916531699
 40
71.5214945515
100
AcDbArc
 50
338.1355574575
 51
338.5756614039
  0
ARC
  5
488
100
AcDbEntity
  8
0
100
AcDbCircle
 62
7
  6
CONTINUOUS
 10
290.6623242697
 20
334.6874871246
 40
66.3825061015
100
AcDbArc
 50
333.6590577541
 51
334.149827159
  0
ARC
  5
489
100
AcDbEntity
  8
0
100
AcDbCircle
 62
7
  6
CONTINUOUS
 10
303.6865604689
 20
301.3644136385
 40
45.0277524588
100
AcDbArc
 50
358.641157236
 51
359.0744205589
  0
ARC
  5
48A
100
AcDbEntity
  8
0
100
AcDbCircle
 62
7
  6
CONTINUOUS
 10
294.4746810475
 20
306.2573887662
 40
1.6268706841
100
AcDbArc
 50
180.1168859287
 51
186.1231548979
  0
ARC
  5
48B
100
AcDbEntity
  8
0
100
AcDbCircle
 62
7
  6
CONTINUOUS
 10
293.4494265604
 20
306.9916355405
 40
0.8444480236
100
AcDbArc
 50
172.2757825112
 51
178.0702165953
  0
ARC
  5
48C
100
AcDbEntity
  8
0
100
AcDbCircle
 62
7
  6
CONTINUOUS
 10
293.4421793004
 20
306.9921475
 40
0.8371876765
100
AcDbArc
 50
178.0885320604
 51
183.9195555161
  0
ARC
  5
48D
100
AcDbEntity
  8
0
100
AcDbCircle
 62
7
  6
CONTINUOUS
 10
303.2194728378
 20
313.4577316545
 40
48.6976602264
100
AcDbArc
 50
351.0880271638
 51
351.8980082498
  0
ARC
  5
48E
100
AcDbEntity
  8
0
100
AcDbCircle
 62
7
  6
CONTINUOUS
 10
316.6932545702
 20
316.0910894147
 40
36.4152442362
100
AcDbArc
 50
334.2953464859
 51
334.8883318415
  0
ARC
  5
48F
100
AcDbEntity
  8
0
100
AcDbCircle
 62
7
  6
CONTINUOUS
 10
316.7933513931
 20
315.9056442361
 40
35.7669973288
100
AcDbArc
 50
334.1250478159
 51
334.7296076784
  0
ARC
  5
490
100
AcDbEntity
  8
0
100
AcDbCircle
 62
7
  6
CONTINUOUS
 10
312.6666175932
 20
312.6492408046
 40
20.9275823121
100
AcDbArc
 50
216.17513218
 51
217.3384582592
  0
ARC
  5
491
100
AcDbEntity
  8
0
100
AcDbCircle
 62
7
  6
CONTINUOUS
 10
312.931353912
 20
312.5924796167
 40
20.6695594152
100
AcDbArc
 50
216.5039027359
 51
217.6869952873
  0
ARC
  5
492
100
AcDbEntity
  8
0
100
AcDbCircle
 62
7
  6
CONTINUOUS
 10
312.4975881506
 20
311.4883953191
 40
20.4321911806
100
AcDbArc
 50
214.941781242
 51
216.114798455
  0
ARC
  5
493
100
AcDbEntity
  8
0
100
AcDbCircle
 62
7
  6
CONTINUOUS
 10
311.6987556222
 20
314.2121379116
 40
20.3756067028
100
AcDbArc
 50
203.5108139737
 51
204.5589747574
  0
ARC
  5
494
100
AcDbEntity
  8
0
100
AcDbCircle
 62
7
  6
CONTINUOUS
 10
312.265854242
 20
310.6104693377
 40
19.9296330121
100
AcDbArc
 50
193.2316581617
 51
194.1352172736
  0
ARC
  5
495
100
AcDbEntity
  8
0
100
AcDbCircle
 62
7
  6
CONTINUOUS
 10
304.2509902415
 20
312.6380552583
 40
12.7913623576
100
AcDbArc
 50
206.4782622329
 51
208.1948760178
  0
ARC
  5
496
100
AcDbEntity
  8
0
100
AcDbCircle
 62
7
  6
CONTINUOUS
 10
304.6133121583
 20
312.595598504
 40
12.6282516313
100
AcDbArc
 50
206.6317851504
 51
208.3731873191
  0
ARC
  5
497
100
AcDbEntity
  8
0
100
AcDbCircle
 62
7
  6
CONTINUOUS
 10
303.5987736172
 20
309.4046774547
 40
11.2658727334
100
AcDbArc
 50
192.6634948878
 51
194.4444964358
  0
ARC
  5
498
100
AcDbEntity
  8
0
100
AcDbCircle
 62
7
  6
CONTINUOUS
 10
303.1435885412
 20
307.6522920288
 40
10.8857731289
100
AcDbArc
 50
228.9289345237
 51
230.3118393475
  0
ARC
  5
499
100
AcDbEntity
  8
0
100
AcDbCircle
 62
7
  6
CONTINUOUS
 10
301.7519140022
 20
309.4799537539
 40
10.8402124236
100
AcDbArc
 50
241.4689126056
 51
243.413545525
  0
ARC
  5
49A
100
AcDbEntity
  8
0
100
AcDbCircle
 62
7
  6
CONTINUOUS
 10
301.1961871664
 20
309.3079458785
 40
10.6849172133
100
AcDbArc
 50
241.0720783719
 51
243.019262394
  0
ARC
  5
49B
100
AcDbEntity
  8
0
100
AcDbCircle
 62
7
  6
CONTINUOUS
 10
300.7298126375
 20
308.7880772216
 40
10.5396994111
100
AcDbArc
 50
244.4968845532
 51
246.7384407247
  0
ARC
  5
49C
100
AcDbEntity
  8
BEZUGSACHSEN
100
AcDbCircle
 62
7
  6
CONTINUOUS
 10
296.0310398453
 20
311.2500871988
 40
4.0
100
AcDbArc
 50
110.0
 51
196.0
  0
ARC
  5
49D
100
AcDbEntity
  8
0
100
AcDbCircle
 62
7
  6
CONTINUOUS
 10
295.2342590228
 20
307.8036162317
 40
2.8079007307
100
AcDbArc
 50
213.4941784632
 51
217.7684219062
  0
ARC
  5
49E
100
AcDbEntity
  8
0
100
AcDbCircle
 62
7
  6
CONTINUOUS
 10
331.7852720013
 20
306.7008222954
 40
19.3634141371
100
AcDbArc
 50
357.1659533891
 51
358.1741089912
  0
ARC
  5
49F
100
AcDbEntity
  8
0
100
AcDbCircle
 62
7
  6
CONTINUOUS
 10
331.5834242904
 20
306.6136295252
 40
19.0330652045
100
AcDbArc
 50
357.3795049756
 51
357.8916849512
  0
ARC
  5
4A0
100
AcDbEntity
  8
0
100
AcDbCircle
 62
7
  6
CONTINUOUS
 10
331.9539678351
 20
303.0761486263
 40
18.2039267601
100
AcDbArc
 50
357.6797890875
 51
358.7517934838
  0
ARC
  5
4A1
100
AcDbEntity
  8
0
100
AcDbCircle
 62
7
  6
CONTINUOUS
 10
331.7216328082
 20
302.9907182099
 40
17.9041965707
100
AcDbArc
 50
357.9145197416
 51
359.0043363553
  0
ARC
  5
4A2
100
AcDbEntity
  8
0
100
AcDbCircle
 62
7
  6
CONTINUOUS
 10
331.0047671688
 20
297.1433260333
 40
17.5555103276
100
AcDbArc
 50
8.0962183112
 51
9.2200877931
  0
ARC
  5
4A3
100
AcDbEntity
  8
0
100
AcDbCircle
 62
7
  6
CONTINUOUS
 10
330.7604118649
 20
297.0511154194
 40
17.2685975675
100
AcDbArc
 50
8.5409143977
 51
9.6848758699
  0
ARC
  5
4A4
100
AcDbEntity
  8
0
100
AcDbCircle
 62
7
  6
CONTINUOUS
 10
338.7775131673
 20
307.4254644798
 40
12.8801187992
100
AcDbArc
 50
325.4801629247
 51
326.3941643546
  0
ARC
  5
4A5
100
AcDbEntity
  8
0
100
AcDbCircle
 62
7
  6
CONTINUOUS
 10
338.3995242171
 20
307.3978165488
 40
12.7381483722
100
AcDbArc
 50
325.191387349
 51
326.1186742739
  0
ARC
  5
4A6
100
AcDbEntity
  8
0
100
AcDbCircle
 62
7
  6
CONTINUOUS
 10
338.7020740574
 20
306.5235955675
 40
12.7034551153
100
AcDbArc
 50
325.2098036828
 51
327.0589962222
  0
ARC
  5
4A7
100
AcDbEntity
  8
0
100
AcDbCircle
 62
7
  6
CONTINUOUS
 10
340.85101781
 20
306.4810185623
 40
10.5806607053
100
AcDbArc
 50
0.6145048093
 51
2.4586999194
  0
ARC
  5
4A8
100
AcDbEntity
  8
0
100
AcDbCircle
 62
7
  6
CONTINUOUS
 10
339.0374494441
 20
297.7182276693
 40
10.0022447894
100
AcDbArc
 50
13.9316488409
 51
14.9384743879
  0
ARC
  5
4A9
100
AcDbEntity
  8
0
100
AcDbCircle
 62
7
  6
CONTINUOUS
 10
338.8306132485
 20
296.793860859
 40
9.9626923515
100
AcDbArc
 50
14.4229479627
 51
16.454141724
  0
ARC
  5
4AA
100
AcDbEntity
  8
0
100
AcDbCircle
 62
7
  6
CONTINUOUS
 10
338.4288691567
 20
296.7341886568
 40
9.840014703
100
AcDbArc
 50
14.966091421
 51
17.028262463
  0
ARC
  5
4AB
100
AcDbEntity
  8
0
100
AcDbCircle
 62
7
  6
CONTINUOUS
 10
344.7226730708
 20
304.0876821926
 40
6.5287800163
100
AcDbArc
 50
310.2558171378
 51
312.5154001705
  0
ARC
  5
4AC
100
AcDbEntity
  8
0
100
AcDbCircle
 62
7
  6
CONTINUOUS
 10
344.1298139894
 20
302.3461914981
 40
6.2936741142
100
AcDbArc
 50
4.5897444645
 51
7.7071940094
  0
ARC
  5
4AD
100
AcDbEntity
  8
0
100
AcDbCircle
 62
7
  6
CONTINUOUS
 10
345.8901579304
 20
304.5744233867
 40
5.6597283814
100
AcDbArc
 50
305.3156089603
 51
308.1954714233
  0
ARC
  5
4AE
100
AcDbEntity
  8
0
100
AcDbCircle
 62
7
  6
CONTINUOUS
 10
345.5269438211
 20
304.4178617212
 40
5.4327557497
100
AcDbArc
 50
306.9976948774
 51
307.8218075342
  0
ARC
  5
4AF
100
AcDbEntity
  8
0
100
AcDbCircle
 62
7
  6
CONTINUOUS
 10
344.6652529004
 20
296.4997830451
 40
4.2890145285
100
AcDbArc
 50
37.4051586398
 51
40.325798007
  0
ARC
  5
4B0
100
AcDbEntity
  8
0
100
AcDbCircle
 62
7
  6
CONTINUOUS
 10
345.203429667
 20
296.5640879862
 40
4.2523351896
100
AcDbArc
 50
36.6956842175
 51
39.6125554073
  0
ARC
  5
4B1
100
AcDbEntity
  8
0
100
AcDbCircle
 62
7
  6
CONTINUOUS
 10
346.1820652193
 20
297.3277829331
 40
3.795172042
100
AcDbArc
 50
43.8337297352
 51
47.5119104859
  0
ARC
  5
4B2
100
AcDbEntity
  8
0
100
AcDbCircle
 62
7
  6
CONTINUOUS
 10
348.8882359868
 20
304.752626352
 40
2.6148536724
100
AcDbArc
 50
30.6041232382
 51
35.0434810641
  0
ARC
  5
4B3
100
AcDbEntity
  8
0
100
AcDbCircle
 62
7
  6
CONTINUOUS
 10
351.1247268439
 20
306.9920219469
 40
0.8424176736
100
AcDbArc
 50
356.1133750399
 51
7.7164261668
  0
ARC
  5
4B4
100
AcDbEntity
  8
0
100
AcDbCircle
 62
7
  6
CONTINUOUS
 10
326.4850677551
 20
308.1222177535
 40
32.9139647534
100
AcDbArc
 50
187.719890512
 51
193.6722843686
  0
ARC
  5
4B5
100
AcDbEntity
  8
0
100
AcDbCircle
 62
7
  6
CONTINUOUS
 10
325.1215761399
 20
307.8032474304
 40
31.5137176162
100
AcDbArc
 50
193.6947457193
 51
194.4185973287
  0
ARC
  5
4B6
100
AcDbEntity
  8
0
100
AcDbCircle
 62
7
  6
CONTINUOUS
 10
328.9774465152
 20
314.4859422835
 40
24.1886379298
100
AcDbArc
 50
332.1613134318
 51
333.5207841335
  0
ARC
  5
4B7
100
AcDbEntity
  8
0
100
AcDbCircle
 62
7
  6
CONTINUOUS
 10
332.3298763489
 20
318.4334109413
 40
22.0828514272
100
AcDbArc
 50
324.9246569524
 51
325.9969329043
  0
ARC
  5
4B8
100
AcDbEntity
  8
0
100
AcDbCircle
 62
7
  6
CONTINUOUS
 10
332.7862198157
 20
308.9011930299
 40
19.0004087242
100
AcDbArc
 50
330.7450996256
 51
331.9151176365
  0
ARC
  5
4B9
100
AcDbEntity
  8
0
100
AcDbCircle
 62
7
  6
CONTINUOUS
 10
338.4514620635
 20
316.8489683032
 40
15.8804174588
100
AcDbArc
 50
319.7795177358
 51
321.3696210879
  0
ARC
  5
4BA
100
AcDbEntity
  8
0
100
AcDbCircle
 62
7
  6
CONTINUOUS
 10
338.0658922852
 20
316.8364878143
 40
15.7535527399
100
AcDbArc
 50
319.4479488085
 51
321.0583116902
  0
ARC
  5
4BB
100
AcDbEntity
  8
0
100
AcDbCircle
 62
7
  6
CONTINUOUS
 10
340.9733832485
 20
309.4046774547
 40
11.2658727335
100
AcDbArc
 50
345.5555035643
 51
347.3365051122
  0
ARC
  5
4BC
100
AcDbEntity
  8
0
100
AcDbCircle
 62
7
  6
CONTINUOUS
 10
344.0737127775
 20
309.2765624466
 40
8.4044877062
100
AcDbArc
 50
316.8688921811
 51
319.9717751014
  0
ARC
  5
4BD
100
AcDbEntity
  8
0
100
AcDbCircle
 62
7
  6
CONTINUOUS
 10
343.6025327202
 20
309.2880206411
 40
8.3669406634
100
AcDbArc
 50
316.51950768
 51
319.6525933128
  0
ARC
  5
4BE
100
AcDbEntity
  8
0
100
AcDbCircle
 62
7
  6
CONTINUOUS
 10
346.5694896743
 20
312.3119938371
 40
7.4385563903
100
AcDbArc
 50
303.1462514686
 51
305.4724043295
  0
ARC
  5
4BF
100
AcDbEntity
  8
BEZUGSACHSEN
100
AcDbCircle
 62
7
  6
CONTINUOUS
 10
322.2860784329
 20
318.1051336085
 40
7.0
100
AcDbArc
 50
188.6450218488
 51
351.3549781512
  0
ARC
  5
4C0
100
AcDbEntity
  8
RUNDUNGEN
100
AcDbCircle
 62
7
  6
CONTINUOUS
 10
348.5411170205
 20
311.2500871988
 40
4.0
100
AcDbArc
 50
344.0
 51
70.0
  0
ARC
  5
4C1
100
AcDbEntity
  8
0
100
AcDbCircle
 62
7
  6
CONTINUOUS
 10
337.0965031938
 20
318.6816850366
 40
46.0230907803
100
AcDbArc
 50
195.2263619588
 51
195.6879136278
  0
ARC
  5
4C2
100
AcDbEntity
  8
0
100
AcDbCircle
 62
7
  6
CONTINUOUS
 10
307.6535938639
 20
318.6325616341
 40
45.8384956145
100
AcDbArc
 50
344.0012892117
 51
344.7744704674
  0
ARC
  5
4C3
100
AcDbEntity
  8
0
100
AcDbCircle
 62
7
  6
CONTINUOUS
 10
330.6791220532
 20
322.2087895532
 40
40.8072014938
100
AcDbArc
 50
202.4970429877
 51
203.535695896
  0
ARC
  5
4C4
100
AcDbEntity
  8
0
100
AcDbCircle
 62
7
  6
CONTINUOUS
 10
330.5587271932
 20
322.0189165513
 40
40.1386090678
100
AcDbArc
 50
202.5989817784
 51
203.6558080782
  0
ARC
  5
4C5
100
AcDbEntity
  8
0
100
AcDbCircle
 62
7
  6
CONTINUOUS
 10
315.7932327794
 20
320.4907572807
 40
38.4891670704
100
AcDbArc
 50
334.4180804134
 51
334.9786193051
  0
ARC
  5
4C6
100
AcDbEntity
  8
0
100
AcDbCircle
 62
7
  6
CONTINUOUS
 10
317.6935923523
 20
325.6174740267
 40
37.9895401418
100
AcDbArc
 50
328.7572819435
 51
329.9508620718
  0
ARC
  5
4C7
100
AcDbEntity
  8
0
100
AcDbCircle
 62
7
  6
CONTINUOUS
 10
315.8990637579
 20
320.3027933684
 40
37.8346426216
100
AcDbArc
 50
334.2590429534
 51
334.8300057419
  0
ARC
  5
4C8
100
AcDbEntity
  8
0
100
AcDbCircle
 62
7
  6
CONTINUOUS
 10
317.7853827812
 20
325.4240726496
 40
37.344814652
100
AcDbArc
 50
328.5039294266
 51
329.7211674461
  0
ARC
  5
4C9
100
AcDbEntity
  8
RUNDUNGEN
100
AcDbCircle
 62
7
  6
CONTINUOUS
 10
344.7860784329
 20
330.7078316053
 40
13.0
100
AcDbArc
 50
179.9994625791
 51
250.0006406919
  0
ARC
  5
4CA
100
AcDbEntity
  8
BEZUGSACHSEN
100
AcDbCircle
 62
7
  6
CONTINUOUS
 10
299.7860784329
 20
330.7078316053
 40
13.0
100
AcDbArc
 50
289.9993593081
 51
0.0005374209
  0
ARC
  5
4CB
100
AcDbEntity
  8
RUNDUNGEN
100
AcDbCircle
 62
7
  6
CONTINUOUS
 10
299.7860784329
 20
327.9051336085
 40
1.5
100
AcDbArc
 50
180.0
 51
270.0
  0
ARC
  5
4CC
100
AcDbEntity
  8
RUNDUNGEN
100
AcDbCircle
 62
7
  6
CONTINUOUS
 10
344.7860784329
 20
327.9051336085
 40
1.5
100
AcDbArc
 50
270.0
 51
360.0
  0
ARC
  5
4CD
100
AcDbEntity
  8
RUNDUNGEN
100
AcDbCircle
 62
7
  6
CONTINUOUS
 10
344.7860784329
 20
330.4051336085
 40
1.5
100
AcDbArc
 50
0.0
 51
90.0
  0
ARC
  5
4CE
100
AcDbEntity
  8
RUNDUNGEN
100
AcDbCircle
 62
7
  6
CONTINUOUS
 10
299.7860784329
 20
330.4051336085
 40
1.5
100
AcDbArc
 50
90.0
 51
180.0
  0
ARC
  5
4CF
100
AcDbEntity
  8
0
100
AcDbCircle
 62
7
  6
CONTINUOUS
 10
239.9442800396
 20
346.4993285246
 40
118.5263121763
100
AcDbArc
 50
339.0974269224
 51
339.4493267962
  0
ARC
  5
4D0
100
AcDbEntity
  8
0
100
AcDbCircle
 62
7
  6
CONTINUOUS
 10
241.774339497
 20
345.7869753978
 40
116.0685904792
100
AcDbArc
 50
339.01047105
 51
339.3700201153
  0
ARC
  5
4D1
100
AcDbEntity
  8
BEZUGSACHSEN
100
AcDbCircle
 62
7
  6
CONTINUOUS
 10
316.7860784329
 20
379.4431726071
 40
4.0
100
AcDbArc
 50
90.0
 51
180.0
  0
ARC
  5
4D2
100
AcDbEntity
  8
RUNDUNGEN
100
AcDbCircle
 62
7
  6
CONTINUOUS
 10
327.7860784329
 20
379.4431726071
 40
4.0
100
AcDbArc
 50
0.0
 51
90.0
  0
ARC
  5
4D3
100
AcDbEntity
  8
0
100
AcDbCircle
 62
7
  6
CONTINUOUS
 10
634.4516303058
 20
418.3431119989
 40
359.2319615111
100
AcDbArc
 50
198.2384155398
 51
198.3527896951
  0
ARC
  5
4D4
100
AcDbEntity
  8
0
100
AcDbCircle
 62
7
  6
CONTINUOUS
 10
524.3739002556
 20
358.3619707628
 40
237.0293414246
100
AcDbArc
 50
193.0371167188
 51
193.206107363
  0
ARC
  5
4D5
100
AcDbEntity
  8
0
100
AcDbCircle
 62
7
  6
CONTINUOUS
 10
441.356073887
 20
359.3111280516
 40
157.0891147571
100
AcDbArc
 50
201.8652328641
 51
202.0660585307
  0
ARC
  5
4D6
100
AcDbEntity
  8
0
100
AcDbCircle
 62
7
  6
CONTINUOUS
 10
437.6329793116
 20
357.9557599984
 40
152.6264451557
100
AcDbArc
 50
201.9893220846
 51
202.1962053681
  0
ARC
  5
4D7
100
AcDbEntity
  8
0
100
AcDbCircle
 62
7
  6
CONTINUOUS
 10
412.4275957046
 20
327.6002158076
 40
120.9430471357
100
AcDbArc
 50
191.1504571025
 51
191.3971276885
  0
ARC
  5
4D8
100
AcDbEntity
  8
0
100
AcDbCircle
 62
7
  6
CONTINUOUS
 10
401.3416847045
 20
333.5265828569
 40
111.8644451622
100
AcDbArc
 50
197.9715240423
 51
198.4717100234
  0
ARC
  5
4D9
100
AcDbEntity
  8
0
100
AcDbCircle
 62
7
  6
CONTINUOUS
 10
393.3655221486
 20
332.9923685392
 40
104.0570054391
100
AcDbArc
 50
195.22954606
 51
195.4723174765
  0
ARC
  5
4DA
100
AcDbEntity
  8
0
100
AcDbCircle
 62
7
  6
CONTINUOUS
 10
382.6539825664
 20
337.9229452793
 40
94.9050591886
100
AcDbArc
 50
203.2453483235
 51
203.6934617261
  0
ARC
  5
4DB
100
AcDbEntity
  8
0
100
AcDbCircle
 62
7
  6
CONTINUOUS
 10
370.1205323479
 20
333.8271747563
 40
81.9184195576
100
AcDbArc
 50
200.0491274631
 51
200.4297848871
  0
ARC
  5
4DC
100
AcDbEntity
  8
RUNDUNGEN
100
AcDbCircle
 62
7
  6
CONTINUOUS
 10
149.4043886219
 20
43.4796226113
 40
21.0
100
AcDbArc
 50
45.8660256995
 51
71.2571991587
  0
ARC
  5
4DD
100
AcDbEntity
  8
RUNDUNGEN
100
AcDbCircle
 62
7
  6
CONTINUOUS
 10
119.0390150368
 20
71.1235904814
 40
4.0
100
AcDbArc
 50
185.3712154654
 51
269.9999999998
  0
ARC
  5
4DE
100
AcDbEntity
  8
0
100
AcDbCircle
 62
7
  6
CONTINUOUS
 10
160.6506054891
 20
76.6235904814
 40
22.75
100
AcDbArc
 50
324.0589790419
 51
335.3185872569
  0
ARC
  5
4DF
100
AcDbEntity
  8
0
100
AcDbCircle
 62
7
  6
CONTINUOUS
 10
160.6506054891
 20
76.6235904814
 40
22.75
100
AcDbArc
 50
206.1002658631
 51
290.1313695965
  0
ARC
  5
4E0
100
AcDbEntity
  8
0
100
AcDbCircle
 62
7
  6
CONTINUOUS
 10
160.6506054891
 20
76.6235904814
 40
22.75
100
AcDbArc
 50
24.678153065
 51
35.9410196487
  0
ARC
  5
4E1
100
AcDbEntity
  8
0
100
AcDbCircle
 62
7
  6
CONTINUOUS
 10
160.6506054891
 20
76.6235904814
 40
22.75
100
AcDbArc
 50
69.8686627018
 51
155.318652714
  0
ARC
  5
4E2
100
AcDbEntity
  8
RUNDUNGEN
100
AcDbCircle
 62
7
  6
CONTINUOUS
 10
160.6506054891
 20
76.6235904814
 40
22.5
100
AcDbArc
 50
24.9862636994
 51
36.2481999021
  0
ARC
  5
4E3
100
AcDbEntity
  8
RUNDUNGEN
100
AcDbCircle
 62
7
  6
CONTINUOUS
 10
160.6506054891
 20
76.6235904814
 40
22.5
100
AcDbArc
 50
70.4253226414
 51
155.0137363004
  0
ARC
  5
4E4
100
AcDbEntity
  8
RUNDUNGEN
100
AcDbCircle
 62
7
  6
CONTINUOUS
 10
160.6506054891
 20
76.6235904814
 40
22.5
100
AcDbArc
 50
206.3913262399
 51
289.5746773585
  0
ARC
  5
4E5
100
AcDbEntity
  8
RUNDUNGEN
100
AcDbCircle
 62
7
  6
CONTINUOUS
 10
160.6506054891
 20
76.6235904814
 40
22.5
100
AcDbArc
 50
323.751800098
 51
335.0137363004
  0
ARC
  5
4E6
100
AcDbEntity
  8
RUNDUNGEN
100
AcDbCircle
 62
7
  6
CONTINUOUS
 10
149.4043886219
 20
109.7675583515
 40
21.0
100
AcDbArc
 50
288.7428008413
 51
314.1339743005
  0
ARC
  5
4E7
100
AcDbEntity
  8
RUNDUNGEN
100
AcDbCircle
 62
7
  6
CONTINUOUS
 10
160.6506054891
 20
76.6235904814
 40
14.0
100
AcDbArc
 50
108.7428008413
 51
137.2171745245
  0
ARC
  5
4E8
100
AcDbEntity
  8
RUNDUNGEN
100
AcDbCircle
 62
7
  6
CONTINUOUS
 10
160.6506054891
 20
76.6235904814
 40
14.0
100
AcDbArc
 50
222.7828254734
 51
251.2571991587
  0
ARC
  5
4E9
100
AcDbEntity
  8
BEZUGSACHSEN
100
AcDbCircle
 62
7
  6
CONTINUOUS
 10
119.0390150368
 20
82.1235904814
 40
4.0
100
AcDbArc
 50
90.0000000002
 51
174.6287845347
  0
ARC
  5
4EA
100
AcDbEntity
  8
RUNDUNGEN
100
AcDbCircle
 62
7
  6
CONTINUOUS
 10
178.6506054891
 20
73.6235904814
 40
21.0
100
AcDbArc
 50
225.8660256995
 51
279.0
  0
ARC
  5
4EB
100
AcDbEntity
  8
RUNDUNGEN
100
AcDbCircle
 62
7
  6
CONTINUOUS
 10
180.6506054891
 20
72.1235904814
 40
9.0
100
AcDbArc
 50
213.7490190106
 51
270.0
  0
ARC
  5
4EC
100
AcDbEntity
  8
RUNDUNGEN
100
AcDbCircle
 62
7
  6
CONTINUOUS
 10
202.2622024017
 20
71.1235904814
 40
4.0
100
AcDbArc
 50
270.0000000002
 51
354.6282260875
  0
ARC
  5
4ED
100
AcDbEntity
  8
RUNDUNGEN
100
AcDbCircle
 62
7
  6
CONTINUOUS
 10
209.1506054891
 20
58.7112459584
 40
1.5
100
AcDbArc
 50
279.0
 51
360.0
  0
ARC
  5
4EE
100
AcDbEntity
  8
RUNDUNGEN
100
AcDbCircle
 62
7
  6
CONTINUOUS
 10
209.1506054891
 20
67.6235904814
 40
1.5
100
AcDbArc
 50
0.0
 51
90.0
  0
ARC
  5
4EF
100
AcDbEntity
  8
RUNDUNGEN
100
AcDbCircle
 62
7
  6
CONTINUOUS
 10
202.6506054891
 20
64.6235904814
 40
1.5
100
AcDbArc
 50
270.0
 51
360.0
  0
ARC
  5
4F0
100
AcDbEntity
  8
RUNDUNGEN
100
AcDbCircle
 62
7
  6
CONTINUOUS
 10
178.6506054891
 20
79.6235904814
 40
21.0
100
AcDbArc
 50
81.0
 51
134.1339743005
  0
ARC
  5
4F1
100
AcDbEntity
  8
RUNDUNGEN
100
AcDbCircle
 62
7
  6
CONTINUOUS
 10
180.6506054891
 20
81.1235904814
 40
9.0
100
AcDbArc
 50
90.0
 51
146.2509809799
  0
ARC
  5
4F2
100
AcDbEntity
  8
BEZUGSACHSEN
100
AcDbCircle
 62
7
  6
CONTINUOUS
 10
202.2622024017
 20
82.1235904814
 40
4.0
100
AcDbArc
 50
5.3717739124
 51
89.9999999998
  0
ARC
  5
4F3
100
AcDbEntity
  8
RUNDUNGEN
100
AcDbCircle
 62
7
  6
CONTINUOUS
 10
209.1506054891
 20
94.5359350044
 40
1.5
100
AcDbArc
 50
0.0
 51
81.0
  0
ARC
  5
4F4
100
AcDbEntity
  8
RUNDUNGEN
100
AcDbCircle
 62
7
  6
CONTINUOUS
 10
209.1506054891
 20
85.6235904814
 40
1.5
100
AcDbArc
 50
270.0
 51
360.0
  0
ARC
  5
4F5
100
AcDbEntity
  8
RUNDUNGEN
100
AcDbCircle
 62
7
  6
CONTINUOUS
 10
202.6506054891
 20
88.6235904814
 40
1.5
100
AcDbArc
 50
0.0
 51
90.0
  0
SPLINE
  5
4F6
100
AcDbEntity
  8
KONSTRUKTIONSELEMENTE
100
AcDbSpline
 62
7
  6
CONTINUOUS
 70
0
 71
3
 72
11
 73
7
 74
0
 42
0.0000001
 43
0.0000001
 44
0.0000000001
 40
0.0
 40
0.0
 40
0.0
 40
0.0
 40
0.2404100528
 40
0.4855109822
 40
0.7383644671
 40
1.0
 40
1.0
 40
1.0
 40
1.0
 10
145.062148221
 20
189.9051336086
 30
0.0
 10
144.6214396465
 20
189.9051336086
 30
0.0
 10
143.729771456
 20
189.8283093811
 30
0.0
 10
142.4126956948
 20
189.4964044392
 30
0.0
 10
141.1169891271
 20
188.9776559653
 30
0.0
 10
140.281357293
 20
188.5372475247
 30
0.0
 10
139.8659957983
 20
188.2974384539
 30
0.0
  0
SPLINE
  5
4F7
100
AcDbEntity
  8
KONSTRUKTIONSELEMENTE
100
AcDbSpline
 62
7
  6
CONTINUOUS
 70
0
 71
3
 72
11
 73
7
 74
0
 42
0.0000001
 43
0.0000001
 44
0.0000000001
 40
0.0
 40
0.0
 40
0.0
 40
0.0
 40
0.2616355419
 40
0.5144890695
 40
0.7595899799
 40
1.0
 40
1.0
 40
1.0
 40
1.0
 10
181.4352151799
 20
188.2974384539
 30
0.0
 10
181.0198536709
 20
188.537247533
 30
0.0
 10
180.1842217583
 20
188.9776560295
 30
0.0
 10
178.8885151198
 20
189.4964044943
 30
0.0
 10
177.5714393677
 20
189.8283094017
 30
0.0
 10
176.6797712719
 20
189.9051336086
 30
0.0
 10
176.2390627573
 20
189.9051336086
 30
0.0
  0
SPLINE
  5
4F8
100
AcDbEntity
  8
KONSTRUKTIONSELEMENTE
100
AcDbSpline
 62
7
  6
CONTINUOUS
 70
0
 71
3
 72
11
 73
7
 74
0
 42
0.0000001
 43
0.0000001
 44
0.0000000001
 40
0.0
 40
0.0
 40
0.0
 40
0.0
 40
0.2404100528
 40
0.4855109822
 40
0.7383644671
 40
1.0
 40
1.0
 40
1.0
 40
1.0
 10
176.2390627573
 20
189.9051336086
 30
0.0
 10
175.7983541828
 20
189.9051336086
 30
0.0
 10
174.9066859922
 20
189.8283093811
 30
0.0
 10
173.589610231
 20
189.4964044392
 30
0.0
 10
172.2939036634
 20
188.9776559653
 30
0.0
 10
171.4582718293
 20
188.5372475247
 30
0.0
 10
171.0429103345
 20
188.2974384539
 30
0.0
  0
SPLINE
  5
4F9
100
AcDbEntity
  8
KONSTRUKTIONSELEMENTE
100
AcDbSpline
 62
7
  6
CONTINUOUS
 70
0
 71
3
 72
10
 73
6
 74
0
 42
0.0000001
 43
0.0000001
 44
0.0000000001
 40
0.0
 40
0.0
 40
0.0
 40
0.0
 40
0.4998915772
 40
0.7499458269
 40
1.0
 40
1.0
 40
1.0
 40
1.0
 10
171.0429103345
 20
188.2974384539
 30
0.0
 10
169.3544242116
 20
188.7848624127
 30
0.0
 10
166.7802544988
 20
189.3942283688
 30
0.0
 10
163.2888290237
 20
189.8301212139
 30
0.0
 10
161.5297025667
 20
189.9051336085
 30
0.0
 10
160.6506054891
 20
189.9051336086
 30
0.0
  0
SPLINE
  5
4FA
100
AcDbEntity
  8
BEZUGSACHSEN
100
AcDbSpline
 62
7
  6
CONTINUOUS
 70
0
 71
3
 72
17
 73
13
 74
0
 42
0.0000001
 43
0.0000001
 44
0.0000000001
 40
0.0
 40
0.0
 40
0.0
 40
0.0
 40
0.1379493374
 40
0.2669046225
 40
0.3865345207
 40
0.4437238645
 40
0.5000000688
 40
0.5562762816
 40
0.6134655876
 40
0.7330954213
 40
0.8620506152
 40
1.0
 40
1.0
 40
1.0
 40
1.0
 10
181.4352151799
 20
173.1897432994
 30
0.0
 10
181.0422602351
 20
172.7967883545
 30
0.0
 10
180.249368086
 20
172.0672338952
 30
0.0
 10
178.9751447371
 20
171.162775636
 30
0.0
 10
177.842090556
 20
170.6489367941
 30
0.0
 10
176.9235184724
 20
170.4399218861
 30
0.0
 10
176.239061826
 20
170.3882423084
 30
0.0
 10
175.5546054788
 20
170.4399226243
 30
0.0
 10
174.6360334332
 20
170.6489360675
 30
0.0
 10
173.5029806473
 20
171.162776448
 30
0.0
 10
172.228757311
 20
172.067233639
 30
0.0
 10
171.4358654143
 20
172.7967882196
 30
0.0
 10
171.0429103345
 20
173.1897432994
 30
0.0
  0
SPLINE
  5
4FB
100
AcDbEntity
  8
BEZUGSACHSEN
100
AcDbSpline
 62
7
  6
CONTINUOUS
 70
0
 71
3
 72
15
 73
11
 74
0
 42
0.0000001
 43
0.0000001
 44
0.0000000001
 40
0.0
 40
0.0
 40
0.0
 40
0.0
 40
0.1250035726
 40
0.2500177617
 40
0.3750129322
 40
0.5000000785
 40
0.6249871996
 40
0.7499822809
 40
0.8749963857
 40
1.0
 40
1.0
 40
1.0
 40
1.0
 10
171.0429103345
 20
173.1897432994
 30
0.0
 10
170.2340136294
 20
172.7852949468
 30
0.0
 10
168.5870463776
 20
172.0321228856
 30
0.0
 10
166.0218750883
 20
171.1337117359
 30
0.0
 10
163.3657640394
 20
170.5437071439
 30
0.0
 10
160.6506039471
 20
170.3362131913
 30
0.0
 10
157.9354443683
 20
170.5437066612
 30
0.0
 10
155.279335072
 20
171.1337124411
 30
0.0
 10
152.7141645256
 20
172.03212268
 30
0.0
 10
151.0671976191
 20
172.7852948117
 30
0.0
 10
150.2583006437
 20
173.1897432994
 30
0.0
  0
SPLINE
  5
4FC
100
AcDbEntity
  8
KONSTRUKTIONSELEMENTE
100
AcDbSpline
 62
7
  6
CONTINUOUS
 70
0
 71
3
 72
10
 73
6
 74
0
 42
0.0000001
 43
0.0000001
 44
0.0000000001
 40
0.0
 40
0.0
 40
0.0
 40
0.0
 40
0.2500541975
 40
0.5001084613
 40
1.0
 40
1.0
 40
1.0
 40
1.0
 10
160.6506054891
 20
189.9051336086
 30
0.0
 10
159.7715083259
 20
189.9051336086
 30
0.0
 10
158.0123817335
 20
189.8301211967
 30
0.0
 10
154.5209562628
 20
189.3942283165
 30
0.0
 10
151.9467866365
 20
188.7848623752
 30
0.0
 10
150.2583006437
 20
188.2974384539
 30
0.0
  0
SPLINE
  5
4FD
100
AcDbEntity
  8
KONSTRUKTIONSELEMENTE
100
AcDbSpline
 62
7
  6
CONTINUOUS
 70
0
 71
3
 72
11
 73
7
 74
0
 42
0.0000001
 43
0.0000001
 44
0.0000000001
 40
0.0
 40
0.0
 40
0.0
 40
0.0
 40
0.2616355419
 40
0.5144890695
 40
0.7595899799
 40
1.0
 40
1.0
 40
1.0
 40
1.0
 10
150.2583006437
 20
188.2974384539
 30
0.0
 10
149.8429391347
 20
188.537247533
 30
0.0
 10
149.0073072221
 20
188.9776560295
 30
0.0
 10
147.7116005836
 20
189.4964044943
 30
0.0
 10
146.3945248314
 20
189.8283094017
 30
0.0
 10
145.5028567357
 20
189.9051336086
 30
0.0
 10
145.062148221
 20
189.9051336086
 30
0.0
  0
SPLINE
  5
4FE
100
AcDbEntity
  8
BEZUGSACHSEN
100
AcDbSpline
 62
7
  6
CONTINUOUS
 70
0
 71
3
 72
17
 73
13
 74
0
 42
0.0000001
 43
0.0000001
 44
0.0000000001
 40
0.0
 40
0.0
 40
0.0
 40
0.0
 40
0.1379493374
 40
0.2669046225
 40
0.3865345207
 40
0.4437238645
 40
0.5000000688
 40
0.5562762816
 40
0.6134655876
 40
0.7330954213
 40
0.8620506152
 40
1.0
 40
1.0
 40
1.0
 40
1.0
 10
150.2583006437
 20
173.1897432994
 30
0.0
 10
149.8653456988
 20
172.7967883545
 30
0.0
 10
149.0724535498
 20
172.0672338952
 30
0.0
 10
147.7982302008
 20
171.162775636
 30
0.0
 10
146.6651760198
 20
170.6489367941
 30
0.0
 10
145.7466039361
 20
170.4399218861
 30
0.0
 10
145.0621472897
 20
170.3882423084
 30
0.0
 10
144.3776909426
 20
170.4399226243
 30
0.0
 10
143.459118897
 20
170.6489360675
 30
0.0
 10
142.3260661111
 20
171.162776448
 30
0.0
 10
141.0518427747
 20
172.067233639
 30
0.0
 10
140.2589508781
 20
172.7967882196
 30
0.0
 10
139.8659957983
 20
173.1897432994
 30
0.0
  0
SPLINE
  5
4FF
100
AcDbEntity
  8
0
100
AcDbSpline
 62
7
  6
CONTINUOUS
 70
0
 71
3
 72
9
 73
5
 74
0
 42
0.0000001
 43
0.0000001
 44
0.0000000001
 40
0.0
 40
0.0
 40
0.0
 40
0.0
 40
0.2626048997
 40
1.0
 40
1.0
 40
1.0
 40
1.0
 10
151.8569419056
 20
317.4261179572
 30
0.0
 10
151.410241661
 20
317.4942618968
 30
0.0
 10
149.7128820931
 20
317.7765370268
 30
0.0
 10
148.0298815037
 20
318.1507541604
 30
0.0
 10
146.8077358701
 20
318.491827535
 30
0.0
  0
SPLINE
  5
500
100
AcDbEntity
  8
0
100
AcDbSpline
 62
7
  6
CONTINUOUS
 70
0
 71
3
 72
9
 73
5
 74
0
 42
0.0000001
 43
0.0000001
 44
0.0000000001
 40
0.0
 40
0.0
 40
0.0
 40
0.0
 40
0.2367117298
 40
1.0
 40
1.0
 40
1.0
 40
1.0
 10
174.4934751081
 20
318.491827535
 30
0.0
 10
174.1011459159
 20
318.3823372763
 30
0.0
 10
172.435669446
 20
317.9488263574
 30
0.0
 10
170.7426732675
 20
317.6241890035
 30
0.0
 10
169.4442685485
 20
317.4261178805
 30
0.0
  0
SPLINE
  5
501
100
AcDbEntity
  8
0
100
AcDbSpline
 62
7
  6
CONTINUOUS
 70
0
 71
3
 72
9
 73
5
 74
0
 42
0.0000001
 43
0.0000001
 44
0.0000000001
 40
0.0
 40
0.0
 40
0.0
 40
0.0
 40
0.4900295481
 40
1.0
 40
1.0
 40
1.0
 40
1.0
 10
177.8659957847
 20
320.1806261613
 30
0.0
 10
177.3912063234
 20
319.7824286799
 30
0.0
 10
176.3115075947
 20
319.0963586785
 30
0.0
 10
175.1146222994
 20
318.6651757538
 30
0.0
 10
174.4934751081
 20
318.491827535
 30
0.0
  0
SPLINE
  5
502
100
AcDbEntity
  8
0
100
AcDbSpline
 62
7
  6
CONTINUOUS
 70
0
 71
3
 72
9
 73
5
 74
0
 42
0.0000001
 43
0.0000001
 44
0.0000000001
 40
0.0
 40
0.0
 40
0.0
 40
0.0
 40
0.5099704243
 40
1.0
 40
1.0
 40
1.0
 40
1.0
 10
146.8077358701
 20
318.491827535
 30
0.0
 10
146.186590297
 20
318.6651753022
 30
0.0
 10
144.98970801
 20
319.0963568583
 30
0.0
 10
143.9100114771
 20
319.782424054
 30
0.0
 10
143.4352226611
 20
320.1806198996
 30
0.0
  0
SPLINE
  5
503
100
AcDbEntity
  8
0
100
AcDbSpline
 62
7
  6
CONTINUOUS
 70
0
 71
3
 72
9
 73
5
 74
0
 42
0.0000001
 43
0.0000001
 44
0.0000000001
 40
0.0
 40
0.0
 40
0.0
 40
0.0
 40
0.2484122221
 40
1.0
 40
1.0
 40
1.0
 40
1.0
 10
182.0251719003
 20
326.4052079039
 30
0.0
 10
181.9682807648
 20
326.2488041923
 30
0.0
 10
181.7341053768
 20
325.621113988
 30
0.0
 10
181.4748669526
 20
325.0024866042
 30
0.0
 10
181.2612685294
 20
324.5464917249
 30
0.0
  0
SPLINE
  5
504
100
AcDbEntity
  8
0
100
AcDbSpline
 62
7
  6
CONTINUOUS
 70
0
 71
3
 72
9
 73
5
 74
0
 42
0.0000001
 43
0.0000001
 44
0.0000000001
 40
0.0
 40
0.0
 40
0.0
 40
0.0
 40
0.5034493754
 40
1.0
 40
1.0
 40
1.0
 40
1.0
 10
181.2612685294
 20
324.5464917249
 30
0.0
 10
181.048781911
 20
324.0928842582
 30
0.0
 10
180.5684875417
 20
323.2179163389
 30
0.0
 10
179.9812698215
 20
322.4113960306
 30
0.0
 10
179.6681881517
 20
322.0292169537
 30
0.0
  0
SPLINE
  5
505
100
AcDbEntity
  8
0
100
AcDbSpline
 62
7
  6
CONTINUOUS
 70
0
 71
3
 72
9
 73
5
 74
0
 42
0.0000001
 43
0.0000001
 44
0.0000000001
 40
0.0
 40
0.0
 40
0.0
 40
0.0
 40
0.2464357088
 40
1.0
 40
1.0
 40
1.0
 40
1.0
 10
179.6681881517
 20
322.0292169537
 30
0.0
 10
179.5336881562
 20
321.8650450429
 30
0.0
 10
178.9760634283
 20
321.2088955878
 30
0.0
 10
178.3632425594
 20
320.5976581884
 30
0.0
 10
177.8659958282
 20
320.180626194
 30
0.0
  0
SPLINE
  5
506
100
AcDbEntity
  8
0
100
AcDbSpline
 62
7
  6
CONTINUOUS
 70
0
 71
3
 72
15
 73
11
 74
0
 42
0.0000001
 43
0.0000001
 44
0.0000000001
 40
0.0
 40
0.0
 40
0.0
 40
0.0
 40
0.1207392327
 40
0.2451038783
 40
0.3719261618
 40
0.500000044
 40
0.6280739326
 40
0.7548962087
 40
0.8792608025
 40
1.0
 40
1.0
 40
1.0
 40
1.0
 10
169.4445643506
 20
317.426167393
 30
0.0
 10
168.7410173583
 20
317.318841579
 30
0.0
 10
167.3112306412
 20
317.1110358866
 30
0.0
 10
165.1356727674
 20
316.8389063444
 30
0.0
 10
162.908286321
 20
316.6396984563
 30
0.0
 10
160.650604948
 20
316.5644152335
 30
0.0
 10
158.3929236142
 20
316.6396984664
 30
0.0
 10
156.165537498
 20
316.8389065317
 30
0.0
 10
153.9899801613
 20
317.1110358724
 30
0.0
 10
152.5601939546
 20
317.3188415166
 30
0.0
 10
151.856647166
 20
317.4261672919
 30
0.0
  0
SPLINE
  5
507
100
AcDbEntity
  8
0
100
AcDbSpline
 62
7
  6
CONTINUOUS
 70
0
 71
3
 72
9
 73
5
 74
0
 42
0.0000001
 43
0.0000001
 44
0.0000000001
 40
0.0
 40
0.0
 40
0.0
 40
0.0
 40
0.2536001252
 40
1.0
 40
1.0
 40
1.0
 40
1.0
 10
143.435222661
 20
320.1806198997
 30
0.0
 10
143.2678584467
 20
320.3209849054
 30
0.0
 10
142.6240385039
 20
320.8937213724
 30
0.0
 10
142.04045038
 20
321.5319051338
 30
0.0
 10
141.633022073
 20
322.0292158304
 30
0.0
  0
SPLINE
  5
508
100
AcDbEntity
  8
0
100
AcDbSpline
 62
7
  6
CONTINUOUS
 70
0
 71
3
 72
9
 73
5
 74
0
 42
0.0000001
 43
0.0000001
 44
0.0000000001
 40
0.0
 40
0.0
 40
0.0
 40
0.0
 40
0.4965500518
 40
1.0
 40
1.0
 40
1.0
 40
1.0
 10
141.633022073
 20
322.0292158304
 30
0.0
 10
141.319940015
 20
322.4113905106
 30
0.0
 10
140.7327366991
 20
323.21791483
 30
0.0
 10
140.2524358109
 20
324.0928724735
 30
0.0
 10
140.0399494477
 20
324.5464777945
 30
0.0
  0
SPLINE
  5
509
100
AcDbEntity
  8
0
100
AcDbSpline
 62
7
  6
CONTINUOUS
 70
0
 71
3
 72
13
 73
9
 74
0
 42
0.0000001
 43
0.0000001
 44
0.0000000001
 40
0.0
 40
0.0
 40
0.0
 40
0.0
 40
0.2675654119
 40
0.5321969207
 40
0.6612892355
 40
0.785756217
 40
0.9015567772
 40
1.0
 40
1.0
 40
1.0
 40
1.0
 10
140.0399494477
 20
324.5464777945
 30
0.0
 10
139.8700778518
 20
324.9091240032
 30
0.0
 10
139.5556939693
 20
325.6415957438
 30
0.0
 10
139.2125796983
 20
326.5702522835
 30
0.0
 10
138.9615832215
 20
327.3040650549
 30
0.0
 10
138.7871493017
 20
327.8287134085
 30
0.0
 10
138.6240134891
 20
328.3084541898
 30
0.0
 10
138.5120691265
 20
328.6095732034
 30
0.0
 10
138.4497538448
 20
328.7430848928
 30
0.0
  0
SPLINE
  5
50A
100
AcDbEntity
  8
BEZUGSACHSEN
100
AcDbSpline
 62
7
  6
CONTINUOUS
 70
0
 71
3
 72
29
 73
25
 74
0
 42
0.0000001
 43
0.0000001
 44
0.0000000001
 40
0.0
 40
0.0
 40
0.0
 40
0.0
 40
0.0223809473
 40
0.0871438495
 40
0.1889510079
 40
0.2515877081
 40
0.32076823
 40
0.3955206292
 40
0.4749053384
 40
0.5580425461
 40
0.6007675677
 40
0.6441396009
 40
0.688073332
 40
0.7324888222
 40
0.7773103926
 40
0.8224622059
 40
0.8678524008
 40
0.8906019896
 40
0.913326174
 40
0.935890775
 40
0.9579393355
 40
0.9687019095
 40
0.9792679471
 40
1.0
 40
1.0
 40
1.0
 40
1.0
 10
194.1382456716
 20
308.5196183555
 30
0.0
 10
193.9239119097
 20
308.4544143596
 30
0.0
 10
193.0899382142
 20
308.198641348
 30
0.0
 10
191.286993175
 20
307.6267664641
 30
0.0
 10
189.1158020666
 20
306.8840449091
 30
0.0
 10
186.9213558278
 20
306.0754171079
 30
0.0
 10
184.9953678082
 20
305.3225220496
 30
0.0
 10
182.931878437
 20
304.4622789576
 30
0.0
 10
180.7632496467
 20
303.4929884836
 30
0.0
 10
178.9122296578
 20
302.6006104221
 30
0.0
 10
177.4054435504
 20
301.826254789
 30
0.0
 10
176.2593578889
 20
301.2090752093
 30
0.0
 10
175.1124136222
 20
300.5584009448
 30
0.0
 10
173.9705450659
 20
299.8702215077
 30
0.0
 10
172.8417018843
 20
299.1378508955
 30
0.0
 10
171.7390487777
 20
298.3496167039
 30
0.0
 10
170.8613640393
 20
297.6284312734
 30
0.0
 10
170.2143097006
 20
296.9881016876
 30
0.0
 10
169.7767915608
 20
296.4640083987
 30
0.0
 10
169.4251212818
 20
295.8850294909
 30
0.0
 10
169.2783887327
 20
295.33387431
 30
0.0
 10
169.3242171684
 20
294.8971930403
 30
0.0
 10
169.4727294328
 20
294.4991926786
 30
0.0
 10
169.674930583
 20
294.2493162424
 30
0.0
 10
169.8241926449
 20
294.1051336085
 30
0.0
  0
SPLINE
  5
50B
100
AcDbEntity
  8
BEZUGSACHSEN
100
AcDbSpline
 62
7
  6
CONTINUOUS
 70
0
 71
3
 72
29
 73
25
 74
0
 42
0.0000001
 43
0.0000001
 44
0.0000000001
 40
0.0
 40
0.0
 40
0.0
 40
0.0
 40
0.0223830924
 40
0.0871518864
 40
0.1889674035
 40
0.2516079214
 40
0.3207918905
 40
0.3955480199
 40
0.4749366575
 40
0.5580784002
 40
0.6008057175
 40
0.6441801527
 40
0.6881162823
 40
0.732534149
 40
0.7773580176
 40
0.822511889
 40
0.8679031082
 40
0.8906521932
 40
0.9133742929
 40
0.9359326152
 40
0.9579586485
 40
0.9687136977
 40
0.9792709605
 40
1.0
 40
1.0
 40
1.0
 40
1.0
 10
127.1629653066
 20
308.5196183555
 30
0.0
 10
127.3773201121
 20
308.4544079427
 30
0.0
 10
128.2113726973
 20
308.198610758
 30
0.0
 10
130.0144782845
 20
307.6266843785
 30
0.0
 10
132.1858424433
 20
306.8838926682
 30
0.0
 10
134.3804350025
 20
306.0751938379
 30
0.0
 10
136.3065280871
 20
305.3222516168
 30
0.0
 10
138.3701144047
 20
304.4619384451
 30
0.0
 10
140.5388544883
 20
303.4925838852
 30
0.0
 10
142.3899591847
 20
302.6001220232
 30
0.0
 10
143.8968201157
 20
301.8257010745
 30
0.0
 10
145.0429591159
 20
301.2084641995
 30
0.0
 10
146.189955377
 20
300.5577294562
 30
0.0
 10
147.3318641094
 20
299.8694733325
 30
0.0
 10
148.4607366276
 20
299.137017199
 30
0.0
 10
149.5633895046
 20
298.3486862487
 30
0.0
 10
150.4410292073
 20
297.6273903107
 30
0.0
 10
151.0879383036
 20
296.9869393077
 30
0.0
 10
151.5253045665
 20
296.4628126015
 30
0.0
 10
151.8764729833
 20
295.8839191171
 30
0.0
 10
152.0231068705
 20
295.3331012372
 30
0.0
 10
151.9769517287
 20
294.8968332045
 30
0.0
 10
151.8283276046
 20
294.4991088536
 30
0.0
 10
151.6262590517
 20
294.2492956253
 30
0.0
 10
151.4770183333
 20
294.1051336085
 30
0.0
  0
SPLINE
  5
50C
100
AcDbEntity
  8
KONSTRUKTIONSELEMENTE
100
AcDbSpline
 62
7
  6
CONTINUOUS
 70
0
 71
3
 72
9
 73
5
 74
0
 42
0.0000001
 43
0.0000001
 44
0.0000000001
 40
0.0
 40
0.0
 40
0.0
 40
0.0
 40
0.2491345028
 40
1.0
 40
1.0
 40
1.0
 40
1.0
 10
310.273688175
 20
189.7128478251
 30
0.0
 10
309.7662885893
 20
189.6486498556
 30
0.0
 10
307.7373535719
 20
189.3292647443
 30
0.0
 10
305.7484180288
 20
188.7848849859
 30
0.0
 10
304.2860784329
 20
188.2974384539
 30
0.0
  0
SPLINE
  5
50D
100
AcDbEntity
  8
KONSTRUKTIONSELEMENTE
100
AcDbSpline
 62
7
  6
CONTINUOUS
 70
0
 71
3
 72
9
 73
5
 74
0
 42
0.0000001
 43
0.0000001
 44
0.0000000001
 40
0.0
 40
0.0
 40
0.0
 40
0.0
 40
0.2512164057
 40
1.0
 40
1.0
 40
1.0
 40
1.0
 10
340.2860784329
 20
188.2974384539
 30
0.0
 10
339.7968982694
 20
188.4604985085
 30
0.0
 10
337.8385199646
 20
189.0739634361
 30
0.0
 10
335.8232456147
 20
189.5199279994
 30
0.0
 10
334.2984651762
 20
189.7128482398
 30
0.0
  0
SPLINE
  5
50E
100
AcDbEntity
  8
BEZUGSACHSEN
100
AcDbSpline
 62
7
  6
CONTINUOUS
 70
0
 71
3
 72
15
 73
11
 74
0
 42
0.0000001
 43
0.0000001
 44
0.0000000001
 40
0.0
 40
0.0
 40
0.0
 40
0.0
 40
0.12678678
 40
0.2523062995
 40
0.3765643151
 40
0.5000000768
 40
0.6234358136
 40
0.7476937433
 40
0.8732131774
 40
1.0
 40
1.0
 40
1.0
 40
1.0
 10
340.2860784329
 20
173.1897432994
 30
0.0
 10
339.5888317269
 20
172.7871877259
 30
0.0
 10
338.1703388116
 20
172.0373806535
 30
0.0
 10
335.9492316366
 20
171.1375161581
 30
0.0
 10
333.6454461429
 20
170.5448689528
 30
0.0
 10
331.286077104
 20
170.335861597
 30
0.0
 10
328.9267084625
 20
170.5448684792
 30
0.0
 10
326.6229245717
 20
171.1375168509
 30
0.0
 10
324.4018179752
 20
172.0373804498
 30
0.0
 10
322.983325373
 20
172.7871875908
 30
0.0
 10
322.2860784329
 20
173.1897432994
 30
0.0
  0
SPLINE
  5
50F
100
AcDbEntity
  8
KONSTRUKTIONSELEMENTE
100
AcDbSpline
 62
7
  6
CONTINUOUS
 70
0
 71
3
 72
10
 73
6
 74
0
 42
0.0000001
 43
0.0000001
 44
0.0000000001
 40
0.0
 40
0.0
 40
0.0
 40
0.0
 40
0.2489289318
 40
0.4984050404
 40
1.0
 40
1.0
 40
1.0
 40
1.0
 10
331.286078433
 20
189.9051336086
 30
0.0
 10
330.5245364985
 20
189.9051336086
 30
0.0
 10
328.998712109
 20
189.8299196994
 30
0.0
 10
325.9674733271
 20
189.3924643255
 30
0.0
 10
323.7418487698
 20
188.7826952329
 30
0.0
 10
322.2860784329
 20
188.2974384539
 30
0.0
  0
SPLINE
  5
510
100
AcDbEntity
  8
KONSTRUKTIONSELEMENTE
100
AcDbSpline
 62
7
  6
CONTINUOUS
 70
0
 71
3
 72
10
 73
6
 74
0
 42
0.0000001
 43
0.0000001
 44
0.0000000001
 40
0.0
 40
0.0
 40
0.0
 40
0.0
 40
0.5015950116
 40
0.7510711018
 40
1.0
 40
1.0
 40
1.0
 40
1.0
 10
322.2860784329
 20
188.2974384539
 30
0.0
 10
320.8303079455
 20
188.7826952831
 30
0.0
 10
318.6046832829
 20
189.3924643918
 30
0.0
 10
315.5734444948
 20
189.8299197183
 30
0.0
 10
314.0476202646
 20
189.9051336086
 30
0.0
 10
313.286078433
 20
189.9051336086
 30
0.0
  0
SPLINE
  5
511
100
AcDbEntity
  8
BEZUGSACHSEN
100
AcDbSpline
 62
7
  6
CONTINUOUS
 70
0
 71
3
 72
15
 73
11
 74
0
 42
0.0000001
 43
0.0000001
 44
0.0000000001
 40
0.0
 40
0.0
 40
0.0
 40
0.0
 40
0.12678678
 40
0.2523062995
 40
0.3765643151
 40
0.5000000768
 40
0.6234358136
 40
0.7476937433
 40
0.8732131774
 40
1.0
 40
1.0
 40
1.0
 40
1.0
 10
322.2860784329
 20
173.1897432994
 30
0.0
 10
321.5888317269
 20
172.7871877259
 30
0.0
 10
320.1703388116
 20
172.0373806535
 30
0.0
 10
317.9492316366
 20
171.1375161581
 30
0.0
 10
315.6454461429
 20
170.5448689528
 30
0.0
 10
313.286077104
 20
170.335861597
 30
0.0
 10
310.9267084625
 20
170.5448684792
 30
0.0
 10
308.6229245717
 20
171.1375168509
 30
0.0
 10
306.4018179752
 20
172.0373804498
 30
0.0
 10
304.983325373
 20
172.7871875908
 30
0.0
 10
304.2860784329
 20
173.1897432994
 30
0.0
  0
LINE
  5
512
100
AcDbEntity
  8
0
100
AcDbLine
 62
7
  6
CONTINUOUS
 10
293.7894861456
 20
305.9136443889
 11
294.203991516
 21
304.5519419467
  0
LINE
  5
513
100
AcDbEntity
  8
0
100
AcDbLine
 62
7
  6
CONTINUOUS
 10
293.9220834781
 20
304.5519419467
 11
294.125955571
 21
303.871090964
  0
SPLINE
  5
514
100
AcDbEntity
  8
0
100
AcDbSpline
 62
7
  6
CONTINUOUS
 70
0
 71
3
 72
8
 73
4
 74
0
 42
0.0000001
 43
0.0000001
 44
0.0000000001
 40
0.0
 40
0.0
 40
0.0
 40
0.0
 40
1.0
 40
1.0
 40
1.0
 40
1.0
 10
294.4115724402
 20
303.871090964
 30
0.0
 10
294.7578123386
 20
302.7360627416
 30
0.0
 10
295.1049155957
 20
301.6012974181
 30
0.0
 10
295.4530071461
 20
300.4668356931
 30
0.0
  0
LINE
  5
515
100
AcDbEntity
  8
0
100
AcDbLine
 62
7
  6
CONTINUOUS
 10
292.7878274343
 20
306.2371626511
 11
292.7911168263
 21
306.2254571191
  0
LINE
  5
516
100
AcDbEntity
  8
0
100
AcDbLine
 62
7
  6
CONTINUOUS
 10
292.7911168263
 20
306.2254571191
 11
292.8155600105
 21
306.138846157
  0
LINE
  5
517
100
AcDbEntity
  8
0
100
AcDbLine
 62
7
  6
CONTINUOUS
 10
292.8155600105
 20
306.138846157
 11
292.855488684
 21
305.9987513678
  0
LINE
  5
518
100
AcDbEntity
  8
0
100
AcDbLine
 62
7
  6
CONTINUOUS
 10
293.3547273432
 20
305.2327934062
 11
293.4541951274
 21
304.892367438
  0
SPLINE
  5
519
100
AcDbEntity
  8
0
100
AcDbSpline
 62
7
  6
CONTINUOUS
 70
0
 71
3
 72
9
 73
5
 74
0
 42
0.0000001
 43
0.0000001
 44
0.0000000001
 40
0.0
 40
0.0
 40
0.0
 40
0.0
 40
0.2488192516
 40
1.0
 40
1.0
 40
1.0
 40
1.0
 10
293.6129048632
 20
304.2115164554
 30
0.0
 10
293.6662751076
 20
303.8864094012
 30
0.0
 10
293.8986970307
 20
302.5828447942
 30
0.0
 10
294.2050520909
 20
301.2922341401
 30
0.0
 10
294.4792150662
 20
300.3361365926
 30
0.0
  0
LINE
  5
51A
100
AcDbEntity
  8
0
100
AcDbLine
 62
7
  6
CONTINUOUS
 10
294.9351080552
 20
299.011447956
 11
294.9047677008
 21
299.1051095652
  0
LINE
  5
51B
100
AcDbEntity
  8
0
100
AcDbLine
 62
7
  6
CONTINUOUS
 10
351.2174295227
 20
305.2327934062
 11
351.2008416966
 21
305.1760181319
  0
LINE
  5
51C
100
AcDbEntity
  8
0
100
AcDbLine
 62
7
  6
CONTINUOUS
 10
351.2008416966
 20
305.1760181319
 11
351.1676778808
 21
305.0625127189
  0
LINE
  5
51D
100
AcDbEntity
  8
0
100
AcDbLine
 62
7
  6
CONTINUOUS
 10
351.1676778808
 20
305.0625127189
 11
351.1179617385
 21
304.892367438
  0
LINE
  5
51E
100
AcDbEntity
  8
0
100
AcDbLine
 62
7
  6
CONTINUOUS
 10
351.1179617385
 20
304.892367438
 11
351.1146278933
 21
304.8779720792
  0
LINE
  5
51F
100
AcDbEntity
  8
0
100
AcDbLine
 62
7
  6
CONTINUOUS
 10
351.1146278933
 20
304.8779720792
 11
351.0915652904
 21
304.7784989923
  0
LINE
  5
520
100
AcDbEntity
  8
0
100
AcDbLine
 62
7
  6
CONTINUOUS
 10
350.9592520027
 20
304.2115164554
 11
350.9556016103
 21
304.1893233333
  0
SPLINE
  5
521
100
AcDbEntity
  8
0
100
AcDbSpline
 62
7
  6
CONTINUOUS
 70
0
 71
3
 72
9
 73
5
 74
0
 42
0.0000001
 43
0.0000001
 44
0.0000000001
 40
0.0
 40
0.0
 40
0.0
 40
0.0
 40
0.2488232315
 40
1.0
 40
1.0
 40
1.0
 40
1.0
 10
350.9556016103
 20
304.1893233333
 30
0.0
 10
350.9023303939
 20
303.866083777
 30
0.0
 10
350.6705025779
 20
302.5700235629
 30
0.0
 10
350.3655521394
 20
301.2868195833
 30
0.0
 10
350.0929417996
 20
300.3361365926
 30
0.0
  0
LINE
  5
522
100
AcDbEntity
  8
0
100
AcDbLine
 62
7
  6
CONTINUOUS
 10
349.9342796938
 20
299.9409092947
 11
349.9390982369
 21
299.9561974561
  0
LINE
  5
523
100
AcDbEntity
  8
0
100
AcDbLine
 62
7
  6
CONTINUOUS
 10
349.9266163596
 20
300.9774740493
 11
350.126551571
 21
301.6583250319
  0
LINE
  5
524
100
AcDbEntity
  8
0
100
AcDbLine
 62
7
  6
CONTINUOUS
 10
350.126551571
 20
301.6583250319
 11
350.3026693726
 21
302.339176253
  0
SPLINE
  5
525
100
AcDbEntity
  8
0
100
AcDbSpline
 62
7
  6
CONTINUOUS
 70
0
 71
3
 72
8
 73
4
 74
0
 42
0.0000001
 43
0.0000001
 44
0.0000000001
 40
0.0
 40
0.0
 40
0.0
 40
0.0
 40
1.0
 40
1.0
 40
1.0
 40
1.0
 10
350.8290049401
 20
304.2115164554
 30
0.0
 10
350.9037377177
 20
304.4383928466
 30
0.0
 10
350.9782432992
 20
304.665344194
 30
0.0
 10
351.0525287731
 20
304.892367438
 30
0.0
  0
LINE
  5
526
100
AcDbEntity
  8
0
100
AcDbLine
 62
7
  6
CONTINUOUS
 10
351.0525287731
 20
304.892367438
 11
351.1524221124
 21
305.2327934062
  0
LINE
  5
527
100
AcDbEntity
  8
0
100
AcDbLine
 62
7
  6
CONTINUOUS
 10
351.1524221124
 20
305.2327934062
 11
351.3292312955
 21
305.9136443889
  0
SPLINE
  5
528
100
AcDbEntity
  8
0
100
AcDbSpline
 62
7
  6
CONTINUOUS
 70
0
 71
3
 72
9
 73
5
 74
0
 42
0.0000001
 43
0.0000001
 44
0.0000000001
 40
0.0
 40
0.0
 40
0.0
 40
0.0
 40
0.2403658358
 40
1.0
 40
1.0
 40
1.0
 40
1.0
 10
351.421938
 20
306.9349208629
 30
0.0
 10
351.409066364
 20
306.9493208451
 30
0.0
 10
351.3546057236
 20
307.0084137063
 30
0.0
 10
351.2967122443
 20
307.0643063479
 30
0.0
 10
351.2513369829
 20
307.1051336085
 30
0.0
  0
LINE
  5
529
100
AcDbEntity
  8
0
100
AcDbLine
 62
7
  6
CONTINUOUS
 10
348.7084377234
 20
300.6370485579
 11
348.7647893369
 21
300.9774740493
  0
SPLINE
  5
52A
100
AcDbEntity
  8
BEZUGSACHSEN
100
AcDbSpline
 62
7
  6
CONTINUOUS
 70
0
 71
3
 72
22
 73
18
 74
0
 42
0.0000001
 43
0.0000001
 44
0.0000000001
 40
0.0
 40
0.0
 40
0.0
 40
0.0
 40
0.163648862
 40
0.3186724072
 40
0.3907977892
 40
0.4585268393
 40
0.521556399
 40
0.5798531365
 40
0.6336768152
 40
0.6835965826
 40
0.7305035947
 40
0.7756361869
 40
0.8207003
 40
0.8684184197
 40
0.8949901389
 40
0.9255486959
 40
1.0
 40
1.0
 40
1.0
 40
1.0
 10
322.2860784329
 20
308.5196183555
 30
0.0
 10
324.0918541141
 20
308.5196183555
 30
0.0
 10
327.6092631725
 20
308.3951265698
 30
0.0
 10
331.9011509931
 20
307.9203529047
 30
0.0
 10
335.1009464118
 20
307.3218112942
 30
0.0
 10
337.2751096085
 20
306.7817052018
 30
0.0
 10
339.2613975924
 20
306.1373943901
 30
0.0
 10
341.0450663057
 20
305.3859747871
 30
0.0
 10
342.6161330714
 20
304.5244250272
 30
0.0
 10
343.9683391814
 20
303.5490182584
 30
0.0
 10
345.0977166928
 20
302.4545432026
 30
0.0
 10
346.0008610617
 20
301.2313442423
 30
0.0
 10
346.6721563792
 20
299.8557487501
 30
0.0
 10
347.0103330763
 20
298.5732115392
 30
0.0
 10
347.1259357392
 20
297.4187071074
 30
0.0
 10
347.0943271754
 20
295.9699316887
 30
0.0
 10
346.7768942641
 20
294.7914958016
 30
0.0
 10
346.325432721
 20
294.1051336085
 30
0.0
  0
LINE
  5
52B
100
AcDbEntity
  8
0
100
AcDbLine
 62
7
  6
CONTINUOUS
 10
349.1367027506
 20
299.2746890407
 11
349.0651426071
 21
299.063306371
  0
LINE
  5
52C
100
AcDbEntity
  8
0
100
AcDbLine
 62
7
  6
CONTINUOUS
 10
349.0651426071
 20
299.063306371
 11
349.0473270297
 21
299.0109042214
  0
LINE
  5
52D
100
AcDbEntity
  8
0
100
AcDbLine
 62
7
  6
CONTINUOUS
 10
296.5673774533
 20
299.1051336085
 11
296.3485371961
 21
299.7859846508
  0
LINE
  5
52E
100
AcDbEntity
  8
0
100
AcDbLine
 62
7
  6
CONTINUOUS
 10
295.3022657013
 20
299.1051336085
 11
295.0502620147
 21
299.9561974561
  0
LINE
  5
52F
100
AcDbEntity
  8
0
100
AcDbLine
 62
7
  6
CONTINUOUS
 10
293.7676218588
 20
304.2115164554
 11
293.5920872169
 21
304.892367438
  0
LINE
  5
530
100
AcDbEntity
  8
0
100
AcDbLine
 62
7
  6
CONTINUOUS
 10
293.5920872169
 20
304.892367438
 11
293.4917235734
 21
305.2327934062
  0
SPLINE
  5
531
100
AcDbEntity
  8
0
100
AcDbSpline
 62
7
  6
CONTINUOUS
 70
0
 71
3
 72
9
 73
5
 74
0
 42
0.0000001
 43
0.0000001
 44
0.0000000001
 40
0.0
 40
0.0
 40
0.0
 40
0.0
 40
0.2570578586
 40
1.0
 40
1.0
 40
1.0
 40
1.0
 10
292.8013959678
 20
306.9349208629
 30
0.0
 10
292.7885994265
 20
306.9489456156
 30
0.0
 10
292.7394108234
 20
307.0040395697
 30
0.0
 10
292.692655487
 20
307.0613227909
 30
0.0
 10
292.6596183803
 20
307.1051336085
 30
0.0
  0
LINE
  5
532
100
AcDbEntity
  8
0
100
AcDbLine
 62
7
  6
CONTINUOUS
 10
292.9628778788
 20
305.6579688824
 11
292.9396488183
 21
305.7434316432
  0
LINE
  5
533
100
AcDbEntity
  8
0
100
AcDbLine
 62
7
  6
CONTINUOUS
 10
292.8653015387
 20
306.0488000376
 11
292.8570917932
 21
306.0838571345
  0
SPLINE
  5
534
100
AcDbEntity
  8
BEZUGSACHSEN
100
AcDbSpline
 62
7
  6
CONTINUOUS
 70
0
 71
3
 72
22
 73
18
 74
0
 42
0.0000001
 43
0.0000001
 44
0.0000000001
 40
0.0
 40
0.0
 40
0.0
 40
0.0
 40
0.163648862
 40
0.3186724072
 40
0.3907977892
 40
0.4585268393
 40
0.521556399
 40
0.5798531365
 40
0.6336768152
 40
0.6835965826
 40
0.7305035947
 40
0.7756361869
 40
0.8207003
 40
0.8684184197
 40
0.8949901389
 40
0.9255486959
 40
1.0
 40
1.0
 40
1.0
 40
1.0
 10
322.2860784329
 20
308.5196183555
 30
0.0
 10
320.4803027518
 20
308.5196183555
 30
0.0
 10
316.9628936934
 20
308.3951265698
 30
0.0
 10
312.6710058728
 20
307.9203529047
 30
0.0
 10
309.4712104541
 20
307.3218112942
 30
0.0
 10
307.2970472574
 20
306.7817052018
 30
0.0
 10
305.3107592735
 20
306.1373943901
 30
0.0
 10
303.5270905602
 20
305.3859747871
 30
0.0
 10
301.9560237945
 20
304.5244250272
 30
0.0
 10
300.6038176844
 20
303.5490182584
 30
0.0
 10
299.474440173
 20
302.4545432026
 30
0.0
 10
298.5712958042
 20
301.2313442423
 30
0.0
 10
297.9000004867
 20
299.8557487501
 30
0.0
 10
297.5618237896
 20
298.5732115392
 30
0.0
 10
297.4462211267
 20
297.4187071074
 30
0.0
 10
297.4778296905
 20
295.9699316887
 30
0.0
 10
297.7952626018
 20
294.7914958016
 30
0.0
 10
298.2467241449
 20
294.1051336085
 30
0.0
  0
SPLINE
  5
535
100
AcDbEntity
  8
0
100
AcDbSpline
 62
7
  6
CONTINUOUS
 70
0
 71
3
 72
9
 73
5
 74
0
 42
0.0000001
 43
0.0000001
 44
0.0000000001
 40
0.0
 40
0.0
 40
0.0
 40
0.0
 40
0.2413380887
 40
1.0
 40
1.0
 40
1.0
 40
1.0
 10
350.6473657398
 20
307.1051336085
 30
0.0
 10
350.6213198386
 20
307.0907139017
 30
0.0
 10
350.5129611049
 20
307.031753525
 30
0.0
 10
350.4029487117
 20
306.9758496108
 30
0.0
 10
350.318785651
 20
306.9349208629
 30
0.0
  0
LINE
  5
536
100
AcDbEntity
  8
0
100
AcDbLine
 62
7
  6
CONTINUOUS
 10
347.9417472671
 20
300.9774740493
 11
347.8342215428
 21
300.4668356931
  0
LINE
  5
537
100
AcDbEntity
  8
0
100
AcDbLine
 62
7
  6
CONTINUOUS
 10
295.8307856061
 20
299.1051336085
 11
295.662720845
 21
299.6720466535
  0
LINE
  5
538
100
AcDbEntity
  8
0
100
AcDbLine
 62
7
  6
CONTINUOUS
 10
295.662720845
 20
299.6720466535
 11
295.6206326425
 21
299.8140642023
  0
LINE
  5
539
100
AcDbEntity
  8
0
100
AcDbLine
 62
7
  6
CONTINUOUS
 10
295.6206326425
 20
299.8140642023
 11
295.5785156019
 21
299.9561974561
  0
LINE
  5
53A
100
AcDbEntity
  8
0
100
AcDbLine
 62
7
  6
CONTINUOUS
 10
350.60787946
 20
306.0411636014
 11
350.6065500418
 21
305.998587804
  0
LINE
  5
53B
100
AcDbEntity
  8
0
100
AcDbLine
 62
7
  6
CONTINUOUS
 10
350.6065500418
 20
305.998587804
 11
350.6036053533
 21
305.9134271173
  0
LINE
  5
53C
100
AcDbEntity
  8
0
100
AcDbLine
 62
7
  6
CONTINUOUS
 10
295.1208272461
 20
299.9561974561
 11
295.1166301575
 21
299.9725721881
  0
SPLINE
  5
53D
100
AcDbEntity
  8
0
100
AcDbSpline
 62
7
  6
CONTINUOUS
 70
0
 71
3
 72
9
 73
5
 74
0
 42
0.0000001
 43
0.0000001
 44
0.0000000001
 40
0.0
 40
0.0
 40
0.0
 40
0.0
 40
0.2512788624
 40
1.0
 40
1.0
 40
1.0
 40
1.0
 10
295.1166301575
 20
299.9725721881
 30
0.0
 10
295.0377152363
 20
300.2808060794
 30
0.0
 10
294.7426588849
 20
301.5122783535
 30
0.0
 10
294.5215775179
 20
302.7612662406
 30
0.0
 10
294.395375202
 20
303.7008782184
 30
0.0
  0
LINE
  5
53E
100
AcDbEntity
  8
0
100
AcDbLine
 62
7
  6
CONTINUOUS
 10
294.395375202
 20
303.7008782184
 11
294.3614166228
 21
303.8710887733
  0
SPLINE
  5
53F
100
AcDbEntity
  8
0
100
AcDbSpline
 62
7
  6
CONTINUOUS
 70
0
 71
3
 72
9
 73
5
 74
0
 42
0.0000001
 43
0.0000001
 44
0.0000000001
 40
0.0
 40
0.0
 40
0.0
 40
0.0
 40
0.2571828934
 40
1.0
 40
1.0
 40
1.0
 40
1.0
 10
293.3248460133
 20
306.9349208629
 30
0.0
 10
293.3119147414
 20
306.9489426551
 30
0.0
 10
293.2622299853
 20
307.004007458
 30
0.0
 10
293.214993603
 20
307.0612989651
 30
0.0
 10
293.1816222526
 20
307.1051336085
 30
0.0
  0
LINE
  5
540
100
AcDbEntity
  8
0
100
AcDbLine
 62
7
  6
CONTINUOUS
 10
350.5965862243
 20
305.7434316432
 11
350.5901156261
 21
305.7085458741
  0
LINE
  5
541
100
AcDbEntity
  8
0
100
AcDbLine
 62
7
  6
CONTINUOUS
 10
350.5008628199
 20
305.2327934062
 11
350.4000672766
 21
304.892367438
  0
LINE
  5
542
100
AcDbEntity
  8
0
100
AcDbLine
 62
7
  6
CONTINUOUS
 10
351.6921741161
 20
305.9136443889
 11
351.6594640261
 21
305.7998170686
  0
LINE
  5
543
100
AcDbEntity
  8
0
100
AcDbLine
 62
7
  6
CONTINUOUS
 10
351.6594640261
 20
305.7998170686
 11
351.4962117911
 21
305.2327934062
  0
LINE
  5
544
100
AcDbEntity
  8
0
100
AcDbLine
 62
7
  6
CONTINUOUS
 10
349.5205078228
 20
303.5306654727
 11
349.3121778663
 21
302.84981449
  0
LINE
  5
545
100
AcDbEntity
  8
0
100
AcDbLine
 62
7
  6
CONTINUOUS
 10
349.9814534088
 20
299.9561974561
 11
349.9782343407
 21
299.9449732838
  0
LINE
  5
546
100
AcDbEntity
  8
0
100
AcDbLine
 62
7
  6
CONTINUOUS
 10
349.9782343407
 20
299.9449732838
 11
349.9741981118
 21
299.9308998578
  0
LINE
  5
547
100
AcDbEntity
  8
0
100
AcDbLine
 62
7
  6
CONTINUOUS
 10
349.9741981118
 20
299.9308998578
 11
349.7373696534
 21
299.1051336085
  0
LINE
  5
548
100
AcDbEntity
  8
0
100
AcDbLine
 62
7
  6
CONTINUOUS
 10
349.2595024887
 20
298.1089678198
 11
349.2507277425
 21
298.0838570153
  0
SPLINE
  5
549
100
AcDbEntity
  8
0
100
AcDbSpline
 62
7
  6
CONTINUOUS
 70
0
 71
3
 72
8
 73
4
 74
0
 42
0.0000001
 43
0.0000001
 44
0.0000000001
 40
0.0
 40
0.0
 40
0.0
 40
0.0
 40
1.0
 40
1.0
 40
1.0
 40
1.0
 10
296.1095506582
 20
300.8072613036
 30
0.0
 10
295.7911965316
 20
301.8282311994
 30
0.0
 10
295.473867968
 20
302.8495213176
 30
0.0
 10
295.1574436711
 20
303.871090964
 30
0.0
  0
LINE
  5
54A
100
AcDbEntity
  8
0
100
AcDbLine
 62
7
  6
CONTINUOUS
 10
295.6989871383
 20
303.871090964
 11
295.4810280042
 21
304.5519419467
  0
SPLINE
  5
54B
100
AcDbEntity
  8
0
100
AcDbSpline
 62
7
  6
CONTINUOUS
 70
0
 71
3
 72
8
 73
4
 74
0
 42
0.0000001
 43
0.0000001
 44
0.0000000001
 40
0.0
 40
0.0
 40
0.0
 40
0.0
 40
1.0
 40
1.0
 40
1.0
 40
1.0
 10
294.9467002902
 20
304.5519419467
 30
0.0
 10
294.8063171586
 20
305.0057899717
 30
0.0
 10
294.6661078549
 20
305.4596917973
 30
0.0
 10
294.5260632261
 20
305.9136443889
 30
0.0
  0
LINE
  5
54C
100
AcDbEntity
  8
0
100
AcDbLine
 62
7
  6
CONTINUOUS
 10
297.1200877549
 20
299.1051336085
 11
296.9004020299
 21
299.7859846508
  0
SPLINE
  5
54D
100
AcDbEntity
  8
0
100
AcDbSpline
 62
7
  6
CONTINUOUS
 70
0
 71
3
 72
9
 73
5
 74
0
 42
0.0000001
 43
0.0000001
 44
0.0000000001
 40
0.0
 40
0.0
 40
0.0
 40
0.0
 40
0.2578500316
 40
1.0
 40
1.0
 40
1.0
 40
1.0
 10
349.4673925775
 20
302.84981449
 30
0.0
 10
349.4814352843
 20
302.8358086692
 30
0.0
 10
349.5353029774
 20
302.7809024944
 30
0.0
 10
349.5867273088
 20
302.7235766858
 30
0.0
 10
349.6231260808
 20
302.6796017444
 30
0.0
  0
SPLINE
  5
54E
100
AcDbEntity
  8
0
100
AcDbSpline
 62
7
  6
CONTINUOUS
 70
0
 71
3
 72
9
 73
5
 74
0
 42
0.0000001
 43
0.0000001
 44
0.0000000001
 40
0.0
 40
0.0
 40
0.0
 40
0.0
 40
0.2414206216
 40
1.0
 40
1.0
 40
1.0
 40
1.0
 10
351.1810283683
 20
307.1051336085
 30
0.0
 10
351.1553469524
 20
307.0907176692
 30
0.0
 10
351.0485343467
 20
307.0317834231
 30
0.0
 10
350.9400651815
 20
306.9758684254
 30
0.0
 10
350.8570786149
 20
306.9349208629
 30
0.0
  0
SPLINE
  5
54F
100
AcDbEntity
  8
0
100
AcDbSpline
 62
7
  6
CONTINUOUS
 70
0
 71
3
 72
8
 73
4
 74
0
 42
0.0000001
 43
0.0000001
 44
0.0000000001
 40
0.0
 40
0.0
 40
0.0
 40
0.0
 40
1.0
 40
1.0
 40
1.0
 40
1.0
 10
295.56757108
 20
300.8072613036
 30
0.0
 10
295.2500518067
 20
301.8282482794
 30
0.0
 10
294.9335026186
 20
302.8495373366
 30
0.0
 10
294.6178111871
 20
303.871090964
 30
0.0
  0
LINE
  5
550
100
AcDbEntity
  8
0
100
AcDbLine
 62
7
  6
CONTINUOUS
 10
351.028528289
 20
305.2327934062
 11
350.9278259699
 21
304.892367438
  0
LINE
  5
551
100
AcDbEntity
  8
0
100
AcDbLine
 62
7
  6
CONTINUOUS
 10
350.0567090081
 20
303.5306654727
 11
349.8487855315
 21
302.84981449
  0
LINE
  5
552
100
AcDbEntity
  8
0
100
AcDbLine
 62
7
  6
CONTINUOUS
 10
295.1497038742
 20
303.871090964
 11
294.9324647674
 21
304.5519419467
  0
SPLINE
  5
553
100
AcDbEntity
  8
0
100
AcDbSpline
 62
7
  6
CONTINUOUS
 70
0
 71
3
 72
9
 73
5
 74
0
 42
0.0000001
 43
0.0000001
 44
0.0000000001
 40
0.0
 40
0.0
 40
0.0
 40
0.0
 40
0.2576985181
 40
1.0
 40
1.0
 40
1.0
 40
1.0
 10
350.0013086038
 20
302.84981449
 30
0.0
 10
350.0150470557
 20
302.8358048084
 30
0.0
 10
350.067763757
 20
302.780862298
 30
0.0
 10
350.1180277207
 20
302.7235447539
 30
0.0
 10
350.1535749753
 20
302.6796017444
 30
0.0
  0
LINE
  5
554
100
AcDbEntity
  8
0
100
AcDbLine
 62
7
  6
CONTINUOUS
 10
349.9979672774
 20
301.6583250319
 11
349.7962992036
 21
300.9774740493
  0
SPLINE
  5
555
100
AcDbEntity
  8
0
100
AcDbSpline
 62
7
  6
CONTINUOUS
 70
0
 71
3
 72
8
 73
4
 74
0
 42
0.0000001
 43
0.0000001
 44
0.0000000001
 40
0.0
 40
0.0
 40
0.0
 40
0.0
 40
1.0
 40
1.0
 40
1.0
 40
1.0
 10
294.4075454175
 20
304.5519419467
 30
0.0
 10
294.2674748459
 20
305.0057927525
 30
0.0
 10
294.1275692519
 20
305.4596945044
 30
0.0
 10
293.9878201145
 20
305.9136443889
 30
0.0
  0
LINE
  5
556
100
AcDbEntity
  8
0
100
AcDbLine
 62
7
  6
CONTINUOUS
 10
349.4697397761
 20
301.6583250319
 11
349.2678634249
 21
300.9774740493
  0
LINE
  5
557
100
AcDbEntity
  8
0
100
AcDbLine
 62
7
  6
CONTINUOUS
 10
348.4943674253
 20
300.9774740493
 11
348.3863626766
 21
300.4668356931
  0
ENDSEC
  0
SECTION
  2
OBJECTS
  0
DICTIONARY
  5
C
100
AcDbDictionary
280
0
281
1
  3
ACAD_GROUP
350
D
  3
ACAD_MLINESTYLE
350
17
  3
ACAD_LAYOUT
350
1A
  3
ACAD_PLOTSETTINGS
350
19
  3
ACAD_PLOTSTYLENAME
350
E
  0
DICTIONARY
  5
D
102
{ACAD_REACTORS
330
C
102
}
100
AcDbDictionary
280
0
281
1
  0
ACDBDICTIONARYWDFLT
  5
E
102
{ACAD_REACTORS
330
C
102
}
100
AcDbDictionary
281
1
  3
Normal
350
F
100
AcDbDictionaryWithDefault
340
F
  0
DICTIONARY
  5
17
102
{ACAD_REACTORS
330
C
102
}
100
AcDbDictionary
280
0
281
1
  3
Standard
350
18
  0
DICTIONARY
  5
19
102
{ACAD_REACTORS
330
C
102
}
100
AcDbDictionary
281
1
  0
DICTIONARY
  5
1A
102
{ACAD_REACTORS
330
C
102
}
100
AcDbDictionary
281
1
  3
Model
350
558
  3
Layout1
350
559
  0
ACDBPLACEHOLDER
  5
F
102
{ACAD_REACTORS
330
E
102
}
  0
MLINESTYLE
  5
18
102
{ACAD_REACTORS
330
17
102
}
100
AcDbMlineStyle
  2
STANDARD
 70
0
  3

 62
256
 51
90.0
 52
90.0
 71
2
 49
0.5
 62
256
  6
BYLAYER
 49
-0.5
 62
256
  6
BYLAYER
  0
LAYOUT
  5
558
102
{ACAD_REACTORS
330
1A
102
}
100
AcDbPlotSettings
  1

  2
none_device
  4
ISO_A2_(594.00_x_420.00_MM)
  6

 40
0.0
 41
0.0
 42
0.0
 43
0.0
 44
594.0
 45
420.0
 46
0.0
 47
0.0
 48
0.0
 49
0.0
140
0.0
141
0.0
142
1.0
143
1.0
 70
1024
 72
1
 73
0
 74
0
  7

 75
0
147
1.0
148
0.0
149
0.0
100
AcDbLayout
  1
Model
 70
0
 71
0
 10
0.0
 20
0.0
 11
594.0
 21
420.0
 12
0.0
 22
0.0
 32
0.0
 14
0.0
 24
0.0
 34
0.0
 15
0.0
 25
0.0
 35
0.0
146
0.0
 13
0.0
 23
0.0
 33
0.0
 16
1.0
 26
0.0
 36
0.0
 17
0.0
 27
1.0
 37
0.0
 76
0
330
20E
345
0
346
0
  0
LAYOUT
  5
559
102
{ACAD_REACTORS
330
1A
102
}
100
AcDbPlotSettings
  1

  2
none_device
  4
ISO_A2_(594.00_x_420.00_MM)
  6

 40
0.0
 41
0.0
 42
0.0
 43
0.0
 44
594.0
 45
420.0
 46
0.0
 47
0.0
 48
0.0
 49
0.0
140
0.0
141
0.0
142
1.0
143
1.0
 70
0
 72
1
 73
0
 74
0
  7

 75
0
147
1.0
148
0.0
149
0.0
100
AcDbLayout
  1
Layout1
 70
0
 71
1
 10
0.0
 20
0.0
 11
594.0
 21
420.0
 12
0.0
 22
0.0
 32
0.0
 14
0.0
 24
0.0
 34
0.0
 15
0.0
 25
0.0
 35
0.0
146
0.0
 13
0.0
 23
0.0
 33
0.0
 16
1.0
 26
0.0
 36
0.0
 17
0.0
 27
1.0
 37
0.0
 76
0
330
20F
345
0
346
0
  0
ENDSEC
  0
EOF
