999
DXF file: VRM_M30_4_5t_7993008_M32426-P-1.dxf
999
Pro/ENGINEER 2011490 by Parametric Technology Corporation
  0
SECTION
  2
HEADER
  9
$ACADVER
  1
AC1015
  9
$DWGCODEPAGE
  3
ANSI_1252
  9
$EXTMAX
 10
297.0
 20
210.0
 30
0.0
  9
$EXTMIN
 10
0.0
 20
0.0
 30
0.0
  9
$LIMMIN
 10
0.0
 20
0.0
  9
$LIMMAX
 10
297.0
 20
210.0
  9
$VIEWCTR
 10
148.5
 20
105.0
  9
$VIEWSIZE
 40
210.0
  9
$CLAYER
  8
0
  9
$LTSCALE
 40
16.335
  9
$CELTYPE
  6
BYLAYER
  9
$DIMSCALE
 40
1.0
  9
$DIMASZ
 40
3.5
  9
$DIMEXO
 40
1.85625
  9
$DIMDLI
 40
11.286
  9
$DIMEXE
 40
5.346
  9
$DIMCEN
 40
2.673
  9
$DIMLFAC
 40
1.0
  9
$DIMBLK
  1
_FILLED
  9
$DIMTXT
 40
3.5
  9
$DIMTOL
 70
1
  9
$DIMLIM
 70
0
  9
$DIMTFAC
 40
1.0
  9
$DIMTP
 40
0.005
  9
$DIMTM
 40
0.005
  9
$PDMODE
 70
3
  9
$PDSIZE
 40
0.3125
  9
$HANDSEED
  5
435
  9
$TILEMODE
 70
1
  9
$MEASUREMENT
 70
1
  9
$INSUNITS
 70
4
  0
ENDSEC
  0
SECTION
  2
CLASSES
  0
CLASS
  1
ACDBDICTIONARYWDFLT
  2
AcDbDictionaryWithDefault
  3
AutoCAD 2000
 90
0
280
0
281
0
  0
CLASS
  1
ACDBPLACEHOLDER
  2
AcDbPlaceHolder
  3
AutoCAD 2000
 90
0
280
0
281
0
  0
CLASS
  1
LAYOUT
  2
AcDbLayout
  3
AutoCAD 2000
 90
0
280
0
281
0
  0
ENDSEC
  0
SECTION
  2
TABLES
  0
TABLE
  2
VPORT
  5
8
100
AcDbSymbolTable
 70
2
  0
VPORT
  5
1F4
100
AcDbSymbolTableRecord
100
AcDbViewportTableRecord
  2
*ACTIVE
 70
0
 10
0.0
 20
0.0
 11
1.0
 21
1.0
 12
148.5
 22
105.0
 13
0.0
 23
0.0
 14
1.0
 24
1.0
 15
0.0
 25
0.0
 16
0.0
 26
0.0
 36
1.0
 17
0.0
 27
0.0
 37
0.0
 40
210.0
 41
1.4142857143
 42
50.0
 43
0.0
 44
0.0
 50
0.0
 51
0.0
 71
0
 72
100
 73
1
 74
1
 75
0
 76
0
 77
0
 78
0
  0
ENDTAB
  0
TABLE
  2
LTYPE
  5
5
100
AcDbSymbolTable
 70
6
  0
LTYPE
  5
14
100
AcDbSymbolTableRecord
100
AcDbLinetypeTableRecord
  2
BYBLOCK
 70
0
  3

 72
65
 73
0
 40
0.0
  0
LTYPE
  5
15
100
AcDbSymbolTableRecord
100
AcDbLinetypeTableRecord
  2
BYLAYER
 70
0
  3

 72
65
 73
0
 40
0.0
  0
LTYPE
  5
16
100
AcDbSymbolTableRecord
100
AcDbLinetypeTableRecord
  2
CONTINUOUS
 70
64
  3
Solid line
 72
65
 73
0
 40
0.0
  0
LTYPE
  5
1F5
100
AcDbSymbolTableRecord
100
AcDbLinetypeTableRecord
  2
CENTER
 70
64
  3
____ _ ____ _ ____ _ ____ _ ____ _ ____ _ ____
 72
65
 73
4
 40
0.6
 49
0.375
 74
0
 49
-0.075
 74
0
 49
0.075
 74
0
 49
-0.075
 74
0
  0
LTYPE
  5
1F6
100
AcDbSymbolTableRecord
100
AcDbLinetypeTableRecord
  2
HIDDEN
 70
64
  3
- - - - - - - - - - - - - - - - - - - -
 72
65
 73
2
 40
0.2
 49
0.1
 74
0
 49
-0.1
 74
0
  0
LTYPE
  5
1F7
100
AcDbSymbolTableRecord
100
AcDbLinetypeTableRecord
  2
PHANTOM
 70
64
  3
_____ _ _ _____ _ _ _____ _ _ _____
 72
65
 73
6
 40
0.8
 49
0.45
 74
0
 49
-0.05
 74
0
 49
0.1
 74
0
 49
-0.05
 74
0
 49
0.1
 74
0
 49
-0.05
 74
0
  0
LTYPE
  5
1F8
100
AcDbSymbolTableRecord
100
AcDbLinetypeTableRecord
  2
DOT
 70
64
  3
. . . . . . . . . . . . . . . . . . . .
 72
65
 73
2
 40
0.2
 49
0.1
 74
0
 49
-0.1
 74
0
  0
LTYPE
  5
1F9
100
AcDbSymbolTableRecord
100
AcDbLinetypeTableRecord
  2
DASHED
 70
64
  3
- - - - - - - - - - - - - - - - - - - -
 72
65
 73
2
 40
0.2
 49
0.1
 74
0
 49
-0.1
 74
0
  0
ENDTAB
  0
TABLE
  2
LAYER
  5
2
100
AcDbSymbolTable
 70
36
  0
LAYER
  5
10
100
AcDbSymbolTableRecord
100
AcDbLayerTableRecord
  2
0
 70
0
 62
7
  6
CONTINUOUS
370
-3
390
F
  0
LAYER
  5
1FA
100
AcDbSymbolTableRecord
100
AcDbLayerTableRecord
  2
DEFAULT_1
 70
0
 62
7
  6
CENTER
370
-3
390
F
  0
LAYER
  5
1FB
100
AcDbSymbolTableRecord
100
AcDbLayerTableRecord
  2
DEFAULT_2
 70
0
 62
8
  6
HIDDEN
370
-3
390
F
  0
LAYER
  5
1FC
100
AcDbSymbolTableRecord
100
AcDbLayerTableRecord
  2
DEFAULT_3
 70
0
 62
7
  6
PHANTOM
370
-3
390
F
  0
LAYER
  5
1FD
100
AcDbSymbolTableRecord
100
AcDbLayerTableRecord
  2
BEZUGSACHSEN
 70
0
 62
7
  6
CONTINUOUS
370
-3
390
F
  0
LAYER
  5
1FE
100
AcDbSymbolTableRecord
100
AcDbLayerTableRecord
  2
BG_STARTBEZUEGE
 70
0
 62
7
  6
CONTINUOUS
370
-3
390
F
  0
LAYER
  5
1FF
100
AcDbSymbolTableRecord
100
AcDbLayerTableRecord
  2
BOHRUNGEN
 70
0
 62
7
  6
CONTINUOUS
370
-3
390
F
  0
LAYER
  5
200
100
AcDbSymbolTableRecord
100
AcDbLayerTableRecord
  2
FASEN
 70
0
 62
7
  6
CONTINUOUS
370
-3
390
F
  0
LAYER
  5
201
100
AcDbSymbolTableRecord
100
AcDbLayerTableRecord
  2
FLAECHEN
 70
0
 62
7
  6
CONTINUOUS
370
-3
390
F
  0
LAYER
  5
202
100
AcDbSymbolTableRecord
100
AcDbLayerTableRecord
  2
GEWINDE
 70
0
 62
7
  6
CONTINUOUS
370
-3
390
F
  0
LAYER
  5
203
100
AcDbSymbolTableRecord
100
AcDbLayerTableRecord
  2
HILFEN
 70
0
 62
7
  6
CONTINUOUS
370
-3
390
F
  0
LAYER
  5
204
100
AcDbSymbolTableRecord
100
AcDbLayerTableRecord
  2
KONSTRUKTIONSELEMENTE
 70
0
 62
7
  6
CONTINUOUS
370
-3
390
F
  0
LAYER
  5
205
100
AcDbSymbolTableRecord
100
AcDbLayerTableRecord
  2
KURVEN
 70
0
 62
7
  6
CONTINUOUS
370
-3
390
F
  0
LAYER
  5
206
100
AcDbSymbolTableRecord
100
AcDbLayerTableRecord
  2
NORM
 70
0
 62
7
  6
CONTINUOUS
370
-3
390
F
  0
LAYER
  5
207
100
AcDbSymbolTableRecord
100
AcDbLayerTableRecord
  2
PLATZIERUNG
 70
0
 62
7
  6
CONTINUOUS
370
-3
390
F
  0
LAYER
  5
208
100
AcDbSymbolTableRecord
100
AcDbLayerTableRecord
  2
RUNDUNGEN
 70
0
 62
7
  6
CONTINUOUS
370
-3
390
F
  0
LAYER
  5
209
100
AcDbSymbolTableRecord
100
AcDbLayerTableRecord
  2
TEIL_STARTBEZUEGE
 70
0
 62
7
  6
CONTINUOUS
370
-3
390
F
  0
LAYER
  5
20A
100
AcDbSymbolTableRecord
100
AcDbLayerTableRecord
  2
T_STARTBEZUEGE
 70
0
 62
7
  6
CONTINUOUS
370
-3
390
F
  0
ENDTAB
  0
TABLE
  2
STYLE
  5
3
100
AcDbSymbolTable
 70
1
  0
STYLE
  5
11
100
AcDbSymbolTableRecord
100
AcDbTextStyleTableRecord
  2
STANDARD
 70
0
 40
0.0
 41
0.7
 50
0.0
 71
0
 42
0.2
  3
txt
  4

  0
STYLE
  5
20B
100
AcDbSymbolTableRecord
100
AcDbTextStyleTableRecord
  2
TEXTSTYLE_1
 70
0
 40
0.0
 41
0.8
 50
0.0
 71
0
 42
0.2
  3
gdt
  4

  0
ENDTAB
  0
TABLE
  2
VIEW
  5
6
100
AcDbSymbolTable
 70
0
  0
ENDTAB
  0
TABLE
  2
UCS
  5
7
100
AcDbSymbolTable
 70
0
  0
ENDTAB
  0
TABLE
  2
APPID
  5
9
100
AcDbSymbolTable
 70
1
  0
APPID
  5
20C
100
AcDbSymbolTableRecord
100
AcDbRegAppTableRecord
  2
ACAD
 70
0
  0
ENDTAB
  0
TABLE
  2
BLOCK_RECORD
  5
1
100
AcDbSymbolTable
 70
0
  0
BLOCK_RECORD
  5
20D
100
AcDbSymbolTableRecord
100
AcDbBlockTableRecord
  2
*Model_Space
  0
BLOCK_RECORD
  5
20E
100
AcDbSymbolTableRecord
100
AcDbBlockTableRecord
  2
*Paper_Space
  0
ENDTAB
  0
TABLE
  2
DIMSTYLE
  5
A
100
AcDbSymbolTable
 70
1
100
AcDbDimStyleTable
 71
0
  0
DIMSTYLE
105
20F
100
AcDbSymbolTableRecord
100
AcDbDimStyleTableRecord
  2
STANDARD
 70
0
  3

  4

 40
1.0
 41
3.5
 42
0.0625
 43
0.38
 44
0.18
 45
0.0
 46
0.0
 47
0.005
 48
0.005
140
3.5
141
0.09
142
0.0
143
25.4
144
1.0
145
0.0
146
1.0
147
0.09
 71
1.0
 72
0.0
 73
0
 74
0
 75
0
 76
0
 77
1
 78
8
170
0
171
2
172
0
173
0
174
0
175
0
176
0
177
0
178
5
270
2
271
3
272
3
273
2
274
2
275
0
280
0
281
0
282
0
283
1
284
8
285
0
286
0
287
3
288
0
340
11
  0
ENDTAB
  0
ENDSEC
  0
SECTION
  2
BLOCKS
  0
BLOCK
  5
20
100
AcDbEntity
  8
0
100
AcDbBlockBegin
  2
*Model_Space
 70
0
 10
0.0
 20
0.0
 30
0.0
  3
*Model_Space
  1

  0
ENDBLK
  5
21
100
AcDbEntity
  8
0
100
AcDbBlockEnd
  0
BLOCK
  5
1C
100
AcDbEntity
  8
0
100
AcDbBlockBegin
  2
*Paper_Space
 70
0
 10
0.0
 20
0.0
 30
0.0
  3
*Paper_Space
  1

  0
ENDBLK
  5
1D
100
AcDbEntity
  8
0
100
AcDbBlockEnd
  0
ENDSEC
  0
SECTION
  2
ENTITIES
  0
MTEXT
  5
210
100
AcDbEntity
  8
0
100
AcDbMText
 62
5
  6
CONTINUOUS
  7
STANDARD
 71
1
 72
1
 10
225.7930685284
 20
144.2491649831
 30
0.0
 11
0.0
 21
1.0
 31
0.0
 44
0.9
  1
VRM 4,5t RUD
 40
6.0
 41
56.1428571429
  0
MTEXT
  5
211
100
AcDbEntity
  8
0
100
AcDbMText
 62
5
  6
CONTINUOUS
  7
STANDARD
 71
1
 72
1
 10
65.1491298669
 20
41.8502616897
 30
0.0
 11
1.0
 21
0.0
 31
0.0
 44
0.9
  1
VRM 4,5t RUD
 40
6.0
 41
56.1428571429
  0
LINE
  5
212
100
AcDbEntity
  8
0
100
AcDbLine
 62
7
  6
CONTINUOUS
 10
0.0
 20
0.0
 11
0.0
 21
210.0
  0
LINE
  5
213
100
AcDbEntity
  8
0
100
AcDbLine
 62
7
  6
CONTINUOUS
 10
0.0
 20
0.0
 11
297.0
 21
0.0
  0
LINE
  5
214
100
AcDbEntity
  8
0
100
AcDbLine
 62
7
  6
CONTINUOUS
 10
0.0
 20
210.0
 11
297.0
 21
210.0
  0
LINE
  5
215
100
AcDbEntity
  8
0
100
AcDbLine
 62
7
  6
CONTINUOUS
 10
297.0
 20
0.0
 11
297.0
 21
210.0
  0
LINE
  5
216
100
AcDbEntity
  8
0
100
AcDbLine
 62
7
  6
CONTINUOUS
 10
96.9828807558
 20
103.8314637294
 11
98.0245470251
 21
104.0442296801
  0
LINE
  5
217
100
AcDbEntity
  8
0
100
AcDbLine
 62
7
  6
CONTINUOUS
 10
114.7120470251
 20
97.2814637294
 11
70.7120470251
 21
97.2814637294
  0
LINE
  5
218
100
AcDbEntity
  8
BEZUGSACHSEN
100
AcDbLine
 62
7
  6
CONTINUOUS
 10
125.7119833574
 20
97.8314637294
 11
59.7121105524
 21
97.8314637294
  0
LINE
  5
219
100
AcDbEntity
  8
0
100
AcDbLine
 62
7
  6
CONTINUOUS
 10
88.6495470251
 20
102.5548679879
 11
89.6912132944
 21
102.5548679879
  0
LINE
  5
21A
100
AcDbEntity
  8
0
100
AcDbLine
 62
7
  6
CONTINUOUS
 10
83.6495470251
 20
103.8314637294
 11
84.8995470251
 21
103.8314637294
  0
LINE
  5
21B
100
AcDbEntity
  8
0
100
AcDbLine
 62
7
  6
CONTINUOUS
 10
95.7328807558
 20
103.8314637294
 11
96.9828807558
 21
103.8314637294
  0
LINE
  5
21C
100
AcDbEntity
  8
0
100
AcDbLine
 62
7
  6
CONTINUOUS
 10
96.9828807558
 20
104.8952935389
 11
95.7328807558
 21
104.8952935389
  0
LINE
  5
21D
100
AcDbEntity
  8
0
100
AcDbLine
 62
7
  6
CONTINUOUS
 10
90.9412132944
 20
104.8952935389
 11
89.8995470251
 21
104.8952935389
  0
LINE
  5
21E
100
AcDbEntity
  8
0
100
AcDbLine
 62
7
  6
CONTINUOUS
 10
93.8578807558
 20
106.3846552124
 11
92.6078807558
 21
106.3846552124
  0
LINE
  5
21F
100
AcDbEntity
  8
0
100
AcDbLine
 62
7
  6
CONTINUOUS
 10
94.6912132944
 20
104.0442296801
 11
95.7328807558
 21
103.8314637294
  0
LINE
  5
220
100
AcDbEntity
  8
0
100
AcDbLine
 62
7
  6
CONTINUOUS
 10
97.8162132944
 20
105.1080594709
 11
96.9828807558
 21
104.8952935389
  0
LINE
  5
221
100
AcDbEntity
  8
0
100
AcDbLine
 62
7
  6
CONTINUOUS
 10
94.8995470251
 20
108.9378466955
 11
95.7328807558
 21
109.1506126275
  0
LINE
  5
222
100
AcDbEntity
  8
0
100
AcDbLine
 62
7
  6
CONTINUOUS
 10
95.7328807558
 20
110.214442288
 11
94.6912132944
 21
110.0016763559
  0
LINE
  5
223
100
AcDbEntity
  8
0
100
AcDbLine
 62
7
  6
CONTINUOUS
 10
78.6495470251
 20
106.8101870766
 11
83.6495470251
 21
106.8101870766
  0
LINE
  5
224
100
AcDbEntity
  8
0
100
AcDbLine
 62
7
  6
CONTINUOUS
 10
84.8995470251
 20
106.8101870766
 11
86.9828801598
 21
106.8101870766
  0
LINE
  5
225
100
AcDbEntity
  8
0
100
AcDbLine
 62
7
  6
CONTINUOUS
 10
86.9828801598
 20
108.0867829671
 11
84.8995470251
 21
108.0867829671
  0
LINE
  5
226
100
AcDbEntity
  8
0
100
AcDbLine
 62
7
  6
CONTINUOUS
 10
83.6495470251
 20
108.0867829671
 11
80.1078803088
 21
108.0867829671
  0
LINE
  5
227
100
AcDbEntity
  8
0
100
AcDbLine
 62
7
  6
CONTINUOUS
 10
92.6078807558
 20
108.2995488992
 11
94.0662132944
 21
108.2995488992
  0
LINE
  5
228
100
AcDbEntity
  8
0
100
AcDbLine
 62
7
  6
CONTINUOUS
 10
95.7328807558
 20
109.1506126275
 11
96.9828807558
 21
109.1506126275
  0
LINE
  5
229
100
AcDbEntity
  8
0
100
AcDbLine
 62
7
  6
CONTINUOUS
 10
101.7745470251
 20
109.7889104238
 11
103.4412144865
 21
109.7889104238
  0
LINE
  5
22A
100
AcDbEntity
  8
0
100
AcDbLine
 62
7
  6
CONTINUOUS
 10
104.4828795637
 20
109.7889104238
 11
106.7745470251
 21
109.7889104238
  0
LINE
  5
22B
100
AcDbEntity
  8
0
100
AcDbLine
 62
7
  6
CONTINUOUS
 10
96.9828807558
 20
110.214442288
 11
95.7328807558
 21
110.214442288
  0
LINE
  5
22C
100
AcDbEntity
  8
0
100
AcDbLine
 62
7
  6
CONTINUOUS
 10
106.7745470251
 20
110.6399741521
 11
104.4828795637
 21
110.6399741521
  0
LINE
  5
22D
100
AcDbEntity
  8
0
100
AcDbLine
 62
7
  6
CONTINUOUS
 10
103.4412144865
 20
110.6399741521
 11
101.7745470251
 21
110.6399741521
  0
LINE
  5
22E
100
AcDbEntity
  8
0
100
AcDbLine
 62
7
  6
CONTINUOUS
 10
104.4828795637
 20
112.3421022048
 11
103.4412144865
 21
112.3421022048
  0
LINE
  5
22F
100
AcDbEntity
  8
0
100
AcDbLine
 62
7
  6
CONTINUOUS
 10
93.6495470251
 20
112.767634069
 11
99.6912144865
 21
112.767634069
  0
LINE
  5
230
100
AcDbEntity
  8
0
100
AcDbLine
 62
7
  6
CONTINUOUS
 10
99.6912144865
 20
113.8314637294
 11
92.6078807558
 21
113.8314637294
  0
LINE
  5
231
100
AcDbEntity
  8
0
100
AcDbLine
 62
7
  6
CONTINUOUS
 10
84.8995470251
 20
113.8314637294
 11
83.6495470251
 21
113.8314637294
  0
LINE
  5
232
100
AcDbEntity
  8
0
100
AcDbLine
 62
7
  6
CONTINUOUS
 10
105.1078795637
 20
104.0442296801
 11
106.3578795637
 21
103.8314637294
  0
LINE
  5
233
100
AcDbEntity
  8
0
100
AcDbLine
 62
7
  6
CONTINUOUS
 10
106.3578795637
 20
104.6825275323
 11
105.3162144865
 21
104.8952935389
  0
LINE
  5
234
100
AcDbEntity
  8
0
100
AcDbLine
 62
7
  6
CONTINUOUS
 10
98.0245470251
 20
110.0016763559
 11
96.9828807558
 21
110.214442288
  0
LINE
  5
235
100
AcDbEntity
  8
0
100
AcDbLine
 62
7
  6
CONTINUOUS
 10
95.7328807558
 20
104.8952935389
 11
94.8995470251
 21
105.1080594709
  0
LINE
  5
236
100
AcDbEntity
  8
0
100
AcDbLine
 62
7
  6
CONTINUOUS
 10
96.9828807558
 20
109.1506126275
 11
97.8162132944
 21
108.9378466955
  0
LINE
  5
237
100
AcDbEntity
  8
0
100
AcDbLine
 62
7
  6
CONTINUOUS
 10
104.4828795637
 20
104.2569956308
 11
105.1078795637
 21
104.0442296801
  0
LINE
  5
238
100
AcDbEntity
  8
0
100
AcDbLine
 62
7
  6
CONTINUOUS
 10
44.7120470251
 20
119.8314637294
 11
47.5438593225
 21
119.8314637294
  0
LINE
  5
239
100
AcDbEntity
  8
0
100
AcDbLine
 62
7
  6
CONTINUOUS
 10
137.8802347277
 20
119.8314637294
 11
140.7120470251
 21
119.8314637294
  0
LINE
  5
23A
100
AcDbEntity
  8
0
100
AcDbLine
 62
7
  6
CONTINUOUS
 10
93.6495470251
 20
104.6825275323
 11
94.6912132944
 21
104.0442296801
  0
LINE
  5
23B
100
AcDbEntity
  8
0
100
AcDbLine
 62
7
  6
CONTINUOUS
 10
99.0662144865
 20
109.3633785596
 11
98.0245470251
 21
110.0016763559
  0
LINE
  5
23C
100
AcDbEntity
  8
0
100
AcDbLine
 62
7
  6
CONTINUOUS
 10
94.8995470251
 20
105.1080594709
 11
94.2745470251
 21
105.5335913351
  0
LINE
  5
23D
100
AcDbEntity
  8
0
100
AcDbLine
 62
7
  6
CONTINUOUS
 10
74.7120470251
 20
133.2814637294
 11
110.7120470251
 21
133.2814637294
  0
LINE
  5
23E
100
AcDbEntity
  8
0
100
AcDbLine
 62
7
  6
CONTINUOUS
 10
103.8578795637
 20
104.6825275323
 11
104.4828795637
 21
104.2569956308
  0
LINE
  5
23F
100
AcDbEntity
  8
0
100
AcDbLine
 62
7
  6
CONTINUOUS
 10
97.8162132944
 20
108.9378466955
 11
98.4412132944
 21
108.5123148313
  0
LINE
  5
240
100
AcDbEntity
  8
0
100
AcDbLine
 62
7
  6
CONTINUOUS
 10
105.3162144865
 20
104.8952935389
 11
104.6912144865
 21
105.320825403
  0
LINE
  5
241
100
AcDbEntity
  8
BEZUGSACHSEN
100
AcDbLine
 62
7
  6
CONTINUOUS
 10
51.478920971
 20
115.229920782
 11
50.3352525277
 21
117.9808843551
  0
LINE
  5
242
100
AcDbEntity
  8
BEZUGSACHSEN
100
AcDbLine
 62
7
  6
CONTINUOUS
 10
42.6631334268
 20
136.4352889487
 11
36.1666727447
 21
152.061781744
  0
LINE
  5
243
100
AcDbEntity
  8
0
100
AcDbLine
 62
7
  6
CONTINUOUS
 10
93.0245470251
 20
105.5335913351
 11
93.6495470251
 21
104.6825275323
  0
LINE
  5
244
100
AcDbEntity
  8
BEZUGSACHSEN
100
AcDbLine
 62
7
  6
CONTINUOUS
 10
42.7120470251
 20
121.8314637294
 11
42.7120470251
 21
133.8314637294
  0
LINE
  5
245
100
AcDbEntity
  8
0
100
AcDbLine
 62
7
  6
CONTINUOUS
 10
99.6912144865
 20
108.5123148313
 11
99.0662144865
 21
109.3633785596
  0
LINE
  5
246
100
AcDbEntity
  8
0
100
AcDbLine
 62
7
  6
CONTINUOUS
 10
98.4412132944
 20
108.5123148313
 11
98.8578795637
 21
107.8740170351
  0
LINE
  5
247
100
AcDbEntity
  8
0
100
AcDbLine
 62
7
  6
CONTINUOUS
 10
92.6078807558
 20
106.3846552124
 11
93.0245470251
 21
105.5335913351
  0
LINE
  5
248
100
AcDbEntity
  8
0
100
AcDbLine
 62
7
  6
CONTINUOUS
 10
63.2471215765
 20
186.2340199306
 11
63.251196376
 21
185.8469293233
  0
LINE
  5
249
100
AcDbEntity
  8
BEZUGSACHSEN
100
AcDbLine
 62
7
  6
CONTINUOUS
 10
36.192790514
 20
156.1991879614
 11
37.4244674875
 21
159.1727192154
  0
LINE
  5
24A
100
AcDbEntity
  8
RUNDUNGEN
100
AcDbLine
 62
7
  6
CONTINUOUS
 10
37.4244674875
 20
159.1727192154
 11
51.2234432737
 21
192.4863937052
  0
LINE
  5
24B
100
AcDbEntity
  8
0
100
AcDbLine
 62
7
  6
CONTINUOUS
 10
60.0403796665
 20
178.3332927282
 11
54.6903772071
 21
181.0021820669
  0
LINE
  5
24C
100
AcDbEntity
  8
0
100
AcDbLine
 62
7
  6
CONTINUOUS
 10
54.1158529474
 20
180.4276578071
 11
60.2441117634
 21
177.3635284677
  0
LINE
  5
24D
100
AcDbEntity
  8
0
100
AcDbLine
 62
7
  6
CONTINUOUS
 10
58.7120470251
 20
185.0238518848
 11
63.3082411028
 21
180.4276578071
  0
LINE
  5
24E
100
AcDbEntity
  8
0
100
AcDbLine
 62
7
  6
CONTINUOUS
 10
63.8827653626
 20
181.0021820669
 11
61.8291467029
 21
183.0558007265
  0
LINE
  5
24F
100
AcDbEntity
  8
0
100
AcDbLine
 62
7
  6
CONTINUOUS
 10
61.2423985928
 20
183.6425488366
 11
59.7755280433
 21
185.1094193861
  0
LINE
  5
250
100
AcDbEntity
  8
0
100
AcDbLine
 62
7
  6
CONTINUOUS
 10
63.0495017473
 20
186.6231482116
 11
63.2471215765
 21
186.2340199306
  0
LINE
  5
251
100
AcDbEntity
  8
0
100
AcDbLine
 62
7
  6
CONTINUOUS
 10
63.9194371879
 20
186.7107528386
 11
63.7218173588
 21
187.0998811196
  0
LINE
  5
252
100
AcDbEntity
  8
0
100
AcDbLine
 62
7
  6
CONTINUOUS
 10
61.010144064
 20
178.1295607683
 11
57.9460145875
 21
184.2578194472
  0
LINE
  5
253
100
AcDbEntity
  8
0
100
AcDbLine
 62
7
  6
CONTINUOUS
 10
57.3714903278
 20
183.6832951875
 11
60.0403796665
 21
178.3332927282
  0
LINE
  5
254
100
AcDbEntity
  8
0
100
AcDbLine
 62
7
  6
CONTINUOUS
 10
94.2745470251
 20
105.5335913351
 11
93.8578807558
 21
106.3846552124
  0
LINE
  5
255
100
AcDbEntity
  8
0
100
AcDbLine
 62
7
  6
CONTINUOUS
 10
103.4412144865
 20
105.5335913351
 11
103.8578795637
 21
104.6825275323
  0
LINE
  5
256
100
AcDbEntity
  8
0
100
AcDbLine
 62
7
  6
CONTINUOUS
 10
64.0233404649
 20
186.032325302
 11
63.9194371879
 21
186.7107528386
  0
LINE
  5
257
100
AcDbEntity
  8
0
100
AcDbLine
 62
7
  6
CONTINUOUS
 10
70.7120470251
 20
97.8314637294
 11
70.7120470251
 21
97.2814637294
  0
LINE
  5
258
100
AcDbEntity
  8
0
100
AcDbLine
 62
7
  6
CONTINUOUS
 10
63.8359068125
 20
185.4537262428
 11
64.0233404649
 21
186.032325302
  0
LINE
  5
259
100
AcDbEntity
  8
0
100
AcDbLine
 62
7
  6
CONTINUOUS
 10
63.251196376
 20
185.8469293233
 11
63.0617255978
 21
185.4618758417
  0
LINE
  5
25A
100
AcDbEntity
  8
0
100
AcDbLine
 62
7
  6
CONTINUOUS
 10
66.9468945651
 20
184.0663112694
 11
63.8359068125
 21
185.4537262428
  0
LINE
  5
25B
100
AcDbEntity
  8
0
100
AcDbLine
 62
7
  6
CONTINUOUS
 10
63.4569652562
 20
184.6836192797
 11
66.2766166273
 21
183.3960333316
  0
LINE
  5
25C
100
AcDbEntity
  8
0
100
AcDbLine
 62
7
  6
CONTINUOUS
 10
64.6691704277
 20
189.0251482535
 11
69.6280079597
 21
186.747424664
  0
LINE
  5
25D
100
AcDbEntity
  8
0
100
AcDbLine
 62
7
  6
CONTINUOUS
 10
62.3669991373
 20
187.1141423698
 11
62.7561274183
 21
186.9165225407
  0
LINE
  5
25E
100
AcDbEntity
  8
0
100
AcDbLine
 62
7
  6
CONTINUOUS
 10
63.330651678
 20
187.4910468004
 11
62.941523397
 21
187.6886666296
  0
LINE
  5
25F
100
AcDbEntity
  8
0
100
AcDbLine
 62
7
  6
CONTINUOUS
 10
62.7561274183
 20
186.9165225407
 11
63.0495017473
 21
186.6231482116
  0
LINE
  5
260
100
AcDbEntity
  8
0
100
AcDbLine
 62
7
  6
CONTINUOUS
 10
63.7218173588
 20
187.0998811196
 11
63.330651678
 21
187.4910468004
  0
LINE
  5
261
100
AcDbEntity
  8
0
100
AcDbLine
 62
7
  6
CONTINUOUS
 10
63.1167331989
 20
189.4285380586
 11
67.7129272766
 21
184.8323439809
  0
LINE
  5
262
100
AcDbEntity
  8
0
100
AcDbLine
 62
7
  6
CONTINUOUS
 10
68.2874509884
 20
185.4068676927
 11
64.6691704277
 21
189.0251482535
  0
LINE
  5
263
100
AcDbEntity
  8
0
100
AcDbLine
 62
7
  6
CONTINUOUS
 10
68.116315986
 20
192.4722938117
 11
71.7345965467
 21
188.854013251
  0
LINE
  5
264
100
AcDbEntity
  8
0
100
AcDbLine
 62
7
  6
CONTINUOUS
 10
72.3091208064
 20
189.4285375107
 11
67.7129267287
 21
194.0247315884
  0
LINE
  5
265
100
AcDbEntity
  8
0
100
AcDbLine
 62
7
  6
CONTINUOUS
 10
66.8511403391
 20
193.1629451989
 11
69.5220669406
 21
187.6193972988
  0
LINE
  5
266
100
AcDbEntity
  8
0
100
AcDbLine
 62
7
  6
CONTINUOUS
 10
70.3940406713
 20
187.5134573755
 11
68.116315986
 21
192.4722938117
  0
LINE
  5
267
100
AcDbEntity
  8
0
100
AcDbLine
 62
7
  6
CONTINUOUS
 10
100.1078795637
 20
107.4484848729
 11
99.6912144865
 21
108.5123148313
  0
LINE
  5
268
100
AcDbEntity
  8
0
100
AcDbLine
 62
7
  6
CONTINUOUS
 10
98.8578795637
 20
107.8740170351
 11
99.0662144865
 21
107.2357189408
  0
LINE
  5
269
100
AcDbEntity
  8
0
100
AcDbLine
 62
7
  6
CONTINUOUS
 10
74.7120470251
 20
128.0512214871
 11
74.7120470251
 21
133.2814637294
  0
LINE
  5
26A
100
AcDbEntity
  8
0
100
AcDbLine
 62
7
  6
CONTINUOUS
 10
78.6495470251
 20
108.0867829671
 11
78.6495470251
 21
106.8101870766
  0
LINE
  5
26B
100
AcDbEntity
  8
0
100
AcDbLine
 62
7
  6
CONTINUOUS
 10
83.6495470251
 20
112.1293362728
 11
83.6495470251
 21
108.0867829671
  0
LINE
  5
26C
100
AcDbEntity
  8
0
100
AcDbLine
 62
7
  6
CONTINUOUS
 10
83.6495470251
 20
106.8101870766
 11
83.6495470251
 21
103.8314637294
  0
LINE
  5
26D
100
AcDbEntity
  8
0
100
AcDbLine
 62
7
  6
CONTINUOUS
 10
67.7129267287
 20
194.0247315884
 11
66.8511403391
 21
193.1629451989
  0
LINE
  5
26E
100
AcDbEntity
  8
0
100
AcDbLine
 62
7
  6
CONTINUOUS
 10
63.9785190406
 20
190.2903239003
 11
63.1167331989
 21
189.4285380586
  0
LINE
  5
26F
100
AcDbEntity
  8
0
100
AcDbLine
 62
7
  6
CONTINUOUS
 10
61.010144064
 20
187.3219489237
 11
58.7120470251
 21
185.0238518848
  0
LINE
  5
270
100
AcDbEntity
  8
0
100
AcDbLine
 62
7
  6
CONTINUOUS
 10
57.9460145875
 20
184.2578194472
 11
57.3714903278
 21
183.6832951875
  0
LINE
  5
271
100
AcDbEntity
  8
0
100
AcDbLine
 62
7
  6
CONTINUOUS
 10
54.6903772071
 20
181.0021820669
 11
54.1158529474
 21
180.4276578071
  0
LINE
  5
272
100
AcDbEntity
  8
0
100
AcDbLine
 62
7
  6
CONTINUOUS
 10
59.7755280433
 20
185.1094193861
 11
61.5948550484
 21
186.9287463911
  0
LINE
  5
273
100
AcDbEntity
  8
0
100
AcDbLine
 62
7
  6
CONTINUOUS
 10
63.0617255978
 20
185.4618758417
 11
61.2423985928
 21
183.6425488366
  0
LINE
  5
274
100
AcDbEntity
  8
0
100
AcDbLine
 62
7
  6
CONTINUOUS
 10
61.8291467029
 20
183.0558007265
 11
63.4569652562
 21
184.6836192797
  0
LINE
  5
275
100
AcDbEntity
  8
0
100
AcDbLine
 62
7
  6
CONTINUOUS
 10
61.5867054495
 20
187.7029276058
 11
61.010144064
 21
187.3219489237
  0
LINE
  5
276
100
AcDbEntity
  8
RUNDUNGEN
100
AcDbLine
 62
7
  6
CONTINUOUS
 10
54.0510011885
 20
195.2408786759
 11
90.9202072774
 21
209.3936408937
  0
LINE
  5
277
100
AcDbEntity
  8
0
100
AcDbLine
 62
7
  6
CONTINUOUS
 10
61.97990853
 20
187.1182171693
 11
62.3669991373
 21
187.1141423698
  0
LINE
  5
278
100
AcDbEntity
  8
0
100
AcDbLine
 62
7
  6
CONTINUOUS
 10
62.941523397
 20
187.6886666296
 11
62.2630958603
 21
187.7925699065
  0
LINE
  5
279
100
AcDbEntity
  8
0
100
AcDbLine
 62
7
  6
CONTINUOUS
 10
69.5220669406
 20
187.6193972988
 11
63.9785190406
 21
190.2903239003
  0
LINE
  5
27A
100
AcDbEntity
  8
0
100
AcDbLine
 62
7
  6
CONTINUOUS
 10
104.6912144865
 20
105.320825403
 11
104.4828795637
 21
105.9591233483
  0
LINE
  5
27B
100
AcDbEntity
  8
0
100
AcDbLine
 62
7
  6
CONTINUOUS
 10
83.9099649634
 20
199.3314637294
 11
83.9099649634
 21
192.8314637294
  0
LINE
  5
27C
100
AcDbEntity
  8
0
100
AcDbLine
 62
7
  6
CONTINUOUS
 10
84.7224649634
 20
192.8314637294
 11
84.7224649634
 21
195.7357190898
  0
LINE
  5
27D
100
AcDbEntity
  8
0
100
AcDbLine
 62
7
  6
CONTINUOUS
 10
84.7224649634
 20
196.5655062249
 11
84.7224649634
 21
198.6399744502
  0
LINE
  5
27E
100
AcDbEntity
  8
0
100
AcDbLine
 62
7
  6
CONTINUOUS
 10
84.8995470251
 20
103.8314637294
 11
84.8995470251
 21
106.8101870766
  0
LINE
  5
27F
100
AcDbEntity
  8
0
100
AcDbLine
 62
7
  6
CONTINUOUS
 10
84.8995470251
 20
108.0867829671
 11
84.8995470251
 21
113.8314637294
  0
LINE
  5
280
100
AcDbEntity
  8
0
100
AcDbLine
 62
7
  6
CONTINUOUS
 10
86.9828801598
 20
106.8101870766
 11
86.9828801598
 21
108.0867829671
  0
LINE
  5
281
100
AcDbEntity
  8
0
100
AcDbLine
 62
7
  6
CONTINUOUS
 10
88.1078815009
 20
197.810187315
 11
88.1078815009
 21
197.39529336
  0
LINE
  5
282
100
AcDbEntity
  8
0
100
AcDbLine
 62
7
  6
CONTINUOUS
 10
88.9203815009
 20
197.2569955042
 11
88.9203815009
 21
197.810187315
  0
LINE
  5
283
100
AcDbEntity
  8
0
100
AcDbLine
 62
7
  6
CONTINUOUS
 10
90.1391315009
 20
199.3314637294
 11
90.1391315009
 21
195.0442296168
  0
LINE
  5
284
100
AcDbEntity
  8
0
100
AcDbLine
 62
7
  6
CONTINUOUS
 10
90.9516318883
 20
195.0442296168
 11
90.9516318883
 21
199.3314637294
  0
LINE
  5
285
100
AcDbEntity
  8
0
100
AcDbLine
 62
7
  6
CONTINUOUS
 10
92.6078807558
 20
113.8314637294
 11
92.6078807558
 21
108.2995488992
  0
LINE
  5
286
100
AcDbEntity
  8
0
100
AcDbLine
 62
7
  6
CONTINUOUS
 10
92.7120470251
 20
125.6254830397
 11
92.7120470251
 21
133.2814637294
  0
LINE
  5
287
100
AcDbEntity
  8
0
100
AcDbLine
 62
7
  6
CONTINUOUS
 10
93.6495470251
 20
109.3633785596
 11
93.6495470251
 21
112.767634069
  0
LINE
  5
288
100
AcDbEntity
  8
0
100
AcDbLine
 62
7
  6
CONTINUOUS
 10
88.1078815009
 20
197.39529336
 11
87.9724649634
 21
196.9803997925
  0
LINE
  5
289
100
AcDbEntity
  8
0
100
AcDbLine
 62
7
  6
CONTINUOUS
 10
88.7849649634
 20
196.8421019366
 11
88.9203815009
 21
197.2569955042
  0
LINE
  5
28A
100
AcDbEntity
  8
0
100
AcDbLine
 62
7
  6
CONTINUOUS
 10
88.3787149634
 20
196.2889105132
 11
88.7849649634
 21
196.8421019366
  0
LINE
  5
28B
100
AcDbEntity
  8
0
100
AcDbLine
 62
7
  6
CONTINUOUS
 10
87.9724649634
 20
196.9803997925
 11
87.7016315009
 21
196.7038040808
  0
LINE
  5
28C
100
AcDbEntity
  8
0
100
AcDbLine
 62
7
  6
CONTINUOUS
 10
60.2441117634
 20
177.3635284677
 11
61.010144064
 21
178.1295607683
  0
LINE
  5
28D
100
AcDbEntity
  8
0
100
AcDbLine
 62
7
  6
CONTINUOUS
 10
63.3082411028
 20
180.4276578071
 11
63.8827653626
 21
181.0021820669
  0
LINE
  5
28E
100
AcDbEntity
  8
0
100
AcDbLine
 62
7
  6
CONTINUOUS
 10
66.2766166273
 20
183.3960333316
 11
66.9468945651
 21
184.0663112694
  0
LINE
  5
28F
100
AcDbEntity
  8
0
100
AcDbLine
 62
7
  6
CONTINUOUS
 10
67.7129272766
 20
184.8323439809
 11
68.2874509884
 21
185.4068676927
  0
LINE
  5
290
100
AcDbEntity
  8
0
100
AcDbLine
 62
7
  6
CONTINUOUS
 10
69.6280079597
 20
186.747424664
 11
70.3940406713
 21
187.5134573755
  0
LINE
  5
291
100
AcDbEntity
  8
0
100
AcDbLine
 62
7
  6
CONTINUOUS
 10
71.7345965467
 20
188.854013251
 11
72.3091208064
 21
189.4285375107
  0
LINE
  5
292
100
AcDbEntity
  8
0
100
AcDbLine
 62
7
  6
CONTINUOUS
 10
87.8370484258
 20
196.0123148015
 11
88.3787149634
 21
196.2889105132
  0
LINE
  5
293
100
AcDbEntity
  8
0
100
AcDbLine
 62
7
  6
CONTINUOUS
 10
61.5948550484
 20
186.9287463911
 11
61.97990853
 21
187.1182171693
  0
LINE
  5
294
100
AcDbEntity
  8
0
100
AcDbLine
 62
7
  6
CONTINUOUS
 10
87.7016315009
 20
196.7038040808
 11
87.2953815009
 21
196.5655062249
  0
LINE
  5
295
100
AcDbEntity
  8
0
100
AcDbLine
 62
7
  6
CONTINUOUS
 10
99.8891311135
 20
193.7995488173
 11
99.3474649634
 21
193.6612509614
  0
LINE
  5
296
100
AcDbEntity
  8
0
100
AcDbLine
 62
7
  6
CONTINUOUS
 10
93.3891318883
 20
193.7995488173
 11
92.8474649634
 21
193.6612509614
  0
LINE
  5
297
100
AcDbEntity
  8
0
100
AcDbLine
 62
7
  6
CONTINUOUS
 10
99.3474649634
 20
192.8314637294
 11
100.0245488133
 21
192.9697615974
  0
LINE
  5
298
100
AcDbEntity
  8
0
100
AcDbLine
 62
7
  6
CONTINUOUS
 10
92.8474649634
 20
192.8314637294
 11
93.5245480384
 21
192.9697615974
  0
LINE
  5
299
100
AcDbEntity
  8
0
100
AcDbLine
 62
7
  6
CONTINUOUS
 10
62.2630958603
 20
187.7925699065
 11
61.5867054495
 21
187.7029276058
  0
LINE
  5
29A
100
AcDbEntity
  8
0
100
AcDbLine
 62
7
  6
CONTINUOUS
 10
83.9099649634
 20
192.8314637294
 11
84.7224649634
 21
192.8314637294
  0
LINE
  5
29B
100
AcDbEntity
  8
0
100
AcDbLine
 62
7
  6
CONTINUOUS
 10
88.1078815009
 20
192.8314637294
 11
89.0557984258
 21
192.8314637294
  0
LINE
  5
29C
100
AcDbEntity
  8
0
100
AcDbLine
 62
7
  6
CONTINUOUS
 10
92.3057980384
 20
192.8314637294
 11
92.8474649634
 21
192.8314637294
  0
LINE
  5
29D
100
AcDbEntity
  8
0
100
AcDbLine
 62
7
  6
CONTINUOUS
 10
96.0974649634
 20
192.8314637294
 11
99.3474649634
 21
192.8314637294
  0
LINE
  5
29E
100
AcDbEntity
  8
0
100
AcDbLine
 62
7
  6
CONTINUOUS
 10
99.3474649634
 20
193.6612509614
 11
96.9099649634
 21
193.6612509614
  0
LINE
  5
29F
100
AcDbEntity
  8
0
100
AcDbLine
 62
7
  6
CONTINUOUS
 10
92.8474649634
 20
193.6612509614
 11
92.3057980384
 21
193.6612509614
  0
LINE
  5
2A0
100
AcDbEntity
  8
0
100
AcDbLine
 62
7
  6
CONTINUOUS
 10
84.7224649634
 20
195.7357190898
 11
87.0245482321
 21
195.7357190898
  0
LINE
  5
2A1
100
AcDbEntity
  8
0
100
AcDbLine
 62
7
  6
CONTINUOUS
 10
87.2953815009
 20
196.5655062249
 11
84.7224649634
 21
196.5655062249
  0
LINE
  5
2A2
100
AcDbEntity
  8
0
100
AcDbLine
 62
7
  6
CONTINUOUS
 10
96.9099649634
 20
198.5016765943
 11
99.3474649634
 21
198.5016765943
  0
LINE
  5
2A3
100
AcDbEntity
  8
0
100
AcDbLine
 62
7
  6
CONTINUOUS
 10
84.7224649634
 20
198.6399744502
 11
87.2953815009
 21
198.6399744502
  0
LINE
  5
2A4
100
AcDbEntity
  8
0
100
AcDbLine
 62
7
  6
CONTINUOUS
 10
91.6287149634
 20
192.9697615974
 11
92.3057980384
 21
192.8314637294
  0
LINE
  5
2A5
100
AcDbEntity
  8
0
100
AcDbLine
 62
7
  6
CONTINUOUS
 10
87.8370484258
 20
199.1931658736
 11
87.1599649634
 21
199.3314637294
  0
LINE
  5
2A6
100
AcDbEntity
  8
0
100
AcDbLine
 62
7
  6
CONTINUOUS
 10
92.3057980384
 20
193.6612509614
 11
91.7641318883
 21
193.7995488173
  0
LINE
  5
2A7
100
AcDbEntity
  8
0
100
AcDbLine
 62
7
  6
CONTINUOUS
 10
87.2953815009
 20
198.6399744502
 11
87.7016315009
 21
198.5016765943
  0
LINE
  5
2A8
100
AcDbEntity
  8
0
100
AcDbLine
 62
7
  6
CONTINUOUS
 10
91.0870480384
 20
193.2463573454
 11
91.6287149634
 21
192.9697615974
  0
LINE
  5
2A9
100
AcDbEntity
  8
0
100
AcDbLine
 62
7
  6
CONTINUOUS
 10
91.7641318883
 20
193.7995488173
 11
91.3578818883
 21
194.0761446258
  0
LINE
  5
2AA
100
AcDbEntity
  8
0
100
AcDbLine
 62
7
  6
CONTINUOUS
 10
88.3787149634
 20
198.778272306
 11
87.8370484258
 21
199.1931658736
  0
LINE
  5
2AB
100
AcDbEntity
  8
0
100
AcDbLine
 62
7
  6
CONTINUOUS
 10
90.5453818883
 20
193.7995488173
 11
91.0870480384
 21
193.2463573454
  0
LINE
  5
2AC
100
AcDbEntity
  8
0
100
AcDbLine
 62
7
  6
CONTINUOUS
 10
87.7016315009
 20
198.5016765943
 11
87.9724649634
 21
198.2250808826
  0
LINE
  5
2AD
100
AcDbEntity
  8
0
100
AcDbLine
 62
7
  6
CONTINUOUS
 10
88.7849649634
 20
198.2250808826
 11
88.3787149634
 21
198.778272306
  0
LINE
  5
2AE
100
AcDbEntity
  8
0
100
AcDbLine
 62
7
  6
CONTINUOUS
 10
91.3578818883
 20
194.0761446258
 11
91.0870480384
 21
194.4910381934
  0
LINE
  5
2AF
100
AcDbEntity
  8
0
100
AcDbLine
 62
7
  6
CONTINUOUS
 10
90.2745484258
 20
194.3527403375
 11
90.5453818883
 21
193.7995488173
  0
LINE
  5
2B0
100
AcDbEntity
  8
0
100
AcDbLine
 62
7
  6
CONTINUOUS
 10
89.0557984258
 20
192.8314637294
 11
87.8370484258
 21
196.0123148015
  0
LINE
  5
2B1
100
AcDbEntity
  8
0
100
AcDbLine
 62
7
  6
CONTINUOUS
 10
87.0245482321
 20
195.7357190898
 11
88.1078815009
 21
192.8314637294
  0
LINE
  5
2B2
100
AcDbEntity
  8
0
100
AcDbLine
 62
7
  6
CONTINUOUS
 10
87.9724649634
 20
198.2250808826
 11
88.1078815009
 21
197.810187315
  0
LINE
  5
2B3
100
AcDbEntity
  8
0
100
AcDbLine
 62
7
  6
CONTINUOUS
 10
88.9203815009
 20
197.810187315
 11
88.7849649634
 21
198.2250808826
  0
LINE
  5
2B4
100
AcDbEntity
  8
0
100
AcDbLine
 62
7
  6
CONTINUOUS
 10
91.0870480384
 20
194.4910381934
 11
90.9516318883
 21
195.0442296168
  0
LINE
  5
2B5
100
AcDbEntity
  8
0
100
AcDbLine
 62
7
  6
CONTINUOUS
 10
90.1391315009
 20
195.0442296168
 11
90.2745484258
 21
194.3527403375
  0
LINE
  5
2B6
100
AcDbEntity
  8
0
100
AcDbLine
 62
7
  6
CONTINUOUS
 10
94.2016318883
 20
199.3314637294
 11
94.2016318883
 21
195.0442296168
  0
LINE
  5
2B7
100
AcDbEntity
  8
0
100
AcDbLine
 62
7
  6
CONTINUOUS
 10
95.0141318883
 20
195.0442296168
 11
95.0141318883
 21
199.3314637294
  0
LINE
  5
2B8
100
AcDbEntity
  8
0
100
AcDbLine
 62
7
  6
CONTINUOUS
 10
96.0974649634
 20
199.3314637294
 11
96.0974649634
 21
192.8314637294
  0
LINE
  5
2B9
100
AcDbEntity
  8
0
100
AcDbLine
 62
7
  6
CONTINUOUS
 10
96.9099649634
 20
193.6612509614
 11
96.9099649634
 21
198.5016765943
  0
LINE
  5
2BA
100
AcDbEntity
  8
0
100
AcDbLine
 62
7
  6
CONTINUOUS
 10
99.0662144865
 20
107.2357189408
 11
99.0662144865
 21
106.8101870766
  0
LINE
  5
2BB
100
AcDbEntity
  8
0
100
AcDbLine
 62
7
  6
CONTINUOUS
 10
99.6912144865
 20
112.767634069
 11
99.6912144865
 21
113.8314637294
  0
LINE
  5
2BC
100
AcDbEntity
  8
0
100
AcDbLine
 62
7
  6
CONTINUOUS
 10
100.1078795637
 20
106.5974211445
 11
100.1078795637
 21
107.4484848729
  0
LINE
  5
2BD
100
AcDbEntity
  8
0
100
AcDbLine
 62
7
  6
CONTINUOUS
 10
100.7016311135
 20
197.1186976483
 11
100.7016311135
 21
195.0442296168
  0
LINE
  5
2BE
100
AcDbEntity
  8
0
100
AcDbLine
 62
7
  6
CONTINUOUS
 10
101.5141311135
 20
195.0442296168
 11
101.5141311135
 21
197.1186976483
  0
LINE
  5
2BF
100
AcDbEntity
  8
0
100
AcDbLine
 62
7
  6
CONTINUOUS
 10
101.7745470251
 20
110.6399741521
 11
101.7745470251
 21
109.7889104238
  0
LINE
  5
2C0
100
AcDbEntity
  8
0
100
AcDbLine
 62
7
  6
CONTINUOUS
 10
103.4412144865
 20
112.3421022048
 11
103.4412144865
 21
110.6399741521
  0
LINE
  5
2C1
100
AcDbEntity
  8
0
100
AcDbLine
 62
7
  6
CONTINUOUS
 10
103.4412144865
 20
109.7889104238
 11
103.4412144865
 21
105.5335913351
  0
LINE
  5
2C2
100
AcDbEntity
  8
0
100
AcDbLine
 62
7
  6
CONTINUOUS
 10
94.8787149634
 20
194.3527403375
 11
95.0141318883
 21
195.0442296168
  0
LINE
  5
2C3
100
AcDbEntity
  8
0
100
AcDbLine
 62
7
  6
CONTINUOUS
 10
101.3787149634
 20
194.3527403375
 11
101.5141311135
 21
195.0442296168
  0
LINE
  5
2C4
100
AcDbEntity
  8
0
100
AcDbLine
 62
7
  6
CONTINUOUS
 10
94.2016318883
 20
195.0442296168
 11
94.0662149634
 21
194.4910381934
  0
LINE
  5
2C5
100
AcDbEntity
  8
0
100
AcDbLine
 62
7
  6
CONTINUOUS
 10
100.7016311135
 20
195.0442296168
 11
100.5662149634
 21
194.4910381934
  0
LINE
  5
2C6
100
AcDbEntity
  8
0
100
AcDbLine
 62
7
  6
CONTINUOUS
 10
94.6078818883
 20
193.7995488173
 11
94.8787149634
 21
194.3527403375
  0
LINE
  5
2C7
100
AcDbEntity
  8
0
100
AcDbLine
 62
7
  6
CONTINUOUS
 10
101.1078811135
 20
193.7995488173
 11
101.3787149634
 21
194.3527403375
  0
LINE
  5
2C8
100
AcDbEntity
  8
0
100
AcDbLine
 62
7
  6
CONTINUOUS
 10
94.0662149634
 20
194.4910381934
 11
93.7953818883
 21
194.0761446258
  0
LINE
  5
2C9
100
AcDbEntity
  8
0
100
AcDbLine
 62
7
  6
CONTINUOUS
 10
100.5662149634
 20
194.4910381934
 11
100.2953811135
 21
194.0761446258
  0
LINE
  5
2CA
100
AcDbEntity
  8
0
100
AcDbLine
 62
7
  6
CONTINUOUS
 10
94.0662149634
 20
193.2463573454
 11
94.6078818883
 21
193.7995488173
  0
LINE
  5
2CB
100
AcDbEntity
  8
0
100
AcDbLine
 62
7
  6
CONTINUOUS
 10
100.5662149634
 20
193.2463573454
 11
101.1078811135
 21
193.7995488173
  0
LINE
  5
2CC
100
AcDbEntity
  8
0
100
AcDbLine
 62
7
  6
CONTINUOUS
 10
93.7953818883
 20
194.0761446258
 11
93.3891318883
 21
193.7995488173
  0
LINE
  5
2CD
100
AcDbEntity
  8
0
100
AcDbLine
 62
7
  6
CONTINUOUS
 10
100.2953811135
 20
194.0761446258
 11
99.8891311135
 21
193.7995488173
  0
LINE
  5
2CE
100
AcDbEntity
  8
0
100
AcDbLine
 62
7
  6
CONTINUOUS
 10
93.5245480384
 20
192.9697615974
 11
94.0662149634
 21
193.2463573454
  0
LINE
  5
2CF
100
AcDbEntity
  8
0
100
AcDbLine
 62
7
  6
CONTINUOUS
 10
100.0245488133
 20
192.9697615974
 11
100.5662149634
 21
193.2463573454
  0
LINE
  5
2D0
100
AcDbEntity
  8
0
100
AcDbLine
 62
7
  6
CONTINUOUS
 10
99.3474649634
 20
199.3314637294
 11
96.0974649634
 21
199.3314637294
  0
LINE
  5
2D1
100
AcDbEntity
  8
0
100
AcDbLine
 62
7
  6
CONTINUOUS
 10
95.0141318883
 20
199.3314637294
 11
94.2016318883
 21
199.3314637294
  0
LINE
  5
2D2
100
AcDbEntity
  8
0
100
AcDbLine
 62
7
  6
CONTINUOUS
 10
90.9516318883
 20
199.3314637294
 11
90.1391315009
 21
199.3314637294
  0
LINE
  5
2D3
100
AcDbEntity
  8
0
100
AcDbLine
 62
7
  6
CONTINUOUS
 10
87.1599649634
 20
199.3314637294
 11
83.9099649634
 21
199.3314637294
  0
LINE
  5
2D4
100
AcDbEntity
  8
0
100
AcDbLine
 62
7
  6
CONTINUOUS
 10
100.0245488133
 20
199.1931658736
 11
99.3474649634
 21
199.3314637294
  0
LINE
  5
2D5
100
AcDbEntity
  8
0
100
AcDbLine
 62
7
  6
CONTINUOUS
 10
99.3474649634
 20
198.5016765943
 11
99.8891311135
 21
198.3633787384
  0
LINE
  5
2D6
100
AcDbEntity
  8
0
100
AcDbLine
 62
7
  6
CONTINUOUS
 10
100.5662149634
 20
198.9165701619
 11
100.0245488133
 21
199.1931658736
  0
LINE
  5
2D7
100
AcDbEntity
  8
0
100
AcDbLine
 62
7
  6
CONTINUOUS
 10
99.8891311135
 20
198.3633787384
 11
100.2953811135
 21
198.0867830267
  0
LINE
  5
2D8
100
AcDbEntity
  8
0
100
AcDbLine
 62
7
  6
CONTINUOUS
 10
101.1078811135
 20
198.3633787384
 11
100.5662149634
 21
198.9165701619
  0
LINE
  5
2D9
100
AcDbEntity
  8
0
100
AcDbLine
 62
7
  6
CONTINUOUS
 10
100.2953811135
 20
198.0867830267
 11
100.5662149634
 21
197.6718890717
  0
LINE
  5
2DA
100
AcDbEntity
  8
0
100
AcDbLine
 62
7
  6
CONTINUOUS
 10
101.3787149634
 20
197.810187315
 11
101.1078811135
 21
198.3633787384
  0
LINE
  5
2DB
100
AcDbEntity
  8
0
100
AcDbLine
 62
7
  6
CONTINUOUS
 10
100.5662149634
 20
197.6718890717
 11
100.7016311135
 21
197.1186976483
  0
LINE
  5
2DC
100
AcDbEntity
  8
0
100
AcDbLine
 62
7
  6
CONTINUOUS
 10
101.5141311135
 20
197.1186976483
 11
101.3787149634
 21
197.810187315
  0
LINE
  5
2DD
100
AcDbEntity
  8
0
100
AcDbLine
 62
7
  6
CONTINUOUS
 10
104.4828795637
 20
105.9591233483
 11
104.4828795637
 21
109.7889104238
  0
LINE
  5
2DE
100
AcDbEntity
  8
0
100
AcDbLine
 62
7
  6
CONTINUOUS
 10
104.4828795637
 20
110.6399741521
 11
104.4828795637
 21
112.3421022048
  0
LINE
  5
2DF
100
AcDbEntity
  8
0
100
AcDbLine
 62
7
  6
CONTINUOUS
 10
106.3578795637
 20
103.8314637294
 11
106.3578795637
 21
104.6825275323
  0
LINE
  5
2E0
100
AcDbEntity
  8
0
100
AcDbLine
 62
7
  6
CONTINUOUS
 10
106.7745470251
 20
109.7889104238
 11
106.7745470251
 21
110.6399741521
  0
LINE
  5
2E1
100
AcDbEntity
  8
0
100
AcDbLine
 62
7
  6
CONTINUOUS
 10
110.7120470251
 20
128.0512206517
 11
110.7120470251
 21
133.2814637294
  0
LINE
  5
2E2
100
AcDbEntity
  8
RUNDUNGEN
100
AcDbLine
 62
7
  6
CONTINUOUS
 10
94.5038867729
 20
209.3936408937
 11
131.3730928617
 21
195.2408786759
  0
LINE
  5
2E3
100
AcDbEntity
  8
0
100
AcDbLine
 62
7
  6
CONTINUOUS
 10
114.7120470251
 20
97.8314637294
 11
114.7120470251
 21
97.2814637294
  0
LINE
  5
2E4
100
AcDbEntity
  8
0
100
AcDbLine
 62
7
  6
CONTINUOUS
 10
99.0662144865
 20
106.8101870766
 11
98.8578795637
 21
106.1718892804
  0
LINE
  5
2E5
100
AcDbEntity
  8
0
100
AcDbLine
 62
7
  6
CONTINUOUS
 10
99.6912144865
 20
105.5335913351
 11
100.1078795637
 21
106.5974211445
  0
LINE
  5
2E6
100
AcDbEntity
  8
0
100
AcDbLine
 62
7
  6
CONTINUOUS
 10
89.8995470251
 20
104.8952935389
 11
88.6495470251
 21
102.5548679879
  0
LINE
  5
2E7
100
AcDbEntity
  8
0
100
AcDbLine
 62
7
  6
CONTINUOUS
 10
89.6912132944
 20
102.5548679879
 11
90.9412132944
 21
104.8952935389
  0
LINE
  5
2E8
100
AcDbEntity
  8
RUNDUNGEN
100
AcDbLine
 62
7
  6
CONTINUOUS
 10
134.2006507766
 20
192.4863937052
 11
147.9996295185
 21
159.1727120795
  0
LINE
  5
2E9
100
AcDbEntity
  8
BEZUGSACHSEN
100
AcDbLine
 62
7
  6
CONTINUOUS
 10
147.9996295185
 20
159.1727120795
 11
149.2313035363
 21
156.1991879614
  0
LINE
  5
2EA
100
AcDbEntity
  8
BEZUGSACHSEN
100
AcDbLine
 62
7
  6
CONTINUOUS
 10
142.7120470251
 20
133.8314637294
 11
142.7120470251
 21
121.8314637294
  0
LINE
  5
2EB
100
AcDbEntity
  8
0
100
AcDbLine
 62
7
  6
CONTINUOUS
 10
83.6495470251
 20
113.8314637294
 11
78.6495470251
 21
108.0867829671
  0
LINE
  5
2EC
100
AcDbEntity
  8
0
100
AcDbLine
 62
7
  6
CONTINUOUS
 10
80.1078803088
 20
108.0867829671
 11
83.6495470251
 21
112.1293362728
  0
LINE
  5
2ED
100
AcDbEntity
  8
0
100
AcDbLine
 62
7
  6
CONTINUOUS
 10
98.8578795637
 20
106.1718892804
 11
98.4412132944
 21
105.5335913351
  0
LINE
  5
2EE
100
AcDbEntity
  8
0
100
AcDbLine
 62
7
  6
CONTINUOUS
 10
99.0662144865
 20
104.6825275323
 11
99.6912144865
 21
105.5335913351
  0
LINE
  5
2EF
100
AcDbEntity
  8
BEZUGSACHSEN
100
AcDbLine
 62
7
  6
CONTINUOUS
 10
149.2574213094
 20
152.0617817533
 11
142.7609606234
 21
136.4352889487
  0
LINE
  5
2F0
100
AcDbEntity
  8
BEZUGSACHSEN
100
AcDbLine
 62
7
  6
CONTINUOUS
 10
135.0888415226
 20
117.9808843551
 11
133.9451730792
 21
115.229920782
  0
LINE
  5
2F1
100
AcDbEntity
  8
0
100
AcDbLine
 62
7
  6
CONTINUOUS
 10
94.0662132944
 20
108.2995488992
 11
94.8995470251
 21
108.9378466955
  0
LINE
  5
2F2
100
AcDbEntity
  8
0
100
AcDbLine
 62
7
  6
CONTINUOUS
 10
98.4412132944
 20
105.5335913351
 11
97.8162132944
 21
105.1080594709
  0
LINE
  5
2F3
100
AcDbEntity
  8
0
100
AcDbLine
 62
7
  6
CONTINUOUS
 10
94.6912132944
 20
110.0016763559
 11
93.6495470251
 21
109.3633785596
  0
LINE
  5
2F4
100
AcDbEntity
  8
0
100
AcDbLine
 62
7
  6
CONTINUOUS
 10
98.0245470251
 20
104.0442296801
 11
99.0662144865
 21
104.6825275323
  0
LINE
  5
2F5
100
AcDbEntity
  8
0
100
AcDbLine
 62
7
  6
CONTINUOUS
 10
207.14445103
 20
97.2814637294
 11
251.1432517192
 21
97.2814637294
  0
LINE
  5
2F6
100
AcDbEntity
  8
BEZUGSACHSEN
100
AcDbLine
 62
7
  6
CONTINUOUS
 10
196.143694415
 20
97.8314637294
 11
262.1440083342
 21
97.8314637294
  0
LINE
  5
2F7
100
AcDbEntity
  8
0
100
AcDbLine
 62
7
  6
CONTINUOUS
 10
195.139860806
 20
102.5548679879
 11
194.7509772396
 21
102.5548679879
  0
LINE
  5
2F8
100
AcDbEntity
  8
0
100
AcDbLine
 62
7
  6
CONTINUOUS
 10
262.9232606745
 20
102.5548679879
 11
263.5367255097
 21
102.5548679879
  0
LINE
  5
2F9
100
AcDbEntity
  8
0
100
AcDbLine
 62
7
  6
CONTINUOUS
 10
197.4529098309
 20
103.8314637294
 11
196.9026972502
 21
103.8314637294
  0
LINE
  5
2FA
100
AcDbEntity
  8
0
100
AcDbLine
 62
7
  6
CONTINUOUS
 10
194.477985693
 20
103.8314637294
 11
195.1133963454
 21
103.8314637294
  0
LINE
  5
2FB
100
AcDbEntity
  8
0
100
AcDbLine
 62
7
  6
CONTINUOUS
 10
262.3031707201
 20
103.8314637294
 11
263.1162815806
 21
103.8314637294
  0
LINE
  5
2FC
100
AcDbEntity
  8
0
100
AcDbLine
 62
7
  6
CONTINUOUS
 10
195.2019540393
 20
104.0442296801
 11
194.6854443502
 21
104.0442296801
  0
LINE
  5
2FD
100
AcDbEntity
  8
0
100
AcDbLine
 62
7
  6
CONTINUOUS
 10
263.9102020789
 20
104.0442296801
 11
263.9239380883
 21
104.0442296801
  0
LINE
  5
2FE
100
AcDbEntity
  8
0
100
AcDbLine
 62
7
  6
CONTINUOUS
 10
197.2468737834
 20
104.6825275323
 11
196.6974340279
 21
104.6825275323
  0
LINE
  5
2FF
100
AcDbEntity
  8
0
100
AcDbLine
 62
7
  6
CONTINUOUS
 10
195.2268044833
 20
104.6825275323
 11
194.7080423688
 21
104.6825275323
  0
LINE
  5
300
100
AcDbEntity
  8
0
100
AcDbLine
 62
7
  6
CONTINUOUS
 10
264.0645911802
 20
104.6825275323
 11
264.0997484098
 21
104.6825275323
  0
LINE
  5
301
100
AcDbEntity
  8
0
100
AcDbLine
 62
7
  6
CONTINUOUS
 10
196.8084851461
 20
104.8952935389
 11
196.2653895609
 21
104.8952935389
  0
LINE
  5
302
100
AcDbEntity
  8
0
100
AcDbLine
 62
7
  6
CONTINUOUS
 10
194.3699633821
 20
104.8952935389
 11
194.2505193605
 21
104.8952935389
  0
LINE
  5
303
100
AcDbEntity
  8
0
100
AcDbLine
 62
7
  6
CONTINUOUS
 10
263.5404598149
 20
104.8952935389
 11
264.1155073755
 21
104.8952935389
  0
LINE
  5
304
100
AcDbEntity
  8
0
100
AcDbLine
 62
7
  6
CONTINUOUS
 10
194.4266443183
 20
105.1080594709
 11
194.1483882672
 21
105.1080594709
  0
LINE
  5
305
100
AcDbEntity
  8
0
100
AcDbLine
 62
7
  6
CONTINUOUS
 10
196.4932875761
 20
105.320825403
 11
195.9538267212
 21
105.320825403
  0
LINE
  5
306
100
AcDbEntity
  8
0
100
AcDbLine
 62
7
  6
CONTINUOUS
 10
195.152270867
 20
105.5335913351
 11
194.6320591218
 21
105.5335913351
  0
LINE
  5
307
100
AcDbEntity
  8
0
100
AcDbLine
 62
7
  6
CONTINUOUS
 10
194.4232856859
 20
105.5335913351
 11
194.027233795
 21
105.5335913351
  0
LINE
  5
308
100
AcDbEntity
  8
0
100
AcDbLine
 62
7
  6
CONTINUOUS
 10
263.7797033534
 20
105.5335913351
 11
264.2908913507
 21
105.5335913351
  0
LINE
  5
309
100
AcDbEntity
  8
0
100
AcDbLine
 62
7
  6
CONTINUOUS
 10
196.2756113119
 20
105.9591233483
 11
195.7375945206
 21
105.9591233483
  0
LINE
  5
30A
100
AcDbEntity
  8
0
100
AcDbLine
 62
7
  6
CONTINUOUS
 10
194.3140639591
 20
106.3846552124
 11
193.8147837731
 21
106.3846552124
  0
LINE
  5
30B
100
AcDbEntity
  8
0
100
AcDbLine
 62
7
  6
CONTINUOUS
 10
263.9617467456
 20
106.3846552124
 11
264.4729189761
 21
106.3846552124
  0
LINE
  5
30C
100
AcDbEntity
  8
0
100
AcDbLine
 62
7
  6
CONTINUOUS
 10
194.9981191191
 20
106.5974211445
 11
194.4769857999
 21
106.5974211445
  0
LINE
  5
30D
100
AcDbEntity
  8
0
100
AcDbLine
 62
7
  6
CONTINUOUS
 10
194.2353648117
 20
106.8101870766
 11
194.1462576466
 21
106.8101870766
  0
LINE
  5
30E
100
AcDbEntity
  8
0
100
AcDbLine
 62
7
  6
CONTINUOUS
 10
261.393195879
 20
106.8101870766
 11
263.4982432137
 21
106.8101870766
  0
LINE
  5
30F
100
AcDbEntity
  8
0
100
AcDbLine
 62
7
  6
CONTINUOUS
 10
263.7748430434
 20
106.8101870766
 11
264.1414451026
 21
106.8101870766
  0
LINE
  5
310
100
AcDbEntity
  8
0
100
AcDbLine
 62
7
  6
CONTINUOUS
 10
194.8107476057
 20
107.4484848729
 11
194.2897913898
 21
107.4484848729
  0
LINE
  5
311
100
AcDbEntity
  8
0
100
AcDbLine
 62
7
  6
CONTINUOUS
 10
264.4183528613
 20
108.0867829671
 11
264.0566901406
 21
108.0867829671
  0
LINE
  5
312
100
AcDbEntity
  8
0
100
AcDbLine
 62
7
  6
CONTINUOUS
 10
263.7838855295
 20
108.0867829671
 11
262.7741516041
 21
108.0867829671
  0
LINE
  5
313
100
AcDbEntity
  8
0
100
AcDbLine
 62
7
  6
CONTINUOUS
 10
193.9109558027
 20
108.0867829671
 11
193.8693498879
 21
108.0867829671
  0
LINE
  5
314
100
AcDbEntity
  8
0
100
AcDbLine
 62
7
  6
CONTINUOUS
 10
261.7024404036
 20
108.0867829671
 11
262.2514501323
 21
108.0867829671
  0
LINE
  5
315
100
AcDbEntity
  8
0
100
AcDbLine
 62
7
  6
CONTINUOUS
 10
193.4076207359
 20
108.2995488992
 11
193.8437155778
 21
108.2995488992
  0
LINE
  5
316
100
AcDbEntity
  8
0
100
AcDbLine
 62
7
  6
CONTINUOUS
 10
264.3687727792
 20
108.2995488992
 11
264.8799449354
 21
108.2995488992
  0
LINE
  5
317
100
AcDbEntity
  8
0
100
AcDbLine
 62
7
  6
CONTINUOUS
 10
194.4990193691
 20
108.5123148313
 11
193.9793558531
 21
108.5123148313
  0
LINE
  5
318
100
AcDbEntity
  8
0
100
AcDbLine
 62
7
  6
CONTINUOUS
 10
193.5993081866
 20
108.9378466955
 11
193.3319183711
 21
108.9378466955
  0
LINE
  5
319
100
AcDbEntity
  8
0
100
AcDbLine
 62
7
  6
CONTINUOUS
 10
193.3408844767
 20
109.1506126275
 11
193.4551641164
 21
109.1506126275
  0
LINE
  5
31A
100
AcDbEntity
  8
0
100
AcDbLine
 62
7
  6
CONTINUOUS
 10
194.205791382
 20
109.3633785596
 11
193.6877359534
 21
109.3633785596
  0
LINE
  5
31B
100
AcDbEntity
  8
0
100
AcDbLine
 62
7
  6
CONTINUOUS
 10
194.1234448586
 20
109.7889104238
 11
194.5461835904
 21
109.7889104238
  0
LINE
  5
31C
100
AcDbEntity
  8
0
100
AcDbLine
 62
7
  6
CONTINUOUS
 10
194.8494519635
 20
109.7889104238
 11
196.1743654859
 21
109.7889104238
  0
LINE
  5
31D
100
AcDbEntity
  8
0
100
AcDbLine
 62
7
  6
CONTINUOUS
 10
193.9126144769
 20
110.0016763559
 11
193.3967242888
 21
110.0016763559
  0
LINE
  5
31E
100
AcDbEntity
  8
0
100
AcDbLine
 62
7
  6
CONTINUOUS
 10
193.7407678592
 20
110.214442288
 11
193.1135307104
 21
110.214442288
  0
LINE
  5
31F
100
AcDbEntity
  8
0
100
AcDbLine
 62
7
  6
CONTINUOUS
 10
195.9695075529
 20
110.6399741521
 11
194.6527666015
 21
110.6399741521
  0
LINE
  5
320
100
AcDbEntity
  8
0
100
AcDbLine
 62
7
  6
CONTINUOUS
 10
194.352329125
 20
110.6399741521
 11
193.9334597877
 21
110.6399741521
  0
LINE
  5
321
100
AcDbEntity
  8
0
100
AcDbLine
 62
7
  6
CONTINUOUS
 10
194.794629892
 20
112.3421022048
 11
193.9651867196
 21
112.3421022048
  0
LINE
  5
322
100
AcDbEntity
  8
0
100
AcDbLine
 62
7
  6
CONTINUOUS
 10
192.4684962912
 20
112.767634069
 11
193.5675201936
 21
112.767634069
  0
LINE
  5
323
100
AcDbEntity
  8
0
100
AcDbLine
 62
7
  6
CONTINUOUS
 10
193.3349410466
 20
113.8314637294
 11
192.231779776
 21
113.8314637294
  0
LINE
  5
324
100
AcDbEntity
  8
0
100
AcDbLine
 62
7
  6
CONTINUOUS
 10
264.5413164929
 20
113.8314637294
 11
265.3223008528
 21
113.8314637294
  0
LINE
  5
325
100
AcDbEntity
  8
0
100
AcDbLine
 62
7
  6
CONTINUOUS
 10
265.5446252275
 20
113.8314637294
 11
266.0557971892
 21
113.8314637294
  0
LINE
  5
326
100
AcDbEntity
  8
0
100
AcDbLine
 62
7
  6
CONTINUOUS
 10
194.1512637376
 20
107.2357189408
 11
194.2440180335
 21
106.8101870766
  0
LINE
  5
327
100
AcDbEntity
  8
0
100
AcDbLine
 62
7
  6
CONTINUOUS
 10
192.2317760904
 20
113.8314637294
 11
193.4076208862
 21
108.2995488992
  0
LINE
  5
328
100
AcDbEntity
  8
0
100
AcDbLine
 62
7
  6
CONTINUOUS
 10
193.8146441042
 20
106.3846552124
 11
193.8598687777
 21
106.1718898518
  0
LINE
  5
329
100
AcDbEntity
  8
BEZUGSACHSEN
100
AcDbLine
 62
7
  6
CONTINUOUS
 10
191.8968655557
 20
117.8119610876
 11
192.7429463879
 21
113.8314637294
  0
LINE
  5
32A
100
AcDbEntity
  8
BEZUGSACHSEN
100
AcDbLine
 62
7
  6
CONTINUOUS
 10
194.1219265655
 20
107.3438720653
 11
194.2735575088
 21
106.6305045643
  0
LINE
  5
32B
100
AcDbEntity
  8
BEZUGSACHSEN
100
AcDbLine
 62
7
  6
CONTINUOUS
 10
194.8685120046
 20
103.8314637294
 11
196.1438513746
 21
97.8314637294
  0
LINE
  5
32C
100
AcDbEntity
  8
0
100
AcDbLine
 62
7
  6
CONTINUOUS
 10
208.3592416838
 20
133.2814637294
 11
214.0149356239
 21
133.2814637294
  0
LINE
  5
32D
100
AcDbEntity
  8
0
100
AcDbLine
 62
7
  6
CONTINUOUS
 10
244.2754672462
 20
133.2814637294
 11
249.9284610654
 21
133.2814637294
  0
LINE
  5
32E
100
AcDbEntity
  8
0
100
AcDbLine
 62
7
  6
CONTINUOUS
 10
258.1017823757
 20
125.4092816103
 11
256.5437727598
 21
125.9763507352
  0
LINE
  5
32F
100
AcDbEntity
  8
RUNDUNGEN
100
AcDbLine
 62
7
  6
CONTINUOUS
 10
263.2101620633
 20
123.5499834587
 11
251.6717379258
 21
127.749626395
  0
LINE
  5
330
100
AcDbEntity
  8
0
100
AcDbLine
 62
7
  6
CONTINUOUS
 10
207.1438513746
 20
97.8314637294
 11
207.1438513746
 21
97.2814637294
  0
LINE
  5
331
100
AcDbEntity
  8
0
100
AcDbLine
 62
7
  6
CONTINUOUS
 10
208.3592416838
 20
128.5067299395
 11
208.3592416838
 21
133.2814637294
  0
LINE
  5
332
100
AcDbEntity
  8
BEZUGSACHSEN
100
AcDbLine
 62
7
  6
CONTINUOUS
 10
217.1438513746
 20
142.784909655
 11
217.1438513746
 21
204.7257387612
  0
LINE
  5
333
100
AcDbEntity
  8
RUNDUNGEN
100
AcDbLine
 62
7
  6
CONTINUOUS
 10
241.1438513746
 20
142.784909655
 11
241.1438513746
 21
204.7257387612
  0
LINE
  5
334
100
AcDbEntity
  8
0
100
AcDbLine
 62
7
  6
CONTINUOUS
 10
241.6438513746
 20
199.3314637294
 11
241.6438513746
 21
192.8314637294
  0
LINE
  5
335
100
AcDbEntity
  8
0
100
AcDbLine
 62
7
  6
CONTINUOUS
 10
241.1438513746
 20
192.8314637294
 11
241.6438513746
 21
192.8314637294
  0
LINE
  5
336
100
AcDbEntity
  8
0
100
AcDbLine
 62
7
  6
CONTINUOUS
 10
249.9284610654
 20
128.5067299395
 11
249.9284610654
 21
133.2814637294
  0
LINE
  5
337
100
AcDbEntity
  8
0
100
AcDbLine
 62
7
  6
CONTINUOUS
 10
251.1438513746
 20
97.8314637294
 11
251.1438513746
 21
97.2814637294
  0
LINE
  5
338
100
AcDbEntity
  8
0
100
AcDbLine
 62
7
  6
CONTINUOUS
 10
241.1438513746
 20
199.3314637294
 11
241.6438513746
 21
199.3314637294
  0
LINE
  5
339
100
AcDbEntity
  8
RUNDUNGEN
100
AcDbLine
 62
7
  6
CONTINUOUS
 10
236.1438513746
 20
209.7257387612
 11
222.1438513746
 21
209.7257387612
  0
LINE
  5
33A
100
AcDbEntity
  8
0
100
AcDbLine
 62
7
  6
CONTINUOUS
 10
262.1438513746
 20
97.8314637294
 11
263.1478419432
 21
102.5548679879
  0
LINE
  5
33B
100
AcDbEntity
  8
0
100
AcDbLine
 62
7
  6
CONTINUOUS
 10
263.6453147511
 20
104.8952935389
 11
263.916663674
 21
106.1718898518
  0
LINE
  5
33C
100
AcDbEntity
  8
0
100
AcDbLine
 62
7
  6
CONTINUOUS
 10
263.9618883475
 20
106.3846552124
 11
264.0523379375
 21
106.8101870766
  0
LINE
  5
33D
100
AcDbEntity
  8
0
100
AcDbLine
 62
7
  6
CONTINUOUS
 10
264.3236867706
 20
108.0867829671
 11
264.3689115656
 21
108.2995488992
  0
LINE
  5
33E
100
AcDbEntity
  8
0
100
AcDbLine
 62
7
  6
CONTINUOUS
 10
265.5447563613
 20
113.8314637294
 11
266.3908371935
 21
117.8119610876
  0
LINE
  5
33F
100
AcDbEntity
  8
0
100
AcDbLine
 62
7
  6
CONTINUOUS
 10
266.0557971892
 20
113.8314637294
 11
264.8799449354
 21
108.2995488992
  0
LINE
  5
340
100
AcDbEntity
  8
0
100
AcDbLine
 62
7
  6
CONTINUOUS
 10
200.1859203735
 20
125.4092816103
 11
201.7439299894
 21
125.9763507352
  0
LINE
  5
341
100
AcDbEntity
  8
BEZUGSACHSEN
100
AcDbLine
 62
7
  6
CONTINUOUS
 10
195.0775406859
 20
123.5499834587
 11
206.6159648234
 21
127.749626395
  0
LWPOLYLINE
  5
342
100
AcDbEntity
  8
BEZUGSACHSEN
100
AcDbPolyline
 62
7
  6
CONTINUOUS
 90
7
 70
0
 10
37.1579206975
 20
46.8762348291
 10
36.8777905288
 20
45.5395747041
 10
36.5927412755
 20
44.0667467174
 10
36.3311291846
 20
42.5898315564
 10
36.0928086609
 20
41.1109370591
 10
35.8775514118
 20
39.6321370093
 10
35.7681771152
 20
38.814390616
  0
LINE
  5
343
100
AcDbEntity
  8
BEZUGSACHSEN
100
AcDbLine
 62
7
  6
CONTINUOUS
 10
37.1579204963
 20
46.8762349008
 11
37.1579048997
 21
46.8761631229
  0
LWPOLYLINE
  5
344
100
AcDbEntity
  8
BEZUGSACHSEN
100
AcDbPolyline
 62
7
  6
CONTINUOUS
 90
14
 70
0
 10
53.255623512
 20
55.9305845975
 10
52.65235212
 20
55.2859040852
 10
52.0856386024
 20
54.6875665553
 10
51.5530434343
 20
54.1350190709
 10
51.0529265079
 20
53.6279595993
 10
50.5838208521
 20
53.1657264747
 10
50.1446004652
 20
52.7475613989
 10
49.7346865365
 20
52.3727530616
 10
49.3535883453
 20
52.0402882961
 10
49.0020701418
 20
51.7498070011
 10
48.680537052
 20
51.5001297957
 10
48.3917755664
 20
51.2913888369
 10
48.1382131548
 20
51.1225346908
 10
47.9227178261
 20
50.9920071546
  0
LWPOLYLINE
  5
345
100
AcDbEntity
  8
BEZUGSACHSEN
100
AcDbPolyline
 62
7
  6
CONTINUOUS
 90
8
 70
0
 10
60.4368529083
 20
63.2995796926
 10
59.5667112093
 20
62.4800959942
 10
58.6189837802
 20
61.5585240545
 10
57.719967912
 20
60.6579028118
 10
56.8680164762
 20
59.7829772951
 10
56.0612063832
 20
58.9379170992
 10
55.2980915987
 20
58.126785293
 10
53.255623512
 20
55.9305845975
  0
LINE
  5
346
100
AcDbEntity
  8
BEZUGSACHSEN
100
AcDbLine
 62
7
  6
CONTINUOUS
 10
60.4368529083
 20
63.2995796926
 11
60.4368761575
 21
63.2996012359
  0
LWPOLYLINE
  5
347
100
AcDbEntity
  8
RUNDUNGEN
100
AcDbPolyline
 62
7
  6
CONTINUOUS
 90
7
 70
0
 10
35.7681771152
 20
38.8143647897
 10
35.8775514118
 20
37.9966183963
 10
36.0928086609
 20
36.5178183466
 10
36.3311291846
 20
35.0389238493
 10
36.5927412755
 20
33.5620086883
 10
36.8777905288
 20
32.0891807016
 10
37.1579206975
 20
30.7525205766
  0
LINE
  5
348
100
AcDbEntity
  8
BEZUGSACHSEN
100
AcDbLine
 62
7
  6
CONTINUOUS
 10
47.9227178261
 20
50.9920071546
 11
47.7482599678
 21
50.8973574442
  0
LINE
  5
349
100
AcDbEntity
  8
BEZUGSACHSEN
100
AcDbLine
 62
7
  6
CONTINUOUS
 10
47.7482599678
 20
50.8973574442
 11
47.6175014734
 21
50.8350087462
  0
LINE
  5
34A
100
AcDbEntity
  8
BEZUGSACHSEN
100
AcDbLine
 62
7
  6
CONTINUOUS
 10
47.6175014734
 20
50.8350087462
 11
47.5805487896
 21
50.819191276
  0
LINE
  5
34B
100
AcDbEntity
  8
0
100
AcDbLine
 62
7
  6
CONTINUOUS
 10
92.7120470251
 20
59.5989873937
 11
77.496656716
 21
50.8143777028
  0
LWPOLYLINE
  5
34C
100
AcDbEntity
  8
RUNDUNGEN
100
AcDbPolyline
 62
7
  6
CONTINUOUS
 90
35
 70
0
 10
60.4368710466
 20
14.3291486538
 10
61.9979404164
 20
12.9415940314
 10
63.712758712
 20
11.5442205345
 10
65.4678044799
 20
10.2391790843
 10
67.2605738259
 20
9.0254989238
 10
69.088061825
 20
7.9028499264
 10
70.9472664804
 20
6.8710251427
 10
72.8354029107
 20
5.9298249435
 10
74.7495613936
 20
5.078947361
 10
76.6870502793
 20
4.3181565166
 10
78.6451426297
 20
3.6472663513
 10
80.6213448202
 20
3.0661634695
 10
82.6131604368
 20
2.574606464
 10
84.6182855995
 20
2.1724738471
 10
86.6339210661
 20
1.8597377088
 10
88.6575547552
 20
1.6364693442
 10
90.6865013582
 20
1.5026138445
 10
92.7181509411
 20
1.4581989846
 10
94.7497908746
 20
1.503150837
 10
96.7787097388
 20
1.6375432079
 10
98.8022988581
 20
1.8613480818
 10
100.8178721775
 20
2.1746199189
 10
102.822916401
 20
2.5772867385
 10
104.8146327387
 20
3.0693767492
 10
106.7907187087
 20
3.6510116984
 10
108.7486778316
 20
4.3224328711
 10
110.6860164563
 20
5.0837529984
 10
112.600007514
 20
5.9351587666
 10
114.4879595287
 20
6.8768863355
 10
116.3469628515
 20
7.9092377999
 10
118.1742337846
 20
9.0324126846
 10
119.9667699682
 20
10.2466190408
 10
121.7215656348
 20
11.5521873376
 10
123.4361148949
 20
12.9500873543
 10
124.9872225507
 20
14.3291483171
  0
LINE
  5
34D
100
AcDbEntity
  8
RUNDUNGEN
100
AcDbLine
 62
7
  6
CONTINUOUS
 10
60.4368528473
 20
14.3291757697
 11
60.4368761575
 21
14.3291541698
  0
LWPOLYLINE
  5
34E
100
AcDbEntity
  8
RUNDUNGEN
100
AcDbPolyline
 62
7
  6
CONTINUOUS
 90
7
 70
0
 10
55.2932054364
 20
19.5071929852
 10
56.0561506758
 20
18.6961780781
 10
56.8630885141
 20
17.8508939447
 10
57.7155335711
 20
16.9753549876
 10
58.6154810342
 20
16.0736915927
 10
59.5646788083
 20
15.1506038748
 10
60.4368528473
 20
14.3291757697
  0
LINE
  5
34F
100
AcDbEntity
  8
RUNDUNGEN
100
AcDbLine
 62
7
  6
CONTINUOUS
 10
52.6499415344
 20
22.3454139271
 11
55.2932054364
 21
19.5071929852
  0
LWPOLYLINE
  5
350
100
AcDbEntity
  8
RUNDUNGEN
100
AcDbPolyline
 62
7
  6
CONTINUOUS
 90
13
 70
0
 10
47.9227523113
 20
26.6367284757
 10
48.1383764069
 20
26.5061169557
 10
48.3920740313
 20
26.3371593271
 10
48.6809497932
 20
26.1283161139
 10
49.0025484255
 20
25.8785649363
 10
49.3540462958
 20
25.5880779793
 10
49.7350346328
 20
25.2556911983
 10
50.144734448
 20
24.8810689058
 10
50.5836400477
 20
24.463204183
 10
51.0523293459
 20
24.00139312
 10
51.551933112
 20
23.4948759348
 10
52.0839135882
 20
22.9429956405
 10
52.6499415344
 20
22.3454139271
  0
LINE
  5
351
100
AcDbEntity
  8
0
100
AcDbLine
 62
7
  6
CONTINUOUS
 10
83.9099649634
 20
26.8143777028
 11
83.9099649634
 21
26.3143777028
  0
LINE
  5
352
100
AcDbEntity
  8
RUNDUNGEN
100
AcDbLine
 62
7
  6
CONTINUOUS
 10
47.567051284
 20
26.8143777028
 11
47.6173952511
 21
26.7937934653
  0
LINE
  5
353
100
AcDbEntity
  8
RUNDUNGEN
100
AcDbLine
 62
7
  6
CONTINUOUS
 10
47.6173952511
 20
26.7937934653
 11
47.7482001286
 21
26.7314283918
  0
LINE
  5
354
100
AcDbEntity
  8
RUNDUNGEN
100
AcDbLine
 62
7
  6
CONTINUOUS
 10
47.7482001286
 20
26.7314283918
 11
47.9227523113
 21
26.6367284757
  0
LINE
  5
355
100
AcDbEntity
  8
0
100
AcDbLine
 62
7
  6
CONTINUOUS
 10
87.1599649634
 20
26.8143777028
 11
87.1599649634
 21
26.3143777028
  0
LINE
  5
356
100
AcDbEntity
  8
0
100
AcDbLine
 62
7
  6
CONTINUOUS
 10
87.8370484258
 20
26.8143777028
 11
87.8370484258
 21
26.3143777028
  0
LINE
  5
357
100
AcDbEntity
  8
0
100
AcDbLine
 62
7
  6
CONTINUOUS
 10
88.3787149634
 20
26.8143777028
 11
88.3787149634
 21
26.3143777028
  0
LINE
  5
358
100
AcDbEntity
  8
0
100
AcDbLine
 62
7
  6
CONTINUOUS
 10
88.7849649634
 20
26.8143777028
 11
88.7849649634
 21
26.3143777028
  0
LINE
  5
359
100
AcDbEntity
  8
0
100
AcDbLine
 62
7
  6
CONTINUOUS
 10
88.9203815009
 20
26.8143777028
 11
88.9203815009
 21
26.3143777028
  0
LINE
  5
35A
100
AcDbEntity
  8
0
100
AcDbLine
 62
7
  6
CONTINUOUS
 10
89.0557984258
 20
26.8143777028
 11
89.0557984258
 21
26.3143777028
  0
LINE
  5
35B
100
AcDbEntity
  8
0
100
AcDbLine
 62
7
  6
CONTINUOUS
 10
90.1391315009
 20
26.8143777028
 11
90.1391315009
 21
26.3143777028
  0
LINE
  5
35C
100
AcDbEntity
  8
0
100
AcDbLine
 62
7
  6
CONTINUOUS
 10
90.9516318883
 20
26.8143777028
 11
90.9516318883
 21
26.3143777028
  0
LINE
  5
35D
100
AcDbEntity
  8
0
100
AcDbLine
 62
7
  6
CONTINUOUS
 10
91.0870480384
 20
26.8143777028
 11
91.0870480384
 21
26.3143777028
  0
LINE
  5
35E
100
AcDbEntity
  8
0
100
AcDbLine
 62
7
  6
CONTINUOUS
 10
91.3578818883
 20
26.8143777028
 11
91.3578818883
 21
26.3143777028
  0
LINE
  5
35F
100
AcDbEntity
  8
0
100
AcDbLine
 62
7
  6
CONTINUOUS
 10
91.7641318883
 20
26.8143777028
 11
91.7641318883
 21
26.3143777028
  0
LINE
  5
360
100
AcDbEntity
  8
0
100
AcDbLine
 62
7
  6
CONTINUOUS
 10
92.3057980384
 20
26.8143777028
 11
92.3057980384
 21
26.3143777028
  0
LINE
  5
361
100
AcDbEntity
  8
0
100
AcDbLine
 62
7
  6
CONTINUOUS
 10
92.8474649634
 20
26.8143777028
 11
92.8474649634
 21
26.3143777028
  0
LINE
  5
362
100
AcDbEntity
  8
0
100
AcDbLine
 62
7
  6
CONTINUOUS
 10
93.3891318883
 20
26.8143777028
 11
93.3891318883
 21
26.3143777028
  0
LINE
  5
363
100
AcDbEntity
  8
0
100
AcDbLine
 62
7
  6
CONTINUOUS
 10
93.7953818883
 20
26.8143777028
 11
93.7953818883
 21
26.3143777028
  0
LINE
  5
364
100
AcDbEntity
  8
0
100
AcDbLine
 62
7
  6
CONTINUOUS
 10
77.496656716
 20
26.8143777028
 11
92.7120470251
 21
18.029768012
  0
LINE
  5
365
100
AcDbEntity
  8
0
100
AcDbLine
 62
7
  6
CONTINUOUS
 10
94.0662149634
 20
26.8143777028
 11
94.0662149634
 21
26.3143777028
  0
LINE
  5
366
100
AcDbEntity
  8
0
100
AcDbLine
 62
7
  6
CONTINUOUS
 10
94.2016318883
 20
26.8143777028
 11
94.2016318883
 21
26.3143777028
  0
LINE
  5
367
100
AcDbEntity
  8
0
100
AcDbLine
 62
7
  6
CONTINUOUS
 10
95.0141318883
 20
26.8143777028
 11
95.0141318883
 21
26.3143777028
  0
LINE
  5
368
100
AcDbEntity
  8
0
100
AcDbLine
 62
7
  6
CONTINUOUS
 10
96.0974649634
 20
26.8143777028
 11
96.0974649634
 21
26.3143777028
  0
LINE
  5
369
100
AcDbEntity
  8
0
100
AcDbLine
 62
7
  6
CONTINUOUS
 10
99.3474649634
 20
26.8143777028
 11
99.3474649634
 21
26.3143777028
  0
LINE
  5
36A
100
AcDbEntity
  8
0
100
AcDbLine
 62
7
  6
CONTINUOUS
 10
100.0245488133
 20
26.8143777028
 11
100.0245488133
 21
26.3143777028
  0
LINE
  5
36B
100
AcDbEntity
  8
0
100
AcDbLine
 62
7
  6
CONTINUOUS
 10
100.5662149634
 20
26.8143777028
 11
100.5662149634
 21
26.3143777028
  0
LINE
  5
36C
100
AcDbEntity
  8
0
100
AcDbLine
 62
7
  6
CONTINUOUS
 10
101.1078811135
 20
26.8143777028
 11
101.1078811135
 21
26.3143777028
  0
LINE
  5
36D
100
AcDbEntity
  8
0
100
AcDbLine
 62
7
  6
CONTINUOUS
 10
101.3787149634
 20
26.8143777028
 11
101.3787149634
 21
26.3143777028
  0
LINE
  5
36E
100
AcDbEntity
  8
0
100
AcDbLine
 62
7
  6
CONTINUOUS
 10
101.5141311135
 20
26.8143777028
 11
101.5141311135
 21
26.3143777028
  0
LINE
  5
36F
100
AcDbEntity
  8
0
100
AcDbLine
 62
7
  6
CONTINUOUS
 10
92.7120470251
 20
18.029768012
 11
107.9274373343
 21
26.8143777028
  0
LINE
  5
370
100
AcDbEntity
  8
0
100
AcDbLine
 62
7
  6
CONTINUOUS
 10
101.5141311135
 20
26.3143777028
 11
96.0974649634
 21
26.3143777028
  0
LINE
  5
371
100
AcDbEntity
  8
0
100
AcDbLine
 62
7
  6
CONTINUOUS
 10
95.0141318883
 20
26.3143777028
 11
90.1391315009
 21
26.3143777028
  0
LINE
  5
372
100
AcDbEntity
  8
0
100
AcDbLine
 62
7
  6
CONTINUOUS
 10
89.0557984258
 20
26.3143777028
 11
83.9099649634
 21
26.3143777028
  0
LINE
  5
373
100
AcDbEntity
  8
RUNDUNGEN
100
AcDbLine
 62
7
  6
CONTINUOUS
 10
42.0438651366
 20
26.8143777028
 11
143.380232137
 21
26.8143777028
  0
LINE
  5
374
100
AcDbEntity
  8
RUNDUNGEN
100
AcDbLine
 62
7
  6
CONTINUOUS
 10
137.5043193165
 20
26.6384345322
 11
137.6782556062
 21
26.7326281434
  0
LINE
  5
375
100
AcDbEntity
  8
RUNDUNGEN
100
AcDbLine
 62
7
  6
CONTINUOUS
 10
137.6782556062
 20
26.7326281434
 11
137.8083919116
 21
26.7945385361
  0
LINE
  5
376
100
AcDbEntity
  8
RUNDUNGEN
100
AcDbLine
 62
7
  6
CONTINUOUS
 10
137.8083919116
 20
26.7945385361
 11
137.8450792841
 21
26.8101992046
  0
LWPOLYLINE
  5
377
100
AcDbEntity
  8
RUNDUNGEN
100
AcDbPolyline
 62
7
  6
CONTINUOUS
 90
8
 70
0
 10
124.9872404171
 20
14.3291750169
 10
125.8699221035
 20
15.1606584914
 10
126.8189843576
 20
16.0839394657
 10
127.71872238
 20
16.985674855
 10
128.570904703
 20
17.8611721977
 10
129.3775382262
 20
18.7063134454
 10
130.1401509948
 20
19.5170945684
 10
132.1798128429
 20
21.7103420424
  0
LINE
  5
378
100
AcDbEntity
  8
RUNDUNGEN
100
AcDbLine
 62
7
  6
CONTINUOUS
 10
124.9872454746
 20
14.3291695586
 11
124.9872225507
 21
14.3291483171
  0
LWPOLYLINE
  5
379
100
AcDbEntity
  8
RUNDUNGEN
100
AcDbPolyline
 62
7
  6
CONTINUOUS
 90
14
 70
0
 10
132.1798128429
 20
21.7103420424
 10
132.7819617508
 20
22.3537147638
 10
133.3476404818
 20
22.9508081628
 10
133.8792800303
 20
23.5021814037
 10
134.3785491424
 20
24.0081778016
 10
134.8469030751
 20
24.4694536322
 10
135.2854669085
 20
24.8867697363
 10
135.6948116924
 20
25.2608312163
 10
136.075425095
 20
25.5926455564
 10
136.4265208027
 20
25.8825521715
 10
136.7476817562
 20
26.1317169291
 10
137.0360817124
 20
26.3399779897
 10
137.2892602275
 20
26.5083669988
 10
137.5043193165
 20
26.6384345322
  0
LINE
  5
37A
100
AcDbEntity
  8
BEZUGSACHSEN
100
AcDbLine
 62
7
  6
CONTINUOUS
 10
42.0438651366
 20
50.8143777028
 11
143.380232137
 21
50.8143777028
  0
LINE
  5
37B
100
AcDbEntity
  8
0
100
AcDbLine
 62
7
  6
CONTINUOUS
 10
107.9274373343
 20
50.8143777028
 11
92.7120470251
 21
59.5989873937
  0
LWPOLYLINE
  5
37C
100
AcDbEntity
  8
RUNDUNGEN
100
AcDbPolyline
 62
7
  6
CONTINUOUS
 90
7
 70
0
 10
148.2661776047
 20
30.7525245604
 10
148.5434573575
 20
32.075096271
 10
148.8284524396
 20
33.5463375108
 10
149.090192405
 20
35.0225625249
 10
149.3288050984
 20
36.5016964132
 10
149.5444839615
 20
37.981677896
 10
149.655905351
 20
38.8143679268
  0
LINE
  5
37D
100
AcDbEntity
  8
RUNDUNGEN
100
AcDbLine
 62
7
  6
CONTINUOUS
 10
148.2661934801
 20
30.7525965112
 11
148.266177839
 21
30.7525245283
  0
LINE
  5
37E
100
AcDbEntity
  8
BEZUGSACHSEN
100
AcDbLine
 62
7
  6
CONTINUOUS
 10
137.8570420962
 20
50.8143777028
 11
137.8082854263
 21
50.8342636747
  0
LINE
  5
37F
100
AcDbEntity
  8
BEZUGSACHSEN
100
AcDbLine
 62
7
  6
CONTINUOUS
 10
137.8082854263
 20
50.8342636747
 11
137.6781949282
 21
50.896158057
  0
LINE
  5
380
100
AcDbEntity
  8
BEZUGSACHSEN
100
AcDbLine
 62
7
  6
CONTINUOUS
 10
137.6781949282
 20
50.896158057
 11
137.5043526291
 21
50.9903018028
  0
LWPOLYLINE
  5
381
100
AcDbEntity
  8
BEZUGSACHSEN
100
AcDbPolyline
 62
7
  6
CONTINUOUS
 90
13
 70
0
 10
137.5043526291
 20
50.9903018028
 10
137.2894222543
 20
51.1202855744
 10
137.0363791009
 20
51.288571176
 10
136.7480937197
 20
51.4967298937
 10
136.4269986677
 20
51.7458204543
 10
136.0758829377
 20
52.0357211206
 10
135.6951599605
 20
52.3676131031
 10
135.2856013001
 20
52.7418602597
 10
134.8467229312
 20
53.1594762997
 10
134.3779529557
 20
53.6211737032
 10
133.8781711464
 20
54.1277117633
 10
133.3459178192
 20
54.6797511384
 10
132.7795543294
 20
55.2775994686
  0
LWPOLYLINE
  5
382
100
AcDbEntity
  8
BEZUGSACHSEN
100
AcDbPolyline
 62
7
  6
CONTINUOUS
 90
35
 70
0
 10
124.9872225507
 20
63.2996070886
 10
123.4361148949
 20
64.6786680514
 10
121.7215656348
 20
66.0765680681
 10
119.9667699682
 20
67.3821363649
 10
118.1742337846
 20
68.5963427211
 10
116.3469628515
 20
69.7195176058
 10
114.4879595287
 20
70.7518690702
 10
112.600007514
 20
71.693596639
 10
110.6860164563
 20
72.5450024073
 10
108.7486778316
 20
73.3063225346
 10
106.7907187087
 20
73.9777437073
 10
104.8146327387
 20
74.5593786565
 10
102.822916401
 20
75.0514686672
 10
100.8178721775
 20
75.4541354868
 10
98.8022988581
 20
75.7674073239
 10
96.7787097388
 20
75.9912121978
 10
94.7497908746
 20
76.1256045687
 10
92.7181509411
 20
76.1705564211
 10
90.6865013582
 20
76.1261415612
 10
88.6575547552
 20
75.9922860615
 10
86.6339210661
 20
75.7690176969
 10
84.6182855995
 20
75.4562815586
 10
82.6131604368
 20
75.0541489417
 10
80.6213448202
 20
74.5625919362
 10
78.6451426297
 20
73.9814890544
 10
76.6870502793
 20
73.310598889
 10
74.7495613936
 20
72.5498080446
 10
72.8354029107
 20
71.6989304622
 10
70.9472664804
 20
70.7577302629
 10
69.088061825
 20
69.7259054792
 10
67.2605738259
 20
68.6032564819
 10
65.4678044799
 20
67.3895763214
 10
63.712758712
 20
66.0845348712
 10
61.9979404164
 20
64.6871613743
 10
60.4368710466
 20
63.2996067519
  0
LINE
  5
383
100
AcDbEntity
  8
BEZUGSACHSEN
100
AcDbLine
 62
7
  6
CONTINUOUS
 10
124.9872454182
 20
63.2995858994
 11
124.9872225507
 21
63.2996070886
  0
LWPOLYLINE
  5
384
100
AcDbEntity
  8
BEZUGSACHSEN
100
AcDbPolyline
 62
7
  6
CONTINUOUS
 90
7
 70
0
 10
130.1352641267
 20
58.1168850658
 10
129.3724798916
 20
58.9277854696
 10
128.5659724695
 20
59.772704677
 10
127.7142827902
 20
60.6475895689
 10
126.8154764295
 20
61.5482824587
 10
125.8678862603
 20
62.4700453928
 10
124.9872403607
 20
63.2995804411
  0
LINE
  5
385
100
AcDbEntity
  8
BEZUGSACHSEN
100
AcDbLine
 62
7
  6
CONTINUOUS
 10
132.7795543294
 20
55.2775994686
 11
130.1352641267
 21
58.1168850658
  0
LWPOLYLINE
  5
386
100
AcDbEntity
  8
BEZUGSACHSEN
100
AcDbPolyline
 62
7
  6
CONTINUOUS
 90
7
 70
0
 10
149.655905351
 20
38.8143874789
 10
149.5444839615
 20
39.6470775096
 10
149.3288050984
 20
41.1270589925
 10
149.090192405
 20
42.6061928808
 10
148.8284524396
 20
44.0824178949
 10
148.5434573575
 20
45.5536591347
 10
148.2661776047
 20
46.8762308452
  0
ARC
  5
387
100
AcDbEntity
  8
0
100
AcDbCircle
 62
7
  6
CONTINUOUS
 10
92.7120470251
 20
153.8314637294
 40
30.0
100
AcDbArc
 50
197.3710680097
 51
202.23567252
  0
ARC
  5
388
100
AcDbEntity
  8
0
100
AcDbCircle
 62
7
  6
CONTINUOUS
 10
92.7120470251
 20
153.8314637294
 40
30.0
100
AcDbArc
 50
337.7643478606
 51
342.6289319903
  0
ARC
  5
389
100
AcDbEntity
  8
RUNDUNGEN
100
AcDbCircle
 62
7
  6
CONTINUOUS
 10
92.7120470251
 20
153.8314637294
 40
30.0
100
AcDbArc
 50
342.6289319903
 51
197.3710680097
  0
ARC
  5
38A
100
AcDbEntity
  8
BEZUGSACHSEN
100
AcDbCircle
 62
7
  6
CONTINUOUS
 10
37.2120470251
 20
97.8314637294
 40
22.5
100
AcDbArc
 50
0.0145281948
 51
50.6479733469
  0
ARC
  5
38B
100
AcDbEntity
  8
BEZUGSACHSEN
100
AcDbCircle
 62
7
  6
CONTINUOUS
 10
148.2120470251
 20
97.8314637294
 40
22.5
100
AcDbArc
 50
129.3520266531
 51
179.9854711522
  0
ARC
  5
38C
100
AcDbEntity
  8
RUNDUNGEN
100
AcDbCircle
 62
7
  6
CONTINUOUS
 10
129.581253114
 20
190.5729765434
 40
5.0
100
AcDbArc
 50
22.5
 51
69.0
  0
ARC
  5
38D
100
AcDbEntity
  8
RUNDUNGEN
100
AcDbCircle
 62
7
  6
CONTINUOUS
 10
92.7120470251
 20
204.7257387612
 40
5.0
100
AcDbArc
 50
69.0
 51
111.0
  0
ARC
  5
38E
100
AcDbEntity
  8
BEZUGSACHSEN
100
AcDbCircle
 62
7
  6
CONTINUOUS
 10
55.8428409362
 20
190.5729765434
 40
5.0
100
AcDbArc
 50
111.0
 51
157.5
  0
ARC
  5
38F
100
AcDbEntity
  8
RUNDUNGEN
100
AcDbCircle
 62
7
  6
CONTINUOUS
 10
55.8428409362
 20
190.5729765434
 40
5.0
100
AcDbArc
 50
111.0
 51
157.5
  0
ARC
  5
390
100
AcDbEntity
  8
BEZUGSACHSEN
100
AcDbCircle
 62
7
  6
CONTINUOUS
 10
44.7120470251
 20
133.8314637294
 40
2.0
100
AcDbArc
 50
164.5928236024
 51
180.0
  0
ARC
  5
391
100
AcDbEntity
  8
BEZUGSACHSEN
100
AcDbCircle
 62
7
  6
CONTINUOUS
 10
140.7120470251
 20
133.8314637294
 40
2.0
100
AcDbArc
 50
0.0
 51
15.4071763976
  0
ARC
  5
392
100
AcDbEntity
  8
BEZUGSACHSEN
100
AcDbCircle
 62
7
  6
CONTINUOUS
 10
140.7120470251
 20
121.8314637294
 40
2.0
100
AcDbArc
 50
270.0
 51
360.0
  0
ARC
  5
393
100
AcDbEntity
  8
RUNDUNGEN
100
AcDbCircle
 62
7
  6
CONTINUOUS
 10
44.7120470251
 20
133.8314637294
 40
2.0
100
AcDbArc
 50
164.5928236024
 51
180.0
  0
ARC
  5
394
100
AcDbEntity
  8
RUNDUNGEN
100
AcDbCircle
 62
7
  6
CONTINUOUS
 10
140.7120470251
 20
133.8314637294
 40
2.0
100
AcDbArc
 50
0.0
 51
15.4071763976
  0
ARC
  5
395
100
AcDbEntity
  8
BEZUGSACHSEN
100
AcDbCircle
 62
7
  6
CONTINUOUS
 10
44.7120470251
 20
121.8314637294
 40
2.0
100
AcDbArc
 50
180.0
 51
270.0
  0
ARC
  5
396
100
AcDbEntity
  8
0
100
AcDbCircle
 62
7
  6
CONTINUOUS
 10
190.5741100387
 20
121.6422546576
 40
75.4562978222
100
AcDbArc
 50
347.2307767666
 51
347.6734359507
  0
ARC
  5
397
100
AcDbEntity
  8
0
100
AcDbCircle
 62
7
  6
CONTINUOUS
 10
203.4759788833
 20
118.0751550831
 40
14.7703833078
100
AcDbArc
 50
243.1658375691
 51
245.0561791281
  0
ARC
  5
398
100
AcDbEntity
  8
0
100
AcDbCircle
 62
7
  6
CONTINUOUS
 10
202.3249266028
 20
117.5140558078
 40
14.7178088429
100
AcDbArc
 50
246.2349906931
 51
248.3822354118
  0
ARC
  5
399
100
AcDbEntity
  8
0
100
AcDbCircle
 62
7
  6
CONTINUOUS
 10
202.914794185
 20
117.8525916667
 40
14.5638647559
100
AcDbArc
 50
242.8340881177
 51
244.7288119973
  0
ARC
  5
39A
100
AcDbEntity
  8
0
100
AcDbCircle
 62
7
  6
CONTINUOUS
 10
204.7518719386
 20
114.5159227858
 40
13.3982425532
100
AcDbArc
 50
229.9685948611
 51
231.4047452953
  0
ARC
  5
39B
100
AcDbEntity
  8
BEZUGSACHSEN
100
AcDbCircle
 62
7
  6
CONTINUOUS
 10
196.7876569919
 20
118.8515260288
 40
5.0
100
AcDbArc
 50
110.0
 51
191.9999454094
  0
ARC
  5
39C
100
AcDbEntity
  8
0
100
AcDbCircle
 62
7
  6
CONTINUOUS
 10
197.1328022737
 20
111.4869185419
 40
4.3569883798
100
AcDbArc
 50
212.426711702
 51
215.8067784741
  0
ARC
  5
39D
100
AcDbEntity
  8
0
100
AcDbCircle
 62
7
  6
CONTINUOUS
 10
197.23872037
 20
106.4605736747
 40
3.3733436198
100
AcDbArc
 50
203.6370633495
 51
207.646456646
  0
ARC
  5
39E
100
AcDbEntity
  8
0
100
AcDbCircle
 62
7
  6
CONTINUOUS
 10
197.0969449218
 20
104.2827573581
 40
2.7949291387
100
AcDbArc
 50
162.8253406278
 51
167.3403097262
  0
ARC
  5
39F
100
AcDbEntity
  8
0
100
AcDbCircle
 62
7
  6
CONTINUOUS
 10
195.9708076952
 20
108.9332139327
 40
2.6388933907
100
AcDbArc
 50
175.2744735619
 51
179.8994131821
  0
ARC
  5
3A0
100
AcDbEntity
  8
0
100
AcDbCircle
 62
7
  6
CONTINUOUS
 10
194.8152784612
 20
109.9540525974
 40
1.7215540068
100
AcDbArc
 50
171.3004707093
 51
178.4148109825
  0
ARC
  5
3A1
100
AcDbEntity
  8
0
100
AcDbCircle
 62
7
  6
CONTINUOUS
 10
96.8629995317
 20
141.7879497725
 40
171.3081360142
100
AcDbArc
 50
347.7819655583
 51
348.0003092056
  0
ARC
  5
3A2
100
AcDbEntity
  8
0
100
AcDbCircle
 62
7
  6
CONTINUOUS
 10
136.0687083224
 20
135.3191134695
 40
131.6115161664
100
AcDbArc
 50
345.5848111341
 51
346.6280760509
  0
ARC
  5
3A3
100
AcDbEntity
  8
0
100
AcDbCircle
 62
7
  6
CONTINUOUS
 10
139.8210412807
 20
136.2584487693
 40
127.6328407129
100
AcDbArc
 50
345.2648138039
 51
345.7750504925
  0
ARC
  5
3A4
100
AcDbEntity
  8
0
100
AcDbCircle
 62
7
  6
CONTINUOUS
 10
140.5742943976
 20
136.114769495
 40
127.3643093768
100
AcDbArc
 50
344.7341182568
 51
345.811104028
  0
ARC
  5
3A5
100
AcDbEntity
  8
0
100
AcDbCircle
 62
7
  6
CONTINUOUS
 10
143.9431053985
 20
135.1732890892
 40
123.3703317035
100
AcDbArc
 50
344.6690307337
 51
345.2652855521
  0
ARC
  5
3A6
100
AcDbEntity
  8
BEZUGSACHSEN
100
AcDbCircle
 62
7
  6
CONTINUOUS
 10
201.1438513746
 20
142.7847843408
 40
16.0
100
AcDbArc
 50
289.999204136
 51
0.0004487486
  0
ARC
  5
3A7
100
AcDbEntity
  8
0
100
AcDbCircle
 62
7
  6
CONTINUOUS
 10
302.7139894164
 20
118.4243709538
 40
109.0552553232
100
AcDbArc
 50
186.4508660003
 51
186.7884680956
  0
ARC
  5
3A8
100
AcDbEntity
  8
0
100
AcDbCircle
 62
7
  6
CONTINUOUS
 10
278.1810176106
 20
112.5639451109
 40
83.8442266276
100
AcDbArc
 50
184.8099091805
 51
185.3938078444
  0
ARC
  5
3A9
100
AcDbEntity
  8
0
100
AcDbCircle
 62
7
  6
CONTINUOUS
 10
277.6253608799
 20
112.3275416858
 40
82.752452155
100
AcDbArc
 50
184.7092660115
 51
185.3007798583
  0
ARC
  5
3AA
100
AcDbEntity
  8
0
100
AcDbCircle
 62
7
  6
CONTINUOUS
 10
267.600384274
 20
121.6171723017
 40
75.3403445489
100
AcDbArc
 50
192.3263085174
 51
192.879793724
  0
ARC
  5
3AB
100
AcDbEntity
  8
0
100
AcDbCircle
 62
7
  6
CONTINUOUS
 10
217.9243283473
 20
112.418922861
 40
24.8375626765
100
AcDbArc
 50
188.0567399663
 51
189.5467664052
  0
ARC
  5
3AC
100
AcDbEntity
  8
0
100
AcDbCircle
 62
7
  6
CONTINUOUS
 10
215.6628557059
 20
119.424414719
 40
24.2354503799
100
AcDbArc
 50
215.5871408172
 51
216.8340036504
  0
ARC
  5
3AD
100
AcDbEntity
  8
0
100
AcDbCircle
 62
7
  6
CONTINUOUS
 10
215.9428968193
 20
119.3979289916
 40
24.0094178429
100
AcDbArc
 50
215.8960072729
 51
217.1597527739
  0
ARC
  5
3AE
100
AcDbEntity
  8
0
100
AcDbCircle
 62
7
  6
CONTINUOUS
 10
215.3159885691
 20
117.9107395844
 40
23.5451166901
100
AcDbArc
 50
214.182034799
 51
215.4433027368
  0
ARC
  5
3AF
100
AcDbEntity
  8
0
100
AcDbCircle
 62
7
  6
CONTINUOUS
 10
213.2884395399
 20
116.9130507362
 40
21.2430170394
100
AcDbArc
 50
202.0507119766
 51
203.2945850811
  0
ARC
  5
3B0
100
AcDbEntity
  8
0
100
AcDbCircle
 62
7
  6
CONTINUOUS
 10
212.8210496996
 20
110.6544227998
 40
19.4789740784
100
AcDbArc
 50
195.2416259718
 51
196.5430630599
  0
ARC
  5
3B1
100
AcDbEntity
  8
0
100
AcDbCircle
 62
7
  6
CONTINUOUS
 10
213.1416258289
 20
105.46855202
 40
18.7184531365
100
AcDbArc
 50
179.8009191396
 51
181.1035088456
  0
ARC
  5
3B2
100
AcDbEntity
  8
0
100
AcDbCircle
 62
7
  6
CONTINUOUS
 10
210.0238458433
 20
117.1967981571
 40
18.1171451649
100
AcDbArc
 50
203.3997788221
 51
205.6184447852
  0
ARC
  5
3B3
100
AcDbEntity
  8
0
100
AcDbCircle
 62
7
  6
CONTINUOUS
 10
210.3902847623
 20
117.1844767291
 40
17.9751885262
100
AcDbArc
 50
204.4485913827
 51
205.7919887102
  0
ARC
  5
3B4
100
AcDbEntity
  8
0
100
AcDbCircle
 62
7
  6
CONTINUOUS
 10
210.2336236642
 20
117.1126026558
 40
17.8028277724
100
AcDbArc
 50
203.9191579047
 51
204.446689416
  0
ARC
  5
3B5
100
AcDbEntity
  8
0
100
AcDbCircle
 62
7
  6
CONTINUOUS
 10
210.1682614156
 20
117.0835762467
 40
17.7313102578
100
AcDbArc
 50
203.5407263081
 51
203.9190524632
  0
ARC
  5
3B6
100
AcDbEntity
  8
0
100
AcDbCircle
 62
7
  6
CONTINUOUS
 10
208.8741821638
 20
112.0997140756
 40
15.9186624639
100
AcDbArc
 50
187.5734673563
 51
189.8980058257
  0
ARC
  5
3B7
100
AcDbEntity
  8
0
100
AcDbCircle
 62
7
  6
CONTINUOUS
 10
209.338902783
 20
108.5122856952
 40
15.6274849649
100
AcDbArc
 50
194.1857074288
 51
196.6132581755
  0
ARC
  5
3B8
100
AcDbEntity
  8
0
100
AcDbCircle
 62
7
  6
CONTINUOUS
 10
248.9487999662
 20
108.5122856952
 40
15.6274849649
100
AcDbArc
 50
343.3867418245
 51
345.8142925712
  0
ARC
  5
3B9
100
AcDbEntity
  8
0
100
AcDbCircle
 62
7
  6
CONTINUOUS
 10
209.5974140458
 20
103.8358417641
 40
14.9134256871
100
AcDbArc
 50
176.7453742344
 51
179.1993699563
  0
ARC
  5
3BA
100
AcDbEntity
  8
0
100
AcDbCircle
 62
7
  6
CONTINUOUS
 10
209.9088782776
 20
103.7912870297
 40
14.7090992428
100
AcDbArc
 50
176.5262579668
 51
179.014673811
  0
ARC
  5
3BB
100
AcDbEntity
  8
RUNDUNGEN
100
AcDbCircle
 62
7
  6
CONTINUOUS
 10
261.5000457573
 20
118.8515260288
 40
5.0
100
AcDbArc
 50
348.0000545906
 51
70.0
  0
ARC
  5
3BC
100
AcDbEntity
  8
0
100
AcDbCircle
 62
7
  6
CONTINUOUS
 10
261.9755816382
 20
104.957590235
 40
2.1518179197
100
AcDbArc
 50
333.2077820104
 51
334.8835143715
  0
ARC
  5
3BD
100
AcDbEntity
  8
0
100
AcDbCircle
 62
7
  6
CONTINUOUS
 10
320.3284058983
 20
134.8424486738
 40
129.6617848678
100
AcDbArc
 50
193.8552872863
 51
194.4191647914
  0
ARC
  5
3BE
100
AcDbEntity
  8
0
100
AcDbCircle
 62
7
  6
CONTINUOUS
 10
301.6777125789
 20
144.9234519753
 40
113.2313957192
100
AcDbArc
 50
200.3571197105
 51
200.8171420618
  0
ARC
  5
3BF
100
AcDbEntity
  8
0
100
AcDbCircle
 62
7
  6
CONTINUOUS
 10
276.6837605714
 20
134.362867857
 40
86.8433640055
100
AcDbArc
 50
197.317634734
 51
197.759289521
  0
ARC
  5
3C0
100
AcDbEntity
  8
0
100
AcDbCircle
 62
7
  6
CONTINUOUS
 10
260.2278428266
 20
131.6880797987
 40
70.1853126238
100
AcDbArc
 50
198.5469862797
 51
199.2814121917
  0
ARC
  5
3C1
100
AcDbEntity
  8
0
100
AcDbCircle
 62
7
  6
CONTINUOUS
 10
259.7025123736
 20
131.4537637654
 40
69.1216722829
100
AcDbArc
 50
198.6379479016
 51
199.384108433
  0
ARC
  5
3C2
100
AcDbEntity
  8
0
100
AcDbCircle
 62
7
  6
CONTINUOUS
 10
218.7065918792
 20
131.4056584938
 40
49.8569932501
100
AcDbArc
 50
332.1139103078
 51
337.2548892928
  0
ARC
  5
3C3
100
AcDbEntity
  8
RUNDUNGEN
100
AcDbCircle
 62
7
  6
CONTINUOUS
 10
257.1438513746
 20
142.7847843408
 40
16.0
100
AcDbArc
 50
179.9995512514
 51
250.000795864
  0
ARC
  5
3C4
100
AcDbEntity
  8
BEZUGSACHSEN
100
AcDbCircle
 62
7
  6
CONTINUOUS
 10
229.1438513746
 20
127.8314637294
 40
8.0
100
AcDbArc
 50
164.2301399683
 51
15.7698600317
  0
ARC
  5
3C5
100
AcDbEntity
  8
BEZUGSACHSEN
100
AcDbCircle
 62
7
  6
CONTINUOUS
 10
222.1438513746
 20
204.7257387612
 40
5.0
100
AcDbArc
 50
90.0
 51
180.0
  0
ARC
  5
3C6
100
AcDbEntity
  8
RUNDUNGEN
100
AcDbCircle
 62
7
  6
CONTINUOUS
 10
236.1438513746
 20
204.7257387612
 40
5.0
100
AcDbArc
 50
0.0
 51
90.0
  0
ARC
  5
3C7
100
AcDbEntity
  8
0
100
AcDbCircle
 62
7
  6
CONTINUOUS
 10
361.4247032185
 20
141.7879497728
 40
171.3081360152
100
AcDbArc
 50
191.9996907945
 51
192.2180344417
  0
ARC
  5
3C8
100
AcDbEntity
  8
0
100
AcDbCircle
 62
7
  6
CONTINUOUS
 10
354.5012077726
 20
142.8816358406
 40
164.7627772057
100
AcDbArc
 50
192.7978727911
 51
193.1015515647
  0
ARC
  5
3C9
100
AcDbEntity
  8
0
100
AcDbCircle
 62
7
  6
CONTINUOUS
 10
570.7059389246
 20
160.8966918154
 40
380.1271313188
100
AcDbArc
 50
188.2125093719
 51
188.3745529398
  0
ARC
  5
3CA
100
AcDbEntity
  8
0
100
AcDbCircle
 62
7
  6
CONTINUOUS
 10
567.9182723701
 20
160.0914524483
 40
376.7373781374
100
AcDbArc
 50
188.1631829924
 51
188.3266644154
  0
ARC
  5
3CB
100
AcDbEntity
  8
0
100
AcDbCircle
 62
7
  6
CONTINUOUS
 10
461.6709746628
 20
179.8605283001
 40
277.2023785395
100
AcDbArc
 50
195.0516313109
 51
195.1882940811
  0
ARC
  5
3CC
100
AcDbEntity
  8
0
100
AcDbCircle
 62
7
  6
CONTINUOUS
 10
382.8806117392
 20
163.058259984
 40
196.6187798964
100
AcDbArc
 50
196.1062712669
 51
196.4292068155
  0
ARC
  5
3CD
100
AcDbEntity
  8
0
100
AcDbCircle
 62
7
  6
CONTINUOUS
 10
380.1743971267
 20
168.0838500317
 40
194.6186420184
100
AcDbArc
 50
198.6153141904
 51
198.8137192379
  0
ARC
  5
3CE
100
AcDbEntity
  8
0
100
AcDbCircle
 62
7
  6
CONTINUOUS
 10
379.9395557982
 20
162.2733474316
 40
193.076257415
100
AcDbArc
 50
196.1673928149
 51
196.4963611992
  0
ARC
  5
3CF
100
AcDbEntity
  8
0
100
AcDbCircle
 62
7
  6
CONTINUOUS
 10
376.1922005303
 20
166.9591119673
 40
189.9762555886
100
AcDbArc
 50
198.7290195486
 51
198.9324131159
  0
ARC
  5
3D0
100
AcDbEntity
  8
0
100
AcDbCircle
 62
7
  6
CONTINUOUS
 10
92.7120470251
 20
38.8143777028
 40
28.25
100
AcDbArc
 50
205.1310455071
 51
334.8689808214
  0
ARC
  5
3D1
100
AcDbEntity
  8
0
100
AcDbCircle
 62
7
  6
CONTINUOUS
 10
92.7120470251
 20
38.8143777028
 40
28.25
100
AcDbArc
 50
25.131047169
 51
154.8689816929
  0
ARC
  5
3D2
100
AcDbEntity
  8
0
100
AcDbCircle
 62
7
  6
CONTINUOUS
 10
92.7120470251
 20
38.8143777028
 40
26.5
100
AcDbArc
 50
26.9503596547
 51
153.0496403453
  0
ARC
  5
3D3
100
AcDbEntity
  8
0
100
AcDbCircle
 62
7
  6
CONTINUOUS
 10
92.7120470251
 20
38.8143777028
 40
26.5
100
AcDbArc
 50
206.9503596547
 51
333.0496403453
  0
ARC
  5
3D4
100
AcDbEntity
  8
FASEN
100
AcDbCircle
 62
7
  6
CONTINUOUS
 10
92.7120470251
 20
38.8143777028
 40
15.75
100
AcDbArc
 50
49.6504453208
 51
130.3495535673
  0
ARC
  5
3D5
100
AcDbEntity
  8
FASEN
100
AcDbCircle
 62
7
  6
CONTINUOUS
 10
92.7120470251
 20
38.8143777028
 40
15.75
100
AcDbArc
 50
229.6504453208
 51
310.3495535673
  0
ARC
  5
3D6
100
AcDbEntity
  8
0
100
AcDbCircle
 62
2
  6
CONTINUOUS
 10
92.7120470251
 20
38.8143777028
 40
15.0
100
AcDbArc
 50
255.0
 51
303.5549596728
  0
ARC
  5
3D7
100
AcDbEntity
  8
0
100
AcDbCircle
 62
2
  6
CONTINUOUS
 10
92.7120470251
 20
38.8143777028
 40
15.0
100
AcDbArc
 50
305.9351879313
 51
306.8595879892
  0
ARC
  5
3D8
100
AcDbEntity
  8
0
100
AcDbCircle
 62
2
  6
CONTINUOUS
 10
92.7120470251
 20
38.8143777028
 40
15.0
100
AcDbArc
 50
53.1382793073
 51
126.8617206927
  0
ARC
  5
3D9
100
AcDbEntity
  8
FASEN
100
AcDbCircle
 62
7
  6
CONTINUOUS
 10
92.7120470251
 20
38.8143777028
 40
13.25
100
AcDbArc
 50
250.7059701175
 51
289.2940317226
  0
ARC
  5
3DA
100
AcDbEntity
  8
FASEN
100
AcDbCircle
 62
7
  6
CONTINUOUS
 10
92.7120470251
 20
38.8143777028
 40
13.25
100
AcDbArc
 50
64.9195727962
 51
115.0804256801
  0
ARC
  5
3DB
100
AcDbEntity
  8
BEZUGSACHSEN
100
AcDbCircle
 62
7
  6
CONTINUOUS
 10
143.3802112254
 20
45.8143520672
 40
5.0000256357
100
AcDbArc
 50
12.2615851781
 51
89.9997457503
  0
ARC
  5
3DC
100
AcDbEntity
  8
RUNDUNGEN
100
AcDbCircle
 62
7
  6
CONTINUOUS
 10
42.0438862354
 20
31.8144033384
 40
5.0000256356
100
AcDbArc
 50
192.2616226034
 51
269.9996676566
  0
ARC
  5
3DD
100
AcDbEntity
  8
BEZUGSACHSEN
100
AcDbCircle
 62
7
  6
CONTINUOUS
 10
42.0438782966
 20
45.8143656235
 40
5.0000120793
100
AcDbArc
 50
90.0002413167
 51
167.7393833563
  0
ARC
  5
3DE
100
AcDbEntity
  8
RUNDUNGEN
100
AcDbCircle
 62
7
  6
CONTINUOUS
 10
143.3802191649
 20
31.8143897808
 40
5.000012078
100
AcDbArc
 50
270.0001632703
 51
347.7394210106
  0
SPLINE
  5
3DF
100
AcDbEntity
  8
0
100
AcDbSpline
 62
7
  6
CONTINUOUS
 70
0
 71
3
 72
10
 73
6
 74
0
 42
0.0000001
 43
0.0000001
 44
0.0000000001
 40
0.0
 40
0.0
 40
0.0
 40
0.0
 40
0.2319408579
 40
0.4772710425
 40
1.0
 40
1.0
 40
1.0
 40
1.0
 10
109.7580505784
 20
127.7497024082
 30
0.0
 10
108.9878592992
 20
127.5375877823
 30
0.0
 10
107.3909296884
 20
127.1440317705
 30
0.0
 10
104.0106512505
 20
126.4789161539
 30
0.0
 10
101.3829862354
 20
126.1401640815
 30
0.0
 10
99.5900361075
 20
125.9763504707
 30
0.0
  0
SPLINE
  5
3E0
100
AcDbEntity
  8
0
100
AcDbSpline
 62
7
  6
CONTINUOUS
 70
0
 71
3
 72
10
 73
6
 74
0
 42
0.0000001
 43
0.0000001
 44
0.0000000001
 40
0.0
 40
0.0
 40
0.0
 40
0.0
 40
0.5227289543
 40
0.7680591387
 40
1.0
 40
1.0
 40
1.0
 40
1.0
 10
85.83405506
 20
125.9763507352
 30
0.0
 10
84.0411054527
 20
126.1401643782
 30
0.0
 10
81.4134411967
 20
126.4789164299
 30
0.0
 10
78.0331637181
 20
127.1440319234
 30
0.0
 10
76.4362345466
 20
127.5375878386
 30
0.0
 10
75.6660434718
 20
127.7497024082
 30
0.0
  0
SPLINE
  5
3E1
100
AcDbEntity
  8
0
100
AcDbSpline
 62
7
  6
CONTINUOUS
 70
0
 71
3
 72
11
 73
7
 74
0
 42
0.0000001
 43
0.0000001
 44
0.0000000001
 40
0.0
 40
0.0
 40
0.0
 40
0.0
 40
0.244997487
 40
0.4906444724
 40
0.7413171331
 40
1.0
 40
1.0
 40
1.0
 40
1.0
 10
114.5907940337
 20
130.3989267647
 30
0.0
 10
114.2692604548
 20
130.0770158682
 30
0.0
 10
113.5744889139
 20
129.4809807433
 30
0.0
 10
112.403504625
 20
128.7485605999
 30
0.0
 10
111.1229551271
 20
128.1689206073
 30
0.0
 10
110.2212059805
 20
127.8772577799
 30
0.0
 10
109.7580505784
 20
127.7497024082
 30
0.0
  0
SPLINE
  5
3E2
100
AcDbEntity
  8
0
100
AcDbSpline
 62
7
  6
CONTINUOUS
 70
0
 71
3
 72
11
 73
7
 74
0
 42
0.0000001
 43
0.0000001
 44
0.0000000001
 40
0.0
 40
0.0
 40
0.0
 40
0.0
 40
0.2586828632
 40
0.5093554245
 40
0.7550023763
 40
1.0
 40
1.0
 40
1.0
 40
1.0
 10
75.6660434718
 20
127.7497024082
 30
0.0
 10
75.2028829093
 20
127.8772592011
 30
0.0
 10
74.3011239756
 20
128.1689256666
 30
0.0
 10
73.0205615376
 20
128.748574685
 30
0.0
 10
71.8495668542
 20
129.4810075952
 30
0.0
 10
71.1547912813
 20
130.0770541431
 30
0.0
 10
70.8332560778
 20
130.3989709497
 30
0.0
  0
SPLINE
  5
3E3
100
AcDbEntity
  8
BEZUGSACHSEN
100
AcDbSpline
 62
7
  6
CONTINUOUS
 70
0
 71
3
 72
11
 73
7
 74
0
 42
0.0000001
 43
0.0000001
 44
0.0000000001
 40
0.0
 40
0.0
 40
0.0
 40
0.0
 40
0.250024137
 40
0.5000349003
 40
0.7500276513
 40
1.0
 40
1.0
 40
1.0
 40
1.0
 10
149.2313035366
 20
156.1991879607
 30
0.0
 10
149.366496478
 20
155.8728012071
 30
0.0
 10
149.5759146022
 20
155.192805542
 30
0.0
 10
149.6903215166
 20
154.1327955596
 30
0.0
 10
149.5966861699
 20
153.0705022992
 30
0.0
 10
149.3929359981
 20
152.3879576814
 30
0.0
 10
149.257384661
 20
152.0617988521
 30
0.0
  0
SPLINE
  5
3E4
100
AcDbEntity
  8
BEZUGSACHSEN
100
AcDbSpline
 62
7
  6
CONTINUOUS
 70
0
 71
3
 72
11
 73
7
 74
0
 42
0.0000001
 43
0.0000001
 44
0.0000000001
 40
0.0
 40
0.0
 40
0.0
 40
0.0
 40
0.2499733938
 40
0.4999668059
 40
0.7499767993
 40
1.0
 40
1.0
 40
1.0
 40
1.0
 10
36.1666736893
 20
152.0617821842
 30
0.0
 10
36.031122013
 20
152.3879436891
 30
0.0
 10
35.82738463
 20
153.0704977142
 30
0.0
 10
35.7337614767
 20
154.132795984
 30
0.0
 10
35.8481784864
 20
155.1928066217
 30
0.0
 10
36.0575977598
 20
155.8728013455
 30
0.0
 10
36.1927905141
 20
156.1991879616
 30
0.0
  0
SPLINE
  5
3E5
100
AcDbEntity
  8
0
100
AcDbSpline
 62
7
  6
CONTINUOUS
 70
0
 71
3
 72
16
 73
12
 74
0
 42
0.0000001
 43
0.0000001
 44
0.0000000001
 40
0.0
 40
0.0
 40
0.0
 40
0.0
 40
0.0441847849
 40
0.0966114411
 40
0.154057905
 40
0.214657204
 40
0.341281078
 40
0.4716155352
 40
0.6035022725
 40
0.735870524
 40
1.0
 40
1.0
 40
1.0
 40
1.0
 10
120.4811018824
 20
142.478953128
 30
0.0
 10
120.44033579
 20
142.37923628
 30
0.0
 10
120.3650315247
 20
142.155716384
 30
0.0
 10
120.2588304338
 20
141.7954923546
 30
0.0
 10
120.1485539118
 20
141.3947164895
 30
0.0
 10
119.9937447201
 20
140.8186323165
 30
0.0
 10
119.7920188141
 20
140.0711111174
 30
0.0
 10
119.5305941244
 20
139.1597580738
 30
0.0
 10
119.2437643292
 20
138.2413091745
 30
0.0
 10
118.8241892447
 20
137.0231938041
 30
0.0
 10
118.4632576389
 20
136.1250715536
 30
0.0
 10
118.1980345392
 20
135.5382430638
 30
0.0
  0
SPLINE
  5
3E6
100
AcDbEntity
  8
0
100
AcDbSpline
 62
7
  6
CONTINUOUS
 70
0
 71
3
 72
9
 73
5
 74
0
 42
0.0000001
 43
0.0000001
 44
0.0000000001
 40
0.0
 40
0.0
 40
0.0
 40
0.0
 40
0.5044840234
 40
1.0
 40
1.0
 40
1.0
 40
1.0
 10
118.1980345392
 20
135.5382430638
 30
0.0
 10
118.0353782715
 20
135.1783625158
 30
0.0
 10
117.6827672368
 20
134.4782710287
 30
0.0
 10
117.2755497426
 20
133.808734477
 30
0.0
 10
117.0623874377
 20
133.4846405132
 30
0.0
  0
SPLINE
  5
3E7
100
AcDbEntity
  8
0
100
AcDbSpline
 62
7
  6
CONTINUOUS
 70
0
 71
3
 72
9
 73
5
 74
0
 42
0.0000001
 43
0.0000001
 44
0.0000000001
 40
0.0
 40
0.0
 40
0.0
 40
0.0
 40
0.2468793861
 40
1.0
 40
1.0
 40
1.0
 40
1.0
 10
117.0623874377
 20
133.4846405132
 30
0.0
 10
116.8834624384
 20
133.2126089402
 30
0.0
 10
116.1373878044
 20
132.1253420179
 30
0.0
 10
115.2930308998
 20
131.1019613813
 30
0.0
 10
114.5911002173
 20
130.3992069876
 30
0.0
  0
SPLINE
  5
3E8
100
AcDbEntity
  8
0
100
AcDbSpline
 62
7
  6
CONTINUOUS
 70
0
 71
3
 72
11
 73
7
 74
0
 42
0.0000001
 43
0.0000001
 44
0.0000000001
 40
0.0
 40
0.0
 40
0.0
 40
0.0
 40
0.2481169878
 40
0.5000000162
 40
0.7518830522
 40
1.0
 40
1.0
 40
1.0
 40
1.0
 10
99.5900921488
 20
125.9763565809
 30
0.0
 10
98.4553274896
 20
125.872678351
 30
0.0
 10
96.1654015743
 20
125.69466835
 30
0.0
 10
92.7120451815
 20
125.5903950512
 30
0.0
 10
89.2586889825
 20
125.6946685867
 30
0.0
 10
86.9687632191
 20
125.8726786116
 30
0.0
 10
85.8339987476
 20
125.9763568749
 30
0.0
  0
SPLINE
  5
3E9
100
AcDbEntity
  8
0
100
AcDbSpline
 62
7
  6
CONTINUOUS
 70
0
 71
3
 72
9
 73
5
 74
0
 42
0.0000001
 43
0.0000001
 44
0.0000000001
 40
0.0
 40
0.0
 40
0.0
 40
0.0
 40
0.2531376179
 40
1.0
 40
1.0
 40
1.0
 40
1.0
 10
70.8329552649
 20
130.3992462568
 30
0.0
 10
70.5969892058
 20
130.6354923642
 30
0.0
 10
69.6950033646
 20
131.5989157159
 30
0.0
 10
68.9030762337
 20
132.6615627489
 30
0.0
 10
68.3617063234
 20
133.4846399401
 30
0.0
  0
SPLINE
  5
3EA
100
AcDbEntity
  8
0
100
AcDbSpline
 62
7
  6
CONTINUOUS
 70
0
 71
3
 72
9
 73
5
 74
0
 42
0.0000001
 43
0.0000001
 44
0.0000000001
 40
0.0
 40
0.0
 40
0.0
 40
0.0
 40
0.4955160177
 40
1.0
 40
1.0
 40
1.0
 40
1.0
 10
68.3617063234
 20
133.4846399401
 30
0.0
 10
68.1485403838
 20
133.8087390144
 30
0.0
 10
67.7413178639
 20
134.4782873212
 30
0.0
 10
67.3887023692
 20
135.1783906126
 30
0.0
 10
67.2260438307
 20
135.5382770648
 30
0.0
  0
SPLINE
  5
3EB
100
AcDbEntity
  8
0
100
AcDbSpline
 62
7
  6
CONTINUOUS
 70
0
 71
3
 72
16
 73
12
 74
0
 42
0.0000001
 43
0.0000001
 44
0.0000000001
 40
0.0
 40
0.0
 40
0.0
 40
0.0
 40
0.2641293901
 40
0.3964974973
 40
0.5283837087
 40
0.6587184406
 40
0.7853414636
 40
0.8459408359
 40
0.903388535
 40
0.9558150176
 40
1.0
 40
1.0
 40
1.0
 40
1.0
 10
67.2260438307
 20
135.5382770648
 30
0.0
 10
66.960819807
 20
136.1251009009
 30
0.0
 10
66.5998957818
 20
137.023219903
 30
0.0
 10
66.1803241262
 20
138.2413266111
 30
0.0
 10
65.8934920602
 20
139.1597681382
 30
0.0
 10
65.632074995
 20
140.0711149793
 30
0.0
 10
65.4303460687
 20
140.8186295273
 30
0.0
 10
65.2755364502
 20
141.3947112181
 30
0.0
 10
65.1652674202
 20
141.7954895966
 30
0.0
 10
65.0590624721
 20
142.155713514
 30
0.0
 10
64.9837583317
 20
142.3792320535
 30
0.0
 10
64.9429922527
 20
142.4789487676
 30
0.0
  0
SPLINE
  5
3EC
100
AcDbEntity
  8
BEZUGSACHSEN
100
AcDbSpline
 62
7
  6
CONTINUOUS
 70
0
 71
3
 72
9
 73
5
 74
0
 42
0.0000001
 43
0.0000001
 44
0.0000000001
 40
0.0
 40
0.0
 40
0.0
 40
0.0
 40
0.4999152858
 40
1.0
 40
1.0
 40
1.0
 40
1.0
 10
142.7609607033
 20
136.4352889122
 30
0.0
 10
142.6263997858
 20
136.1113996453
 30
0.0
 10
142.4683989459
 20
135.4121696002
 30
0.0
 10
142.5469588938
 20
134.701056645
 30
0.0
 10
142.6401711467
 20
134.3628174278
 30
0.0
  0
SPLINE
  5
3ED
100
AcDbEntity
  8
BEZUGSACHSEN
100
AcDbSpline
 62
7
  6
CONTINUOUS
 70
0
 71
3
 72
11
 73
7
 74
0
 42
0.0000001
 43
0.0000001
 44
0.0000000001
 40
0.0
 40
0.0
 40
0.0
 40
0.0
 40
0.2500220573
 40
0.5000231539
 40
0.7500130952
 40
1.0
 40
1.0
 40
1.0
 40
1.0
 10
137.8802347277
 20
119.8314637856
 30
0.0
 10
137.5853975589
 20
119.8314638936
 30
0.0
 10
136.9921776438
 20
119.7450511715
 30
0.0
 10
136.1797298681
 20
119.3654228028
 30
0.0
 10
135.5117355011
 20
118.7668555178
 30
0.0
 10
135.2019913284
 20
118.2531005087
 30
0.0
 10
135.0888410039
 20
117.9808845689
 30
0.0
  0
SPLINE
  5
3EE
100
AcDbEntity
  8
BEZUGSACHSEN
100
AcDbSpline
 62
7
  6
CONTINUOUS
 70
0
 71
3
 72
9
 73
5
 74
0
 42
0.0000001
 43
0.0000001
 44
0.0000000001
 40
0.0
 40
0.0
 40
0.0
 40
0.0
 40
0.500085647
 40
1.0
 40
1.0
 40
1.0
 40
1.0
 10
42.7839228005
 20
134.3628174563
 30
0.0
 10
42.8771351208
 20
134.7010573425
 30
0.0
 10
42.9556958672
 20
135.4121706639
 30
0.0
 10
42.7976926258
 20
136.1113996763
 30
0.0
 10
42.6631336399
 20
136.4352890462
 30
0.0
  0
SPLINE
  5
3EF
100
AcDbEntity
  8
BEZUGSACHSEN
100
AcDbSpline
 62
7
  6
CONTINUOUS
 70
0
 71
3
 72
11
 73
7
 74
0
 42
0.0000001
 43
0.0000001
 44
0.0000000001
 40
0.0
 40
0.0
 40
0.0
 40
0.0
 40
0.249986385
 40
0.4999766189
 40
0.7499776674
 40
1.0
 40
1.0
 40
1.0
 40
1.0
 10
50.3352525736
 20
117.980884374
 30
0.0
 10
50.2221032936
 20
118.2531000299
 30
0.0
 10
49.9123577961
 20
118.7668539895
 30
0.0
 10
49.2443645204
 20
119.365421363
 30
0.0
 10
48.4319166883
 20
119.7450506511
 30
0.0
 10
47.8386967659
 20
119.83146462
 30
0.0
 10
47.5438593225
 20
119.8314647529
 30
0.0
  0
SPLINE
  5
3F0
100
AcDbEntity
  8
BEZUGSACHSEN
100
AcDbSpline
 62
7
  6
CONTINUOUS
 70
0
 71
3
 72
37
 73
33
 74
0
 42
0.0000001
 43
0.0000001
 44
0.0000000001
 40
0.0
 40
0.0
 40
0.0
 40
0.0
 40
0.0101776039
 40
0.0206175808
 40
0.0314454564
 40
0.0426380591
 40
0.0540113402
 40
0.0654205823
 40
0.0881266658
 40
0.1106471247
 40
0.1329745396
 40
0.1551188526
 40
0.1770879554
 40
0.2205118605
 40
0.2632526859
 40
0.3052910328
 40
0.3465981243
 40
0.3871365291
 40
0.4268626279
 40
0.4657276372
 40
0.5036820211
 40
0.5766667256
 40
0.6454238875
 40
0.7095541377
 40
0.7686678354
 40
0.8223954776
 40
0.8703949873
 40
0.9123642252
 40
0.9480537664
 40
0.9772873833
 40
0.9894578898
 40
1.0
 40
1.0
 40
1.0
 40
1.0
 10
108.0291884329
 20
97.8314637294
 30
0.0
 10
107.9511154697
 20
97.9092852183
 30
0.0
 10
107.8055561097
 20
98.080791505
 30
0.0
 10
107.6505892779
 20
98.3889379754
 30
0.0
 10
107.5940069125
 20
98.7420009218
 30
0.0
 10
107.6456729008
 20
99.1043566
 30
0.0
 10
107.7778221901
 20
99.4499661356
 30
0.0
 10
108.0223164242
 20
99.8791362497
 30
0.0
 10
108.4060670236
 20
100.3613358391
 30
0.0
 10
108.92153282
 20
100.8813700687
 30
0.0
 10
109.4668183787
 20
101.3607413903
 30
0.0
 10
110.0289730612
 20
101.8102684703
 30
0.0
 10
110.7893344252
 20
102.3768755914
 30
0.0
 10
111.7549568887
 20
103.0403467886
 30
0.0
 10
112.9248448523
 20
103.7886084748
 30
0.0
 10
114.0921835311
 20
104.4975289394
 30
0.0
 10
115.2507475688
 20
105.1744779769
 30
0.0
 10
116.3962727144
 20
105.8238445802
 30
0.0
 10
117.5253494851
 20
106.448427028
 30
0.0
 10
118.6351577524
 20
107.0499137176
 30
0.0
 10
120.0671568797
 20
107.8128266387
 30
0.0
 10
121.7926956111
 20
108.7132321928
 30
0.0
 10
123.7773486061
 20
109.729726441
 30
0.0
 10
125.6324193738
 20
110.6695951286
 30
0.0
 10
127.3432596276
 20
111.5339435994
 30
0.0
 10
128.8961487777
 20
112.323495196
 30
0.0
 10
130.2783878656
 20
113.038891649
 30
0.0
 10
131.4786149012
 20
113.6808120165
 30
0.0
 10
132.4866994041
 20
114.2503411066
 30
0.0
 10
133.1982302181
 20
114.6882415473
 30
0.0
 10
133.6611499384
 20
115.008237862
 30
0.0
 10
133.8568800434
 20
115.1575197865
 30
0.0
 10
133.9451730792
 20
115.229920782
 30
0.0
  0
SPLINE
  5
3F1
100
AcDbEntity
  8
BEZUGSACHSEN
100
AcDbSpline
 62
7
  6
CONTINUOUS
 70
0
 71
3
 72
37
 73
33
 74
0
 42
0.0000001
 43
0.0000001
 44
0.0000000001
 40
0.0
 40
0.0
 40
0.0
 40
0.0
 40
0.010542062
 40
0.022712467
 40
0.0519459558
 40
0.087635572
 40
0.1296048256
 40
0.1776041163
 40
0.2313311915
 40
0.2904443335
 40
0.3545741912
 40
0.4233311313
 40
0.4963159924
 40
0.5342705053
 40
0.5731353737
 40
0.6128613102
 40
0.6533995784
 40
0.6947065515
 40
0.7367447603
 40
0.779485385
 40
0.8229088833
 40
0.8448776632
 40
0.8670216705
 40
0.8893489085
 40
0.9118695213
 40
0.9345758077
 40
0.9459848958
 40
0.9573572673
 40
0.9685499867
 40
0.979381009
 40
0.9898231003
 40
1.0
 40
1.0
 40
1.0
 40
1.0
 10
51.478920971
 20
115.229920782
 30
0.0
 10
51.5672135577
 20
115.1575201548
 30
0.0
 10
51.7629419147
 20
115.0082388295
 30
0.0
 10
52.2258589703
 20
114.6882444316
 30
0.0
 10
52.9373878449
 20
114.2503448915
 30
0.0
 10
53.9454713522
 20
113.680816054
 30
0.0
 10
55.1456965791
 20
113.0388967465
 30
0.0
 10
56.5279273027
 20
112.323504023
 30
0.0
 10
58.0808031894
 20
111.5339603795
 30
0.0
 10
59.7916279823
 20
110.6696198909
 30
0.0
 10
61.6466857323
 20
109.729755907
 30
0.0
 10
63.631332775
 20
108.7132634696
 30
0.0
 10
65.3568735502
 20
107.8128624775
 30
0.0
 10
66.7888722467
 20
107.049947191
 30
0.0
 10
67.8986793337
 20
106.4484636544
 30
0.0
 10
69.0277514497
 20
105.8238839997
 30
0.0
 10
70.1732723526
 20
105.1745204362
 30
0.0
 10
71.3318315875
 20
104.4975730331
 30
0.0
 10
72.499168477
 20
103.7886605327
 30
0.0
 10
73.6690508471
 20
103.0404064452
 30
0.0
 10
74.63466678
 20
102.3769444621
 30
0.0
 10
75.395019243
 20
101.810345192
 30
0.0
 10
75.9571725009
 20
101.36083066
 30
0.0
 10
76.5024542563
 20
100.8814615323
 30
0.0
 10
77.0179400839
 20
100.3614448719
 30
0.0
 10
77.4016955756
 20
99.8792464675
 30
0.0
 10
77.6462025933
 20
99.450096484
 30
0.0
 10
77.778375904
 20
99.1045055591
 30
0.0
 10
77.8300508862
 20
98.7421286867
 30
0.0
 10
77.7735202277
 20
98.3889983479
 30
0.0
 10
77.6185467353
 20
98.0807937067
 30
0.0
 10
77.472973138
 20
97.9092797933
 30
0.0
 10
77.3949056174
 20
97.8314637294
 30
0.0
  0
LINE
  5
3F2
100
AcDbEntity
  8
0
100
AcDbLine
 62
7
  6
CONTINUOUS
 10
263.9617467456
 20
106.3846552124
 11
263.9166636727
 21
106.1718898521
  0
LINE
  5
3F3
100
AcDbEntity
  8
0
100
AcDbLine
 62
7
  6
CONTINUOUS
 10
193.9651867196
 20
112.3421022048
 11
194.352329125
 21
110.6399741521
  0
LINE
  5
3F4
100
AcDbEntity
  8
0
100
AcDbLine
 62
7
  6
CONTINUOUS
 10
193.9334597877
 20
110.6399741521
 11
194.1234448586
 21
109.7889104238
  0
SPLINE
  5
3F5
100
AcDbEntity
  8
0
100
AcDbSpline
 62
7
  6
CONTINUOUS
 70
0
 71
3
 72
8
 73
4
 74
0
 42
0.0000001
 43
0.0000001
 44
0.0000000001
 40
0.0
 40
0.0
 40
0.0
 40
0.0
 40
1.0
 40
1.0
 40
1.0
 40
1.0
 10
194.5461835904
 20
109.7889104238
 30
0.0
 10
194.8694766239
 20
108.3702887211
 30
0.0
 10
195.1935383503
 20
106.951841927
 30
0.0
 10
195.518455539
 20
105.5335913351
 30
0.0
  0
LINE
  5
3F6
100
AcDbEntity
  8
0
100
AcDbLine
 62
7
  6
CONTINUOUS
 10
194.2440180335
 20
106.8101870766
 11
194.3492100531
 21
106.1718892804
  0
LINE
  5
3F7
100
AcDbEntity
  8
0
100
AcDbLine
 62
7
  6
CONTINUOUS
 10
193.8147837731
 20
106.3846552124
 11
193.859868779
 21
106.1718898521
  0
LINE
  5
3F8
100
AcDbEntity
  8
0
100
AcDbLine
 62
7
  6
CONTINUOUS
 10
194.1556128664
 20
104.823332073
 11
194.1879543394
 21
104.6825275323
  0
SPLINE
  5
3F9
100
AcDbEntity
  8
0
100
AcDbSpline
 62
7
  6
CONTINUOUS
 70
0
 71
3
 72
9
 73
5
 74
0
 42
0.0000001
 43
0.0000001
 44
0.0000000001
 40
0.0
 40
0.0
 40
0.0
 40
0.0
 40
0.2450668241
 40
1.0
 40
1.0
 40
1.0
 40
1.0
 10
194.3637646609
 20
104.0442296801
 30
0.0
 10
194.3721383763
 20
104.0263625356
 30
0.0
 10
194.4073291023
 20
103.9539366189
 30
0.0
 10
194.4465104506
 20
103.8834649129
 30
0.0
 10
194.477985693
 20
103.8314637294
 30
0.0
  0
LINE
  5
3FA
100
AcDbEntity
  8
0
100
AcDbLine
 62
7
  6
CONTINUOUS
 10
194.4393049119
 20
103.7922842953
 11
194.4324046204
 21
103.8202704176
  0
LINE
  5
3FB
100
AcDbEntity
  8
0
100
AcDbLine
 62
7
  6
CONTINUOUS
 10
194.4324046204
 20
103.8202704176
 11
194.391277124
 21
103.987622554
  0
LINE
  5
3FC
100
AcDbEntity
  8
0
100
AcDbLine
 62
7
  6
CONTINUOUS
 10
194.1462576466
 20
106.8101870766
 11
194.0583159066
 21
107.2155553665
  0
LINE
  5
3FD
100
AcDbEntity
  8
0
100
AcDbLine
 62
7
  6
CONTINUOUS
 10
194.0583159066
 20
107.2155553665
 11
194.0540706422
 21
107.2351253602
  0
LINE
  5
3FE
100
AcDbEntity
  8
0
100
AcDbLine
 62
7
  6
CONTINUOUS
 10
194.0540706422
 20
107.2351253602
 11
193.9183370197
 21
107.8609035469
  0
LINE
  5
3FF
100
AcDbEntity
  8
0
100
AcDbLine
 62
7
  6
CONTINUOUS
 10
193.9183370197
 20
107.8609035469
 11
193.9155734485
 21
107.8736459093
  0
LINE
  5
400
100
AcDbEntity
  8
0
100
AcDbLine
 62
7
  6
CONTINUOUS
 10
193.9155734485
 20
107.8736459093
 11
193.8693498879
 21
108.0867829671
  0
LINE
  5
401
100
AcDbEntity
  8
0
100
AcDbLine
 62
7
  6
CONTINUOUS
 10
264.4439878653
 20
108.2995487461
 11
264.437196756
 21
108.2779732854
  0
LINE
  5
402
100
AcDbEntity
  8
0
100
AcDbLine
 62
7
  6
CONTINUOUS
 10
264.437196756
 20
108.2779732854
 11
264.4100665216
 21
108.1919748088
  0
LINE
  5
403
100
AcDbEntity
  8
0
100
AcDbLine
 62
7
  6
CONTINUOUS
 10
264.4100665216
 20
108.1919748088
 11
264.37641177
 21
108.0857247952
  0
LINE
  5
404
100
AcDbEntity
  8
0
100
AcDbLine
 62
7
  6
CONTINUOUS
 10
264.0141473879
 20
106.6305042449
 11
263.991118484
 21
106.4906588914
  0
LINE
  5
405
100
AcDbEntity
  8
0
100
AcDbLine
 62
7
  6
CONTINUOUS
 10
263.991118484
 20
106.4906588914
 11
263.9733234837
 21
106.3827440067
  0
LINE
  5
406
100
AcDbEntity
  8
0
100
AcDbLine
 62
7
  6
CONTINUOUS
 10
264.4729189761
 20
106.3846552124
 11
264.4278339702
 21
106.1718898521
  0
LINE
  5
407
100
AcDbEntity
  8
0
100
AcDbLine
 62
7
  6
CONTINUOUS
 10
264.164239281
 20
104.964552204
 11
264.1320898828
 21
104.823332073
  0
LINE
  5
408
100
AcDbEntity
  8
0
100
AcDbLine
 62
7
  6
CONTINUOUS
 10
264.1320898828
 20
104.823332073
 11
264.0997484098
 21
104.6825275323
  0
LINE
  5
409
100
AcDbEntity
  8
0
100
AcDbLine
 62
7
  6
CONTINUOUS
 10
264.1121471072
 20
104.881160651
 11
264.1155073755
 21
104.8952935389
  0
SPLINE
  5
40A
100
AcDbEntity
  8
0
100
AcDbSpline
 62
7
  6
CONTINUOUS
 70
0
 71
3
 72
8
 73
4
 74
0
 42
0.0000001
 43
0.0000001
 44
0.0000000001
 40
0.0
 40
0.0
 40
0.0
 40
0.0
 40
1.0
 40
1.0
 40
1.0
 40
1.0
 10
264.0566901406
 20
108.0867829671
 30
0.0
 10
264.4792557427
 20
110.0015232264
 30
0.0
 10
264.9010958114
 20
111.9164237138
 30
0.0
 10
265.3223008528
 20
113.8314637294
 30
0.0
  0
LINE
  5
40B
100
AcDbEntity
  8
0
100
AcDbLine
 62
7
  6
CONTINUOUS
 10
264.1414451026
 20
106.8101870766
 11
264.4183528613
 21
108.0867829671
  0
SPLINE
  5
40C
100
AcDbEntity
  8
0
100
AcDbSpline
 62
7
  6
CONTINUOUS
 70
0
 71
3
 72
8
 73
4
 74
0
 42
0.0000001
 43
0.0000001
 44
0.0000000001
 40
0.0
 40
0.0
 40
0.0
 40
0.0
 40
1.0
 40
1.0
 40
1.0
 40
1.0
 10
263.1162815806
 20
103.8314637294
 30
0.0
 10
263.3360134429
 20
104.8243247557
 30
0.0
 10
263.5555289408
 20
105.8172336874
 30
0.0
 10
263.7748430434
 20
106.8101870766
 30
0.0
  0
LINE
  5
40D
100
AcDbEntity
  8
0
100
AcDbLine
 62
7
  6
CONTINUOUS
 10
196.9026972502
 20
103.8314637294
 11
196.6974340279
 21
104.6825275323
  0
LINE
  5
40E
100
AcDbEntity
  8
0
100
AcDbLine
 62
7
  6
CONTINUOUS
 10
265.5446252275
 20
113.8314637294
 11
265.5350146366
 21
113.7862497356
  0
LINE
  5
40F
100
AcDbEntity
  8
0
100
AcDbLine
 62
7
  6
CONTINUOUS
 10
265.5350146366
 20
113.7862497356
 11
264.3687727792
 21
108.2995488992
  0
SPLINE
  5
410
100
AcDbEntity
  8
0
100
AcDbSpline
 62
7
  6
CONTINUOUS
 70
0
 71
3
 72
9
 73
5
 74
0
 42
0.0000001
 43
0.0000001
 44
0.0000000001
 40
0.0
 40
0.0
 40
0.0
 40
0.0
 40
0.2459421683
 40
1.0
 40
1.0
 40
1.0
 40
1.0
 10
194.5987794763
 20
103.8314637294
 30
0.0
 10
194.6048431706
 20
103.8493014311
 30
0.0
 10
194.6305969156
 20
103.921453054
 30
0.0
 10
194.6606676387
 20
103.992049396
 30
0.0
 10
194.6854443502
 20
104.0442296801
 30
0.0
  0
LINE
  5
411
100
AcDbEntity
  8
0
100
AcDbLine
 62
7
  6
CONTINUOUS
 10
194.4769857999
 20
106.5974211445
 11
194.2897913898
 21
107.4484848729
  0
SPLINE
  5
412
100
AcDbEntity
  8
BEZUGSACHSEN
100
AcDbSpline
 62
7
  6
CONTINUOUS
 70
0
 71
3
 72
27
 73
23
 74
0
 42
0.0000001
 43
0.0000001
 44
0.0000000001
 40
0.0
 40
0.0
 40
0.0
 40
0.0
 40
0.1530534392
 40
0.2992363375
 40
0.3689465656
 40
0.4360532597
 40
0.5003728703
 40
0.5617894372
 40
0.6202652658
 40
0.6758565643
 40
0.7287416453
 40
0.7792852261
 40
0.803885947
 40
0.8282052063
 40
0.8524559788
 40
0.8769809234
 40
0.902394188
 40
0.930032589
 40
0.9456671005
 40
0.9634914153
 40
0.9829325375
 40
1.0
 40
1.0
 40
1.0
 40
1.0
 10
229.1438513746
 20
115.229920782
 30
0.0
 10
227.2419095158
 20
114.9666396094
 30
0.0
 10
223.5349682437
 20
114.3623690205
 30
0.0
 10
219.0148431633
 20
113.3494236303
 30
0.0
 10
215.5985353501
 20
112.3802481559
 30
0.0
 10
213.2009860235
 20
111.5909954971
 30
0.0
 10
210.9401327682
 20
110.7272139712
 30
0.0
 10
208.8273128639
 20
109.7878711337
 30
0.0
 10
206.8727285764
 20
108.7715471816
 30
0.0
 10
205.0854114625
 20
107.6757434568
 30
0.0
 10
203.474488008
 20
106.4947760671
 30
0.0
 10
202.2756939635
 20
105.42060523
 30
0.0
 10
201.4239498199
 20
104.5077343035
 30
0.0
 10
200.8432012936
 20
103.7958491704
 30
0.0
 10
200.3186861382
 20
103.0424723579
 30
0.0
 10
199.855946073
 20
102.2332254039
 30
0.0
 10
199.4649595388
 20
101.339817792
 30
0.0
 10
199.2314714966
 20
100.5055069607
 30
0.0
 10
199.1404163614
 20
99.7426858109
 30
0.0
 10
199.1596608572
 20
99.0758815573
 30
0.0
 10
199.3262781549
 20
98.4071176469
 30
0.0
 10
199.5541557999
 20
98.0029104034
 30
0.0
 10
199.6824163826
 20
97.8314637294
 30
0.0
  0
SPLINE
  5
413
100
AcDbEntity
  8
0
100
AcDbSpline
 62
7
  6
CONTINUOUS
 70
0
 71
3
 72
9
 73
5
 74
0
 42
0.0000001
 43
0.0000001
 44
0.0000000001
 40
0.0
 40
0.0
 40
0.0
 40
0.0
 40
0.2556924065
 40
1.0
 40
1.0
 40
1.0
 40
1.0
 10
193.3967242888
 20
110.0016763559
 30
0.0
 10
193.3815256354
 20
110.0192353162
 30
0.0
 10
193.3227305979
 20
110.0884625322
 30
0.0
 10
193.2665826369
 20
110.1599504313
 30
0.0
 10
193.2265751332
 20
110.214442288
 30
0.0
  0
LINE
  5
414
100
AcDbEntity
  8
0
100
AcDbLine
 62
7
  6
CONTINUOUS
 10
193.1924640633
 20
109.3633785596
 11
193.0720174739
 21
109.9297382265
  0
LINE
  5
415
100
AcDbEntity
  8
0
100
AcDbLine
 62
7
  6
CONTINUOUS
 10
193.0720174739
 20
109.9297382265
 11
193.0583483406
 21
109.99401291
  0
LINE
  5
416
100
AcDbEntity
  8
0
100
AcDbLine
 62
7
  6
CONTINUOUS
 10
193.0583483406
 20
109.99401291
 11
193.0207778884
 21
110.170676003
  0
LINE
  5
417
100
AcDbEntity
  8
0
100
AcDbLine
 62
7
  6
CONTINUOUS
 10
193.0207778884
 20
110.170676003
 11
193.0158864255
 21
110.1936765697
  0
LINE
  5
418
100
AcDbEntity
  8
0
100
AcDbLine
 62
7
  6
CONTINUOUS
 10
193.0158864255
 20
110.1936765697
 11
192.4684962912
 21
112.767634069
  0
LINE
  5
419
100
AcDbEntity
  8
0
100
AcDbLine
 62
7
  6
CONTINUOUS
 10
193.0485657056
 20
112.767634069
 11
192.8161514321
 21
113.8314637294
  0
SPLINE
  5
41A
100
AcDbEntity
  8
0
100
AcDbSpline
 62
7
  6
CONTINUOUS
 70
0
 71
3
 72
9
 73
5
 74
0
 42
0.0000001
 43
0.0000001
 44
0.0000000001
 40
0.0
 40
0.0
 40
0.0
 40
0.0
 40
0.2458180568
 40
1.0
 40
1.0
 40
1.0
 40
1.0
 10
195.1133963454
 20
103.8314637294
 30
0.0
 10
195.11960235
 20
103.8493050145
 30
0.0
 10
195.1459590659
 20
103.921495081
 30
0.0
 10
195.1766751712
 20
103.9920784051
 30
0.0
 10
195.2019540393
 20
104.0442296801
 30
0.0
  0
LINE
  5
41B
100
AcDbEntity
  8
0
100
AcDbLine
 62
7
  6
CONTINUOUS
 10
194.9981191191
 20
106.5974211445
 11
194.8107476057
 21
107.4484848729
  0
SPLINE
  5
41C
100
AcDbEntity
  8
0
100
AcDbSpline
 62
7
  6
CONTINUOUS
 70
0
 71
3
 72
9
 73
5
 74
0
 42
0.0000001
 43
0.0000001
 44
0.0000000001
 40
0.0
 40
0.0
 40
0.0
 40
0.0
 40
0.2557826258
 40
1.0
 40
1.0
 40
1.0
 40
1.0
 10
193.9126144769
 20
110.0016763559
 30
0.0
 10
193.8972617524
 20
110.0192323808
 30
0.0
 10
193.8378885115
 20
110.0884323339
 30
0.0
 10
193.7811760183
 20
110.1599281714
 30
0.0
 10
193.7407678592
 20
110.214442288
 30
0.0
  0
LINE
  5
41D
100
AcDbEntity
  8
0
100
AcDbLine
 62
7
  6
CONTINUOUS
 10
193.5227852906
 20
110.2144422725
 11
192.9827794567
 21
112.7536435841
  0
LINE
  5
41E
100
AcDbEntity
  8
0
100
AcDbLine
 62
7
  6
CONTINUOUS
 10
193.5675201936
 20
112.767634069
 11
193.3349410466
 21
113.8314637294
  0
SPLINE
  5
41F
100
AcDbEntity
  8
0
100
AcDbSpline
 62
7
  6
CONTINUOUS
 70
0
 71
3
 72
9
 73
5
 74
0
 42
0.0000001
 43
0.0000001
 44
0.0000000001
 40
0.0
 40
0.0
 40
0.0
 40
0.0
 40
0.2478913824
 40
1.0
 40
1.0
 40
1.0
 40
1.0
 10
264.5413164929
 20
113.8314637294
 30
0.0
 10
264.3369859705
 20
113.3427783276
 30
0.0
 10
263.4832538335
 20
111.383924213
 30
0.0
 10
262.5072836602
 20
109.4777928836
 30
0.0
 10
261.7024404036
 20
108.0867829671
 30
0.0
  0
SPLINE
  5
420
100
AcDbEntity
  8
0
100
AcDbSpline
 62
7
  6
CONTINUOUS
 70
0
 71
3
 72
8
 73
4
 74
0
 42
0.0000001
 43
0.0000001
 44
0.0000000001
 40
0.0
 40
0.0
 40
0.0
 40
0.0
 40
1.0
 40
1.0
 40
1.0
 40
1.0
 10
196.2756113119
 20
105.9591233483
 30
0.0
 10
195.982105485
 20
107.2178088755
 30
0.0
 10
195.6894682784
 20
108.476697209
 30
0.0
 10
195.3976172259
 20
109.7357674572
 30
0.0
  0
LINE
  5
421
100
AcDbEntity
  8
0
100
AcDbLine
 62
7
  6
CONTINUOUS
 10
195.3976172259
 20
109.7357674572
 11
195.3852992389
 21
109.7889104238
  0
LINE
  5
422
100
AcDbEntity
  8
0
100
AcDbLine
 62
7
  6
CONTINUOUS
 10
196.1743654859
 20
109.7889104238
 11
195.9695075529
 21
110.6399741521
  0
SPLINE
  5
423
100
AcDbEntity
  8
0
100
AcDbSpline
 62
7
  6
CONTINUOUS
 70
0
 71
3
 72
8
 73
4
 74
0
 42
0.0000001
 43
0.0000001
 44
0.0000000001
 40
0.0
 40
0.0
 40
0.0
 40
0.0
 40
1.0
 40
1.0
 40
1.0
 40
1.0
 10
261.7024404036
 20
108.0867829671
 30
0.0
 10
261.5995059059
 20
107.6612154185
 30
0.0
 10
261.4964261862
 20
107.2356829673
 30
0.0
 10
261.393195879
 20
106.8101870766
 30
0.0
  0
SPLINE
  5
424
100
AcDbEntity
  8
0
100
AcDbSpline
 62
7
  6
CONTINUOUS
 70
0
 71
3
 72
8
 73
4
 74
0
 42
0.0000001
 43
0.0000001
 44
0.0000000001
 40
0.0
 40
0.0
 40
0.0
 40
0.0
 40
1.0
 40
1.0
 40
1.0
 40
1.0
 10
195.1881645874
 20
110.6399741521
 30
0.0
 10
195.0568325235
 20
111.2073145815
 30
0.0
 10
194.9256565028
 20
111.7746911536
 30
0.0
 10
194.794629892
 20
112.3421022048
 30
0.0
  0
SPLINE
  5
425
100
AcDbEntity
  8
0
100
AcDbSpline
 62
7
  6
CONTINUOUS
 70
0
 71
3
 72
8
 73
4
 74
0
 42
0.0000001
 43
0.0000001
 44
0.0000000001
 40
0.0
 40
0.0
 40
0.0
 40
0.0
 40
1.0
 40
1.0
 40
1.0
 40
1.0
 10
262.9719484401
 20
106.8101870766
 30
0.0
 10
262.7493213203
 20
105.8172122583
 30
0.0
 10
262.5264029804
 20
104.8243026802
 30
0.0
 10
262.3031707201
 20
103.8314637294
 30
0.0
  0
LINE
  5
426
100
AcDbEntity
  8
0
100
AcDbLine
 62
7
  6
CONTINUOUS
 10
197.4529098309
 20
103.8314637294
 11
197.2468737834
 21
104.6825275323
  0
SPLINE
  5
427
100
AcDbEntity
  8
BEZUGSACHSEN
100
AcDbSpline
 62
7
  6
CONTINUOUS
 70
0
 71
3
 72
27
 73
23
 74
0
 42
0.0000001
 43
0.0000001
 44
0.0000000001
 40
0.0
 40
0.0
 40
0.0
 40
0.0
 40
0.1530534392
 40
0.2992363375
 40
0.3689465656
 40
0.4360532597
 40
0.5003728703
 40
0.5617894372
 40
0.6202652658
 40
0.6758565643
 40
0.7287416453
 40
0.7792852261
 40
0.803885947
 40
0.8282052063
 40
0.8524559788
 40
0.8769809234
 40
0.902394188
 40
0.930032589
 40
0.9456671005
 40
0.9634914153
 40
0.9829325375
 40
1.0
 40
1.0
 40
1.0
 40
1.0
 10
229.1438513746
 20
115.229920782
 30
0.0
 10
231.0457932334
 20
114.9666396094
 30
0.0
 10
234.7527345055
 20
114.3623690205
 30
0.0
 10
239.2728595859
 20
113.3494236303
 30
0.0
 10
242.6891673991
 20
112.3802481559
 30
0.0
 10
245.0867167257
 20
111.5909954971
 30
0.0
 10
247.347569981
 20
110.7272139712
 30
0.0
 10
249.4603898853
 20
109.7878711337
 30
0.0
 10
251.4149741728
 20
108.7715471816
 30
0.0
 10
253.2022912867
 20
107.6757434568
 30
0.0
 10
254.8132147412
 20
106.4947760671
 30
0.0
 10
256.0120087857
 20
105.42060523
 30
0.0
 10
256.8637529293
 20
104.5077343035
 30
0.0
 10
257.4445014556
 20
103.7958491704
 30
0.0
 10
257.969016611
 20
103.0424723579
 30
0.0
 10
258.4317566762
 20
102.2332254039
 30
0.0
 10
258.8227432104
 20
101.339817792
 30
0.0
 10
259.0562312526
 20
100.5055069607
 30
0.0
 10
259.1472863878
 20
99.7426858109
 30
0.0
 10
259.128041892
 20
99.0758815573
 30
0.0
 10
258.9614245943
 20
98.4071176469
 30
0.0
 10
258.7335469493
 20
98.0029104034
 30
0.0
 10
258.6052863666
 20
97.8314637294
 30
0.0
  0
SPLINE
  5
428
100
AcDbEntity
  8
0
100
AcDbSpline
 62
7
  6
CONTINUOUS
 70
0
 71
3
 72
8
 73
4
 74
0
 42
0.0000001
 43
0.0000001
 44
0.0000000001
 40
0.0
 40
0.0
 40
0.0
 40
0.0
 40
1.0
 40
1.0
 40
1.0
 40
1.0
 10
195.7375945206
 20
105.9591233483
 30
0.0
 10
195.4407228532
 20
107.2355276365
 30
0.0
 10
195.1447020137
 20
108.5121300583
 30
0.0
 10
194.8494519635
 20
109.7889104238
 30
0.0
  0
LINE
  5
429
100
AcDbEntity
  8
0
100
AcDbLine
 62
7
  6
CONTINUOUS
 10
195.6267881248
 20
109.7889104238
 11
195.4226180073
 21
110.6399741521
  0
SPLINE
  5
42A
100
AcDbEntity
  8
0
100
AcDbSpline
 62
7
  6
CONTINUOUS
 70
0
 71
3
 72
8
 73
4
 74
0
 42
0.0000001
 43
0.0000001
 44
0.0000000001
 40
0.0
 40
0.0
 40
0.0
 40
0.0
 40
1.0
 40
1.0
 40
1.0
 40
1.0
 10
194.6527666015
 20
110.6399741521
 30
0.0
 10
194.5217299213
 20
111.20731624
 30
0.0
 10
194.3908422992
 20
111.7746927741
 30
0.0
 10
194.2600975321
 20
112.3421022048
 30
0.0
  0
LINE
  5
42B
100
AcDbEntity
  8
0
100
AcDbLine
 62
7
  6
CONTINUOUS
 10
263.6449129114
 20
109.8158502102
 11
263.2579971913
 21
108.0867829671
  0
LINE
  5
42C
100
AcDbEntity
  8
0
100
AcDbLine
 62
7
  6
CONTINUOUS
 10
263.4444748315
 20
102.5799210065
 11
263.4376315008
 21
102.5548679879
  0
SPLINE
  5
42D
100
AcDbEntity
  8
0
100
AcDbSpline
 62
7
  6
CONTINUOUS
 70
0
 71
3
 72
8
 73
4
 74
0
 42
0.0000001
 43
0.0000001
 44
0.0000000001
 40
0.0
 40
0.0
 40
0.0
 40
0.0
 40
1.0
 40
1.0
 40
1.0
 40
1.0
 10
264.686404597
 20
112.1293362728
 30
0.0
 10
264.386030854
 20
110.7817145641
 30
0.0
 10
264.0852063282
 20
109.4341932355
 30
0.0
 10
263.7838855295
 20
108.0867829671
 30
0.0
  0
SPLINE
  5
42E
100
AcDbEntity
  8
0
100
AcDbSpline
 62
7
  6
CONTINUOUS
 70
0
 71
3
 72
9
 73
5
 74
0
 42
0.0000001
 43
0.0000001
 44
0.0000000001
 40
0.0
 40
0.0
 40
0.0
 40
0.0
 40
0.2479386369
 40
1.0
 40
1.0
 40
1.0
 40
1.0
 10
265.0655461957
 20
113.8314637294
 30
0.0
 10
264.8627233139
 20
113.3430275895
 30
0.0
 10
264.0156998689
 20
111.3852664314
 30
0.0
 10
263.0484808585
 20
109.4789847747
 30
0.0
 10
262.2514501323
 20
108.0867829671
 30
0.0
  0
SPLINE
  5
42F
100
AcDbEntity
  8
0
100
AcDbSpline
 62
7
  6
CONTINUOUS
 70
0
 71
3
 72
8
 73
4
 74
0
 42
0.0000001
 43
0.0000001
 44
0.0000000001
 40
0.0
 40
0.0
 40
0.0
 40
0.0
 40
1.0
 40
1.0
 40
1.0
 40
1.0
 10
263.4982432137
 20
106.8101870766
 30
0.0
 10
263.275938751
 20
105.8172153998
 30
0.0
 10
263.0533561398
 20
104.8243059469
 30
0.0
 10
262.8304742063
 20
103.8314637294
 30
0.0
  0
SPLINE
  5
430
100
AcDbEntity
  8
0
100
AcDbSpline
 62
7
  6
CONTINUOUS
 70
0
 71
3
 72
8
 73
4
 74
0
 42
0.0000001
 43
0.0000001
 44
0.0000000001
 40
0.0
 40
0.0
 40
0.0
 40
0.0
 40
1.0
 40
1.0
 40
1.0
 40
1.0
 10
262.2514501323
 20
108.0867829671
 30
0.0
 10
262.1488839829
 20
107.6612172739
 30
0.0
 10
262.0461796442
 20
107.2356848604
 30
0.0
 10
261.9433321345
 20
106.8101870766
 30
0.0
  0
LINE
  5
431
100
AcDbEntity
  8
BEZUGSACHSEN
100
AcDbLine
 62
7
  6
CONTINUOUS
 10
149.2313035366
 20
38.8143777052
 11
149.6559065544
 21
38.8143779764
  0
LINE
  5
432
100
AcDbEntity
  8
BEZUGSACHSEN
100
AcDbLine
 62
7
  6
CONTINUOUS
 10
35.7681755406
 20
38.81437802
 11
36.1927905141
 21
38.8143777022
  0
ENDSEC
  0
SECTION
  2
OBJECTS
  0
DICTIONARY
  5
C
100
AcDbDictionary
280
0
281
1
  3
ACAD_GROUP
350
D
  3
ACAD_MLINESTYLE
350
17
  3
ACAD_LAYOUT
350
1A
  3
ACAD_PLOTSETTINGS
350
19
  3
ACAD_PLOTSTYLENAME
350
E
  0
DICTIONARY
  5
D
102
{ACAD_REACTORS
330
C
102
}
100
AcDbDictionary
280
0
281
1
  0
ACDBDICTIONARYWDFLT
  5
E
102
{ACAD_REACTORS
330
C
102
}
100
AcDbDictionary
281
1
  3
Normal
350
F
100
AcDbDictionaryWithDefault
340
F
  0
DICTIONARY
  5
17
102
{ACAD_REACTORS
330
C
102
}
100
AcDbDictionary
280
0
281
1
  3
Standard
350
18
  0
DICTIONARY
  5
19
102
{ACAD_REACTORS
330
C
102
}
100
AcDbDictionary
281
1
  0
DICTIONARY
  5
1A
102
{ACAD_REACTORS
330
C
102
}
100
AcDbDictionary
281
1
  3
Model
350
433
  3
Layout1
350
434
  0
ACDBPLACEHOLDER
  5
F
102
{ACAD_REACTORS
330
E
102
}
  0
MLINESTYLE
  5
18
102
{ACAD_REACTORS
330
17
102
}
100
AcDbMlineStyle
  2
STANDARD
 70
0
  3

 62
256
 51
90.0
 52
90.0
 71
2
 49
0.5
 62
256
  6
BYLAYER
 49
-0.5
 62
256
  6
BYLAYER
  0
LAYOUT
  5
433
102
{ACAD_REACTORS
330
1A
102
}
100
AcDbPlotSettings
  1

  2
none_device
  4
ISO_A4_(297.00_x_210.00_MM)
  6

 40
0.0
 41
0.0
 42
0.0
 43
0.0
 44
297.0
 45
210.0
 46
0.0
 47
0.0
 48
0.0
 49
0.0
140
0.0
141
0.0
142
1.0
143
1.0
 70
1024
 72
1
 73
0
 74
0
  7

 75
0
147
1.0
148
0.0
149
0.0
100
AcDbLayout
  1
Model
 70
0
 71
0
 10
0.0
 20
0.0
 11
297.0
 21
210.0
 12
0.0
 22
0.0
 32
0.0
 14
0.0
 24
0.0
 34
0.0
 15
0.0
 25
0.0
 35
0.0
146
0.0
 13
0.0
 23
0.0
 33
0.0
 16
1.0
 26
0.0
 36
0.0
 17
0.0
 27
1.0
 37
0.0
 76
0
330
20D
345
0
346
0
  0
LAYOUT
  5
434
102
{ACAD_REACTORS
330
1A
102
}
100
AcDbPlotSettings
  1

  2
none_device
  4
ISO_A4_(297.00_x_210.00_MM)
  6

 40
0.0
 41
0.0
 42
0.0
 43
0.0
 44
297.0
 45
210.0
 46
0.0
 47
0.0
 48
0.0
 49
0.0
140
0.0
141
0.0
142
1.0
143
1.0
 70
0
 72
1
 73
0
 74
0
  7

 75
0
147
1.0
148
0.0
149
0.0
100
AcDbLayout
  1
Layout1
 70
0
 71
1
 10
0.0
 20
0.0
 11
297.0
 21
210.0
 12
0.0
 22
0.0
 32
0.0
 14
0.0
 24
0.0
 34
0.0
 15
0.0
 25
0.0
 35
0.0
146
0.0
 13
0.0
 23
0.0
 33
0.0
 16
1.0
 26
0.0
 36
0.0
 17
0.0
 27
1.0
 37
0.0
 76
0
330
20E
345
0
346
0
  0
ENDSEC
  0
EOF
