999
DXF file: D:\3D-CAD-neu\2vrbg-16.dxf
999
Pro/ENGINEER 2005030 by Parametric Technology Corporation
0
SECTION
2
HEADER
9
$ACADVER
1
AC1014
9
$HANDSEED
5
       539
9
$EXTMAX
10
420.0000000000
20
297.0000000000
9
$EXTMIN
10
0.0000000000
20
0.0000000000
9
$LIMMIN
10
0.0000000000
20
0.0000000000
9
$LIMMAX
10
420.0000000000
20
297.0000000000
9
$VIEWCTR
10
210.0000000000
20
148.5000000000
9
$VIEWSIZE
40
297.0000000000
9
$CLAYER
8
0
9
$LTSCALE
40
23.1000000000
9
$CELTYPE
6
BYLAYER
9
$DIMSCALE
40
1
9
$DIMASZ
40
3.5000000000
9
$DIMEXO
40
2.6250000000
9
$DIMDLI
40
15.9600000000
9
$DIMEXE
40
7.5600000000
9
$DIMCEN
40
3.7800000000
9
$DIMLFAC
40
1.0000000000
9
$DIMTXT
40
3.5000000000
9
$DIMTOL
70
1
9
$DIMLIM
70
0
9
$DIMTFAC
40
1.0000000000
9
$DIMTP
40
0.0050000000
9
$DIMTM
40
0.0050000000
9
$MEASUREMENT
70
1
0
ENDSEC
0
SECTION
2
CLASSES
0
ENDSEC
0
SECTION
2
TABLES
0
TABLE
2
VPORT
5
8
100
AcDbSymbolTable
70
2
0
VPORT
5
1F4
100
AcDbSymbolTableRecord
100
AcDbViewportTableRecord
2
*ACTIVE
70
0
10
0.0
20
0.0
11
1.0
21
1.0
12
210.0000000000
22
148.5000000000
13
0.0
23
0.0
14
1.0
24
1.0
15
0.0
25
0.0
16
0.0
26
0.0
36
1.0
17
0.0
27
0.0
37
0.0
40
297.0000000000
41
1.4141414141
42
50.0
43
0.0
44
0.0
50
0.0
51
0.0
71
0
72
100
73
1
74
1
75
0
76
0
77
0
78
0
0
ENDTAB
0
TABLE
2
LTYPE
5
5
100
AcDbSymbolTable
70
6
0
LTYPE
5
14
100
AcDbSymbolTableRecord
100
AcDbLinetypeTableRecord
2
BYBLOCK
70
0
3

72
65
73
0
40
0.0
0
LTYPE
5
15
100
AcDbSymbolTableRecord
100
AcDbLinetypeTableRecord
2
BYLAYER
70
0
3

72
65
73
0
40
0.0
0
LTYPE
5
16
100
AcDbSymbolTableRecord
100
AcDbLinetypeTableRecord
2
CONTINUOUS
70
64
3
Solid line
72
65
73
0
40
0
0
LTYPE
5
1F5
100
AcDbSymbolTableRecord
100
AcDbLinetypeTableRecord
2
CENTER
70
64
3
____ _ ____ _ ____ _ ____ _ ____ _ ____ _ ____
72
65
73
4
40
0.6
49
0.375
74
0
49
-0.075
74
0
49
0.075
74
0
49
-0.075
74
0
0
LTYPE
5
1F6
100
AcDbSymbolTableRecord
100
AcDbLinetypeTableRecord
2
HIDDEN
70
64
3
- - - - - - - - - - - - - - - - - - - -
72
65
73
2
40
0.2
49
0.1
74
0
49
-0.1
74
0
0
LTYPE
5
1F7
100
AcDbSymbolTableRecord
100
AcDbLinetypeTableRecord
2
PHANTOM
70
64
3
_____ _ _ _____ _ _ _____ _ _ _____
72
65
73
6
40
0.8
49
0.45
74
0
49
-0.05
74
0
49
0.1
74
0
49
-0.05
74
0
49
0.1
74
0
49
-0.05
74
0
0
LTYPE
5
1F8
100
AcDbSymbolTableRecord
100
AcDbLinetypeTableRecord
2
DOT
70
64
3
. . . . . . . . . . . . . . . . . . . .
72
65
73
2
40
0.2
49
0.1
74
0
49
-0.1
74
0
0
LTYPE
5
1F9
100
AcDbSymbolTableRecord
100
AcDbLinetypeTableRecord
2
DASHED
70
64
3
- - - - - - - - - - - - - - - - - - - -
72
65
73
2
40
0.2
49
0.1
74
0
49
-0.1
74
0
0
ENDTAB
0
TABLE
2
LAYER
5
2
100
AcDbSymbolTable
70
36
0
LAYER
5
10
100
AcDbSymbolTableRecord
100
AcDbLayerTableRecord
2
0
70
0
62
7
6
CONTINUOUS
0
LAYER
5
1FA
100
AcDbSymbolTableRecord
100
AcDbLayerTableRecord
2
DEFAULT_1
70
0
62
7
6
CENTER
0
LAYER
5
1FB
100
AcDbSymbolTableRecord
100
AcDbLayerTableRecord
2
DEFAULT_2
70
0
62
8
6
HIDDEN
0
LAYER
5
1FC
100
AcDbSymbolTableRecord
100
AcDbLayerTableRecord
2
DEFAULT_3
70
0
62
7
6
PHANTOM
0
LAYER
5
1FD
100
AcDbSymbolTableRecord
100
AcDbLayerTableRecord
2
B-ACHSEN
70
0
62
7
6
CONTINUOUS
0
LAYER
5
1FE
100
AcDbSymbolTableRecord
100
AcDbLayerTableRecord
2
B-EBENEN
70
0
62
7
6
CONTINUOUS
0
LAYER
5
1FF
100
AcDbSymbolTableRecord
100
AcDbLayerTableRecord
2
B-KOORSYS
70
0
62
7
6
CONTINUOUS
0
LAYER
5
200
100
AcDbSymbolTableRecord
100
AcDbLayerTableRecord
2
B-KURVEN
70
0
62
7
6
CONTINUOUS
0
LAYER
5
201
100
AcDbSymbolTableRecord
100
AcDbLayerTableRecord
2
B-PUNKTE
70
0
62
7
6
CONTINUOUS
0
LAYER
5
202
100
AcDbSymbolTableRecord
100
AcDbLayerTableRecord
2
BEMASSUNG
70
0
62
7
6
CONTINUOUS
0
LAYER
5
203
100
AcDbSymbolTableRecord
100
AcDbLayerTableRecord
2
BOHRUNGEN
70
0
62
7
6
CONTINUOUS
0
LAYER
5
204
100
AcDbSymbolTableRecord
100
AcDbLayerTableRecord
2
FASEN
70
0
62
7
6
CONTINUOUS
0
LAYER
5
205
100
AcDbSymbolTableRecord
100
AcDbLayerTableRecord
2
KURVENELEMENTE
70
0
62
7
6
CONTINUOUS
0
LAYER
5
206
100
AcDbSymbolTableRecord
100
AcDbLayerTableRecord
2
NOTIZEN
70
0
62
7
6
CONTINUOUS
0
LAYER
5
207
100
AcDbSymbolTableRecord
100
AcDbLayerTableRecord
2
RUNDUNGEN
70
0
62
7
6
CONTINUOUS
0
LAYER
5
208
100
AcDbSymbolTableRecord
100
AcDbLayerTableRecord
2
VERBUNDFLAECHEN
70
0
62
7
6
CONTINUOUS
0
ENDTAB
0
TABLE
2
STYLE
5
3
100
AcDbSymbolTable
70
1
0
STYLE
5
11
100
AcDbSymbolTableRecord
100
AcDbTextStyleTableRecord
2
STANDARD
70
0
40
0.0
41
0.7000000000
50
0.0
71
0
42
0.2
3
txt
4

0
ENDTAB
0
TABLE
2
VIEW
5
6
100
AcDbSymbolTable
70
0
0
ENDTAB
0
TABLE
2
UCS
5
7
100
AcDbSymbolTable
70
0
0
ENDTAB
0
TABLE
2
APPID
5
9
100
AcDbSymbolTable
70
1
0
APPID
5
209
100
AcDbSymbolTableRecord
100
AcDbRegAppTableRecord
2
ACAD
70
0
0
ENDTAB
0
TABLE
2
DIMSTYLE
5
A
100
AcDbSymbolTable
70
1
0
DIMSTYLE
105
20A
100
AcDbSymbolTableRecord
100
AcDbDimStyleTableRecord
2
STANDARD
70
0
3

4

5

6

7

40
1.0
41
3.5000000000
42
0.0625
43
0.38
44
0.18
45
0.0
46
0.0
47
0.0050000000
48
0.0050000000
140
3.5000000000
141
0.09
142
0.0
143
25.4
144
1.0000000000
145
0.0
146
1.0000000000
147
0.09
71
1
72
0
73
0
74
0
75
0
76
0
77
1
78
8
170
0
171
2
172
0
173
0
174
0
175
0
176
0
177
0
178
5
270
2
271
3
272
3
273
2
274
2
340
11
275
0
280
0
281
0
282
0
283
1
284
8
285
0
286
0
287
3
288
0
0
ENDTAB
0
TABLE
2
BLOCK_RECORD
5
1
100
AcDbSymbolTable
70
0
0
BLOCK_RECORD
5
1B
100
AcDbSymbolTableRecord
100
AcDbBlockTableRecord
2
*MODEL_SPACE
0
BLOCK_RECORD
5
1C
100
AcDbSymbolTableRecord
100
AcDbBlockTableRecord
2
*PAPER_SPACE
0
ENDTAB
0
ENDSEC
0
SECTION
2
BLOCKS
0
BLOCK
5
1E
100
AcDbEntity
8
0
100
AcDbBlockBegin
2
*MODEL_SPACE
70
0
10
0.0
20
0.0
30
0.0
3
*MODEL_SPACE
1

0
ENDBLK
5
1F
100
AcDbEntity
8
0
100
AcDbBlockEnd
0
BLOCK
5
20
100
AcDbEntity
8
0
100
AcDbBlockBegin
2
*PAPER_SPACE
70
0
10
0.0
20
0.0
30
0.0
3
*PAPER_SPACE
1

0
ENDBLK
5
21
100
AcDbEntity
8
0
100
AcDbBlockEnd
0
ENDSEC
0
SECTION
2
ENTITIES
0
TEXT
5
20B
100
AcDbEntity
8
0
100
AcDbText
62
5
6
CONTINUOUS
10
24.1948793862
20
99.0146385583
7
STANDARD
40
8.0000000000
1
RUD
41
0.8253968254
72
0
100
AcDbText
0
TEXT
5
20C
100
AcDbEntity
8
0
100
AcDbText
62
5
6
CONTINUOUS
10
24.1948793862
20
87.0146385583
7
STANDARD
40
8.0000000000
1
VRBG 16t
41
0.7380952381
72
0
100
AcDbText
0
TEXT
5
20D
100
AcDbEntity
8
0
100
AcDbText
62
5
6
CONTINUOUS
10
388.2235495120
20
294.0369962833
7
STANDARD
40
8.0000000000
1
RUD
41
0.8253968254
72
0
100
AcDbText
0
TEXT
5
20E
100
AcDbEntity
8
0
100
AcDbText
62
5
6
CONTINUOUS
10
388.2235495120
20
282.0369962833
7
STANDARD
40
8.0000000000
1
VRBG 16t
41
0.7380952381
72
0
100
AcDbText
0
LINE
5
20F
100
AcDbEntity
8
0
100
AcDbLine
62
7
6
CONTINUOUS
10
0.0000000000
20
0.0000000000
11
0.0000000000
21
297.0000000000
0
LINE
5
210
100
AcDbEntity
8
0
100
AcDbLine
62
7
6
CONTINUOUS
10
0.0000000000
20
0.0000000000
11
420.0000000000
21
0.0000000000
0
LINE
5
211
100
AcDbEntity
8
0
100
AcDbLine
62
7
6
CONTINUOUS
10
0.0000000000
20
297.0000000000
11
420.0000000000
21
297.0000000000
0
LINE
5
212
100
AcDbEntity
8
0
100
AcDbLine
62
7
6
CONTINUOUS
10
420.0000000000
20
0.0000000000
11
420.0000000000
21
297.0000000000
0
LINE
5
213
100
AcDbEntity
8
0
100
AcDbLine
62
7
6
CONTINUOUS
10
33.9504866221
20
200.7011505541
11
36.9504866221
21
197.7011505541
0
LINE
5
214
100
AcDbEntity
8
0
100
AcDbLine
62
7
6
CONTINUOUS
10
14.8132932726
20
261.9920936276
11
13.9504866221
21
270.2011505541
0
LINE
5
215
100
AcDbEntity
8
0
100
AcDbLine
62
7
6
CONTINUOUS
10
13.9504866221
20
270.2011505541
11
13.9504866221
21
273.2011505541
0
LINE
5
216
100
AcDbEntity
8
0
100
AcDbLine
62
7
6
CONTINUOUS
10
13.9504866221
20
273.2011505541
11
17.7607840301
21
309.4537087732
0
LINE
5
217
100
AcDbEntity
8
0
100
AcDbLine
62
7
6
CONTINUOUS
10
22.2838198759
20
271.7677462956
11
19.9504866221
21
280.4911505541
0
LINE
5
218
100
AcDbEntity
8
0
100
AcDbLine
62
7
6
CONTINUOUS
10
18.9504866221
20
280.4911505541
11
21.6171533682
21
270.4911505541
0
LINE
5
219
100
AcDbEntity
8
0
100
AcDbLine
62
7
6
CONTINUOUS
10
25.9504866221
20
260.2011505541
11
25.9504866221
21
252.2011505541
0
LINE
5
21A
100
AcDbEntity
8
0
100
AcDbLine
62
7
6
CONTINUOUS
10
26.2459067811
20
252.2011505541
11
26.2459067811
21
260.2011505541
0
LINE
5
21B
100
AcDbEntity
8
0
100
AcDbLine
62
7
6
CONTINUOUS
10
26.4504866221
20
296.1922497785
11
26.4504866221
21
316.7011505541
0
LINE
5
21C
100
AcDbEntity
8
0
100
AcDbLine
62
7
6
CONTINUOUS
10
26.9504866221
20
280.4911505541
11
26.9504866221
21
270.4911505541
0
LINE
5
21D
100
AcDbEntity
8
0
100
AcDbLine
62
7
6
CONTINUOUS
10
27.9504866221
20
270.4911505541
11
27.9504866221
21
274.9592357239
0
LINE
5
21E
100
AcDbEntity
8
0
100
AcDbLine
62
7
6
CONTINUOUS
10
27.9504866221
20
276.2358313164
11
27.9504866221
21
279.4273208937
0
LINE
5
21F
100
AcDbEntity
8
0
100
AcDbLine
62
7
6
CONTINUOUS
10
32.1171536066
20
278.1507253012
11
32.1171536066
21
277.5124269089
0
LINE
5
220
100
AcDbEntity
8
0
100
AcDbLine
62
7
6
CONTINUOUS
10
32.9504866221
20
278.7890230975
11
32.4504866221
21
279.6400868258
0
LINE
5
221
100
AcDbEntity
8
0
100
AcDbLine
62
7
6
CONTINUOUS
10
33.2838196375
20
270.4911505541
11
31.7838196375
21
275.3847675881
0
LINE
5
222
100
AcDbEntity
8
0
100
AcDbLine
62
7
6
CONTINUOUS
10
30.7838196375
20
274.9592357239
11
32.1171536066
21
270.4911505541
0
LINE
5
223
100
AcDbEntity
8
0
100
AcDbLine
62
7
6
CONTINUOUS
10
31.9504866221
20
278.7890230975
11
32.1171536066
21
278.1507253012
0
LINE
5
224
100
AcDbEntity
8
0
100
AcDbLine
62
7
6
CONTINUOUS
10
33.1171536066
20
278.1507253012
11
32.9504866221
21
278.7890230975
0
LINE
5
225
100
AcDbEntity
8
0
100
AcDbLine
62
7
6
CONTINUOUS
10
33.1171536066
20
277.2996609768
11
33.1171536066
21
278.1507253012
0
LINE
5
226
100
AcDbEntity
8
0
100
AcDbLine
62
7
6
CONTINUOUS
10
33.9504866221
20
252.2011505541
11
33.9504866221
21
200.7011505541
0
LINE
5
227
100
AcDbEntity
8
0
100
AcDbLine
62
7
6
CONTINUOUS
10
34.4159741003
20
252.2011505541
11
34.4159741003
21
260.2011505541
0
LINE
5
228
100
AcDbEntity
8
0
100
AcDbLine
62
7
6
CONTINUOUS
10
34.6171536066
20
280.4911505541
11
34.6171536066
21
270.4911505541
0
LINE
5
229
100
AcDbEntity
8
0
100
AcDbLine
62
7
6
CONTINUOUS
10
35.6171526530
20
271.7677462956
11
35.6171526530
21
274.9592357239
0
LINE
5
22A
100
AcDbEntity
8
0
100
AcDbLine
62
7
6
CONTINUOUS
10
35.6171526530
20
276.2358313164
11
35.6171526530
21
279.2145549616
0
LINE
5
22B
100
AcDbEntity
8
0
100
AcDbLine
62
7
6
CONTINUOUS
10
39.7838205912
20
277.9379587731
11
39.7838205912
21
277.5124269089
0
LINE
5
22C
100
AcDbEntity
8
0
100
AcDbLine
62
7
6
CONTINUOUS
10
39.7838205912
20
273.6826398334
11
39.7838205912
21
273.0443420371
0
LINE
5
22D
100
AcDbEntity
8
0
100
AcDbLine
62
7
6
CONTINUOUS
10
40.7804193029
20
252.2011505541
11
40.7804193029
21
260.2011505541
0
LINE
5
22E
100
AcDbEntity
8
0
100
AcDbLine
62
7
6
CONTINUOUS
10
40.7838205912
20
272.8315761051
11
40.7838205912
21
273.8954057655
0
LINE
5
22F
100
AcDbEntity
8
0
100
AcDbLine
62
7
6
CONTINUOUS
10
40.7838205912
20
277.2996609768
11
40.7838205912
21
278.1507253012
0
LINE
5
230
100
AcDbEntity
8
0
100
AcDbLine
62
7
6
CONTINUOUS
10
42.1171526530
20
277.0868950447
11
42.1171526530
21
273.8954057655
0
LINE
5
231
100
AcDbEntity
8
0
100
AcDbLine
62
7
6
CONTINUOUS
10
43.1171526530
20
273.8954057655
11
43.1171526530
21
277.0868950447
0
LINE
5
232
100
AcDbEntity
8
0
100
AcDbLine
62
7
6
CONTINUOUS
10
22.9504866221
20
270.4911505541
11
25.6171531298
21
280.4911505541
0
LINE
5
233
100
AcDbEntity
8
0
100
AcDbLine
62
7
6
CONTINUOUS
10
24.6171531298
20
280.4911505541
11
22.2838198759
21
271.7677462956
0
LINE
5
234
100
AcDbEntity
8
0
100
AcDbLine
62
7
6
CONTINUOUS
10
258.9504866221
20
197.7011505541
11
234.9504866221
21
197.7011505541
0
LINE
5
235
100
AcDbEntity
8
0
100
AcDbLine
62
7
6
CONTINUOUS
10
60.9504866221
20
197.7011505541
11
36.9504866221
21
197.7011505541
0
LINE
5
236
100
AcDbEntity
8
0
100
AcDbLine
62
7
6
CONTINUOUS
10
261.9504866221
20
200.7011505541
11
231.9504866221
21
200.7011505541
0
LINE
5
237
100
AcDbEntity
8
0
100
AcDbLine
62
7
6
CONTINUOUS
10
63.9504866221
20
200.7011505541
11
33.9504866221
21
200.7011505541
0
LINE
5
238
100
AcDbEntity
8
0
100
AcDbLine
62
7
6
CONTINUOUS
10
31.6171536066
20
279.2145549616
11
31.9504866221
21
278.7890230975
0
LINE
5
239
100
AcDbEntity
8
0
100
AcDbLine
62
7
6
CONTINUOUS
10
39.2838205912
20
274.7464697918
11
39.6171526530
21
274.3209379277
0
LINE
5
23A
100
AcDbEntity
8
0
100
AcDbLine
62
7
6
CONTINUOUS
10
42.6171526530
20
271.9805122277
11
43.2838205912
21
271.1294484249
0
LINE
5
23B
100
AcDbEntity
8
0
100
AcDbLine
62
7
6
CONTINUOUS
10
39.2838205912
20
279.0017890295
11
39.6171526530
21
278.5762571654
0
LINE
5
23C
100
AcDbEntity
8
0
100
AcDbLine
62
7
6
CONTINUOUS
10
40.6171526530
20
274.5337038598
11
40.1171526530
21
275.3847675881
0
LINE
5
23D
100
AcDbEntity
8
0
100
AcDbLine
62
7
6
CONTINUOUS
10
40.6171526530
20
278.7890230975
11
40.1171526530
21
279.6400868258
0
LINE
5
23E
100
AcDbEntity
8
0
100
AcDbLine
62
7
6
CONTINUOUS
10
43.6171526530
20
272.4060442409
11
43.2838205912
21
273.0443420371
0
LINE
5
23F
100
AcDbEntity
8
0
100
AcDbLine
62
7
6
CONTINUOUS
10
42.2838205912
20
272.8315761051
11
42.6171526530
21
271.9805122277
0
LINE
5
240
100
AcDbEntity
8
0
100
AcDbLine
62
7
6
CONTINUOUS
10
39.6171526530
20
274.3209379277
11
39.7838205912
21
273.6826398334
0
LINE
5
241
100
AcDbEntity
8
0
100
AcDbLine
62
7
6
CONTINUOUS
10
40.7838205912
20
273.8954057655
11
40.6171526530
21
274.5337038598
0
LINE
5
242
100
AcDbEntity
8
0
100
AcDbLine
62
7
6
CONTINUOUS
10
39.6171526530
20
278.5762571654
11
39.7838205912
21
277.9379587731
0
LINE
5
243
100
AcDbEntity
8
0
100
AcDbLine
62
7
6
CONTINUOUS
10
40.7838205912
20
278.1507253012
11
40.6171526530
21
278.7890230975
0
LINE
5
244
100
AcDbEntity
8
0
100
AcDbLine
62
7
6
CONTINUOUS
10
47.4504866221
20
278.5762571654
11
47.6171526530
21
277.9379587731
0
LINE
5
245
100
AcDbEntity
8
0
100
AcDbLine
62
7
6
CONTINUOUS
10
43.2838205912
20
273.0443420371
11
43.1171526530
21
273.8954057655
0
LINE
5
246
100
AcDbEntity
8
0
100
AcDbLine
62
7
6
CONTINUOUS
10
42.1171526530
20
273.8954057655
11
42.2838205912
21
272.8315761051
0
LINE
5
247
100
AcDbEntity
8
0
100
AcDbLine
62
7
6
CONTINUOUS
10
46.1171526530
20
276.0230653843
11
46.1171526530
21
274.7464697918
0
LINE
5
248
100
AcDbEntity
8
0
100
AcDbLine
62
7
6
CONTINUOUS
10
47.6171526530
20
274.7464697918
11
47.6171526530
21
273.0443420371
0
LINE
5
249
100
AcDbEntity
8
0
100
AcDbLine
62
7
6
CONTINUOUS
10
48.6171526530
20
272.8315761051
11
48.6171526530
21
276.0230653843
0
LINE
5
24A
100
AcDbEntity
8
DEFAULT_1
100
AcDbLine
62
2
6
CENTER
10
48.9504866221
20
197.7011505541
11
48.9504866221
21
290.7011505541
0
LINE
5
24B
100
AcDbEntity
8
0
100
AcDbLine
62
7
6
CONTINUOUS
10
42.2838205912
20
278.1507253012
11
42.1171526530
21
277.0868950447
0
LINE
5
24C
100
AcDbEntity
8
0
100
AcDbLine
62
7
6
CONTINUOUS
10
43.1171526530
20
277.0868950447
11
43.2838205912
21
277.9379587731
0
LINE
5
24D
100
AcDbEntity
8
0
100
AcDbLine
62
7
6
CONTINUOUS
10
32.1171536066
20
277.5124269089
11
31.9504866221
21
276.8741291127
0
LINE
5
24E
100
AcDbEntity
8
0
100
AcDbLine
62
7
6
CONTINUOUS
10
32.9504866221
20
276.6613631806
11
33.1171536066
21
277.2996609768
0
LINE
5
24F
100
AcDbEntity
8
0
100
AcDbLine
62
7
6
CONTINUOUS
10
39.7838205912
20
277.5124269089
11
39.6171526530
21
276.8741291127
0
LINE
5
250
100
AcDbEntity
8
0
100
AcDbLine
62
7
6
CONTINUOUS
10
40.6171526530
20
276.6613631806
11
40.7838205912
21
277.2996609768
0
LINE
5
251
100
AcDbEntity
8
0
100
AcDbLine
62
7
6
CONTINUOUS
10
39.7838205912
20
273.0443420371
11
39.6171526530
21
272.4060442409
0
LINE
5
252
100
AcDbEntity
8
0
100
AcDbLine
62
7
6
CONTINUOUS
10
40.6171526530
20
272.1932781598
11
40.7838205912
21
272.8315761051
0
LINE
5
253
100
AcDbEntity
8
0
100
AcDbLine
62
7
6
CONTINUOUS
10
44.1171526530
20
271.9805122277
11
43.6171526530
21
272.4060442409
0
LINE
5
254
100
AcDbEntity
8
0
100
AcDbLine
62
7
6
CONTINUOUS
10
32.4504866221
20
279.6400868258
11
31.7838196375
21
280.2783846220
0
LINE
5
255
100
AcDbEntity
8
0
100
AcDbLine
62
7
6
CONTINUOUS
10
40.1171526530
20
279.6400868258
11
39.4504866221
21
280.2783846220
0
LINE
5
256
100
AcDbEntity
8
0
100
AcDbLine
62
7
6
CONTINUOUS
10
48.4504866221
20
279.0017890295
11
47.7838205912
21
279.8528527579
0
LINE
5
257
100
AcDbEntity
8
0
100
AcDbLine
62
7
6
CONTINUOUS
10
61.7838186838
20
272.1932781598
11
62.2838186838
21
271.3422143570
0
LINE
5
258
100
AcDbEntity
8
0
100
AcDbLine
62
7
6
CONTINUOUS
10
62.7838186838
20
272.1932781598
11
62.4504866221
21
272.8315761051
0
LINE
5
259
100
AcDbEntity
8
0
100
AcDbLine
62
7
6
CONTINUOUS
10
61.4504866221
20
273.2571079692
11
61.7838186838
21
272.1932781598
0
LINE
5
25A
100
AcDbEntity
8
0
100
AcDbLine
62
7
6
CONTINUOUS
10
62.4504866221
20
272.8315761051
11
62.2838186838
21
273.4698739013
0
LINE
5
25B
100
AcDbEntity
8
0
100
AcDbLine
62
7
6
CONTINUOUS
10
48.6171526530
20
277.9379587731
11
48.4504866221
21
279.0017890295
0
LINE
5
25C
100
AcDbEntity
8
0
100
AcDbLine
62
7
6
CONTINUOUS
10
57.1205539413
20
252.2011505541
11
57.1205539413
21
260.2011505541
0
LINE
5
25D
100
AcDbEntity
8
0
100
AcDbLine
62
7
6
CONTINUOUS
10
57.9504866221
20
279.0017890295
11
57.9504866221
21
277.2996609768
0
LINE
5
25E
100
AcDbEntity
8
0
100
AcDbLine
62
7
6
CONTINUOUS
10
58.9504866221
20
278.7890230975
11
58.9504866221
21
270.4911505541
0
LINE
5
25F
100
AcDbEntity
8
0
100
AcDbLine
62
7
6
CONTINUOUS
10
59.9504866221
20
270.4911505541
11
59.9504866221
21
280.4911505541
0
LINE
5
260
100
AcDbEntity
8
0
100
AcDbLine
62
7
6
CONTINUOUS
10
61.2838186838
20
276.2358313164
11
61.2838186838
21
274.7464697918
0
LINE
5
261
100
AcDbEntity
8
0
100
AcDbLine
62
7
6
CONTINUOUS
10
62.1171545603
20
275.8102994522
11
62.1171545603
21
276.2358313164
0
LINE
5
262
100
AcDbEntity
8
0
100
AcDbLine
62
7
6
CONTINUOUS
10
62.2838186838
20
273.4698739013
11
62.2838186838
21
274.1081716976
0
LINE
5
263
100
AcDbEntity
8
0
100
AcDbLine
62
7
6
CONTINUOUS
10
63.4849991438
20
252.2011505541
11
63.4849991438
21
260.2011505541
0
LINE
5
264
100
AcDbEntity
8
0
100
AcDbLine
62
7
6
CONTINUOUS
10
63.9504866221
20
252.2011505541
11
63.9504866221
21
200.7011505541
0
LINE
5
265
100
AcDbEntity
8
0
100
AcDbLine
62
7
6
CONTINUOUS
10
66.4504866221
20
274.1081716976
11
66.4504866221
21
273.4698739013
0
LINE
5
266
100
AcDbEntity
8
0
100
AcDbLine
62
7
6
CONTINUOUS
10
67.2838186838
20
273.2571079692
11
67.2838186838
21
274.3209379277
0
LINE
5
267
100
AcDbEntity
8
0
100
AcDbLine
62
7
6
CONTINUOUS
10
61.4504866221
20
277.7251928410
11
61.2838186838
21
276.2358313164
0
LINE
5
268
100
AcDbEntity
8
0
100
AcDbLine
62
7
6
CONTINUOUS
10
62.1171545603
20
276.2358313164
11
62.2838186838
21
277.5124269089
0
LINE
5
269
100
AcDbEntity
8
0
100
AcDbLine
62
7
6
CONTINUOUS
10
48.4504866221
20
271.9805122277
11
48.6171526530
21
272.8315761051
0
LINE
5
26A
100
AcDbEntity
8
0
100
AcDbLine
62
7
6
CONTINUOUS
10
47.6171526530
20
273.0443420371
11
47.4504866221
21
272.4060442409
0
LINE
5
26B
100
AcDbEntity
8
0
100
AcDbLine
62
7
6
CONTINUOUS
10
42.6171526530
20
279.0017890295
11
42.2838205912
21
278.1507253012
0
LINE
5
26C
100
AcDbEntity
8
0
100
AcDbLine
62
7
6
CONTINUOUS
10
32.4504866221
20
275.8102994522
11
32.9504866221
21
276.6613631806
0
LINE
5
26D
100
AcDbEntity
8
0
100
AcDbLine
62
7
6
CONTINUOUS
10
43.2838205912
20
271.1294484249
11
43.9504866221
21
270.7039165048
0
LINE
5
26E
100
AcDbEntity
8
0
100
AcDbLine
62
7
6
CONTINUOUS
10
40.1171526530
20
275.3847675881
11
39.7838205912
21
275.5975335202
0
LINE
5
26F
100
AcDbEntity
8
0
100
AcDbLine
62
7
6
CONTINUOUS
10
62.2838186838
20
271.3422143570
11
63.1171545603
21
270.7039165048
0
LINE
5
270
100
AcDbEntity
8
0
100
AcDbLine
62
7
6
CONTINUOUS
10
46.9504866221
20
279.0017890295
11
47.4504866221
21
278.5762571654
0
LINE
5
271
100
AcDbEntity
8
0
100
AcDbLine
62
7
6
CONTINUOUS
10
63.2838186838
20
271.7677462956
11
62.7838186838
21
272.1932781598
0
LINE
5
272
100
AcDbEntity
8
0
100
AcDbLine
62
7
6
CONTINUOUS
10
70.2838186838
20
271.3422143570
11
70.7838186838
21
270.9166824555
0
LINE
5
273
100
AcDbEntity
8
0
100
AcDbLine
62
7
6
CONTINUOUS
10
65.4504866221
20
275.5975335202
11
65.9504866221
21
275.1720016560
0
LINE
5
274
100
AcDbEntity
8
0
100
AcDbLine
62
7
6
CONTINUOUS
10
65.9504866221
20
275.1720016560
11
66.2838186838
21
274.7464697918
0
LINE
5
275
100
AcDbEntity
8
0
100
AcDbLine
62
7
6
CONTINUOUS
10
66.9504866221
20
275.3847675881
11
66.4504866221
21
276.0230653843
0
LINE
5
276
100
AcDbEntity
8
0
100
AcDbLine
62
7
6
CONTINUOUS
10
66.7838186838
20
278.7890230975
11
66.2838186838
21
279.6400868258
0
LINE
5
277
100
AcDbEntity
8
0
100
AcDbLine
62
7
6
CONTINUOUS
10
65.7838186838
20
278.7890230975
11
66.1171545603
21
278.1507253012
0
LINE
5
278
100
AcDbEntity
8
0
100
AcDbLine
62
7
6
CONTINUOUS
10
69.9504866221
20
272.1932781598
11
70.2838186838
21
271.3422143570
0
LINE
5
279
100
AcDbEntity
8
0
100
AcDbLine
62
7
6
CONTINUOUS
10
67.2838186838
20
274.3209379277
11
66.9504866221
21
275.3847675881
0
LINE
5
27A
100
AcDbEntity
8
0
100
AcDbLine
62
7
6
CONTINUOUS
10
66.2838186838
20
274.7464697918
11
66.4504866221
21
274.1081716976
0
LINE
5
27B
100
AcDbEntity
8
0
100
AcDbLine
62
7
6
CONTINUOUS
10
66.9504866221
20
278.1507253012
11
66.7838186838
21
278.7890230975
0
LINE
5
27C
100
AcDbEntity
8
0
100
AcDbLine
62
7
6
CONTINUOUS
10
70.9504866221
20
271.9805122277
11
70.7838186838
21
272.6188101730
0
LINE
5
27D
100
AcDbEntity
8
0
100
AcDbLine
62
7
6
CONTINUOUS
10
61.2838186838
20
274.7464697918
11
61.4504866221
21
273.2571079692
0
LINE
5
27E
100
AcDbEntity
8
0
100
AcDbLine
62
7
6
CONTINUOUS
10
75.8957055758
20
319.7223573940
11
75.2037705910
21
326.3056790176
0
LINE
5
27F
100
AcDbEntity
8
0
100
AcDbLine
62
7
6
CONTINUOUS
10
79.9038912030
20
300.2468861944
11
75.3503882602
21
343.5705727356
0
LINE
5
280
100
AcDbEntity
8
0
100
AcDbLine
62
7
6
CONTINUOUS
10
68.6171545603
20
277.2996609768
11
68.6171545603
21
276.4485972485
0
LINE
5
281
100
AcDbEntity
8
0
100
AcDbLine
62
7
6
CONTINUOUS
10
69.9504866221
20
279.0017890295
11
69.9504866221
21
277.2996609768
0
LINE
5
282
100
AcDbEntity
8
0
100
AcDbLine
62
7
6
CONTINUOUS
10
69.9504866221
20
276.4485972485
11
69.9504866221
21
272.1932781598
0
LINE
5
283
100
AcDbEntity
8
0
100
AcDbLine
62
7
6
CONTINUOUS
10
70.7838186838
20
272.6188101730
11
70.7838186838
21
276.4485972485
0
LINE
5
284
100
AcDbEntity
8
0
100
AcDbLine
62
7
6
CONTINUOUS
10
70.7838186838
20
277.2996609768
11
70.7838186838
21
279.0017890295
0
LINE
5
285
100
AcDbEntity
8
0
100
AcDbLine
62
7
6
CONTINUOUS
10
71.4504866221
20
296.1922432212
11
71.4504866221
21
316.7011505541
0
LINE
5
286
100
AcDbEntity
8
0
100
AcDbLine
62
7
6
CONTINUOUS
10
71.6550664630
20
252.2011505541
11
71.6550664630
21
260.2011505541
0
LINE
5
287
100
AcDbEntity
8
0
100
AcDbLine
62
7
6
CONTINUOUS
10
71.9504866221
20
260.2011505541
11
71.9504866221
21
252.2011505541
0
LINE
5
288
100
AcDbEntity
8
0
100
AcDbLine
62
7
6
CONTINUOUS
10
72.2838186838
20
270.4911505541
11
72.2838186838
21
271.3422143570
0
LINE
5
289
100
AcDbEntity
8
0
100
AcDbLine
62
7
6
CONTINUOUS
10
72.6171545603
20
276.4485972485
11
72.6171545603
21
277.2996609768
0
LINE
5
28A
100
AcDbEntity
8
0
100
AcDbLine
62
7
6
CONTINUOUS
10
75.9504866221
20
262.7011505541
11
75.9504866221
21
318.6770727613
0
LINE
5
28B
100
AcDbEntity
8
0
100
AcDbLine
62
7
6
CONTINUOUS
10
62.2838186838
20
277.5124269089
11
62.4504866221
21
278.1507253012
0
LINE
5
28C
100
AcDbEntity
8
0
100
AcDbLine
62
7
6
CONTINUOUS
10
62.2838186838
20
274.1081716976
11
62.4504866221
21
274.7464697918
0
LINE
5
28D
100
AcDbEntity
8
0
100
AcDbLine
62
7
6
CONTINUOUS
10
66.4504866221
20
273.4698739013
11
66.2838186838
21
272.8315761051
0
LINE
5
28E
100
AcDbEntity
8
0
100
AcDbLine
62
7
6
CONTINUOUS
10
61.7838186838
20
278.7890230975
11
61.4504866221
21
277.7251928410
0
LINE
5
28F
100
AcDbEntity
8
0
100
AcDbLine
62
7
6
CONTINUOUS
10
43.2838205912
20
277.9379587731
11
43.6171526530
21
278.5762571654
0
LINE
5
290
100
AcDbEntity
8
0
100
AcDbLine
62
7
6
CONTINUOUS
10
40.1171526530
20
275.8102994522
11
40.6171526530
21
276.6613631806
0
LINE
5
291
100
AcDbEntity
8
0
100
AcDbLine
62
7
6
CONTINUOUS
10
40.1171526530
20
271.3422143570
11
40.6171526530
21
272.1932781598
0
LINE
5
292
100
AcDbEntity
8
0
100
AcDbLine
62
7
6
CONTINUOUS
10
31.9504866221
20
276.8741291127
11
31.6171536066
21
276.4485972485
0
LINE
5
293
100
AcDbEntity
8
0
100
AcDbLine
62
7
6
CONTINUOUS
10
44.7838205912
20
271.7677462956
11
44.1171526530
21
271.9805122277
0
LINE
5
294
100
AcDbEntity
8
0
100
AcDbLine
62
7
6
CONTINUOUS
10
38.7838205912
20
274.9592357239
11
39.2838205912
21
274.7464697918
0
LINE
5
295
100
AcDbEntity
8
0
100
AcDbLine
62
7
6
CONTINUOUS
10
31.1171536066
20
279.4273208937
11
31.6171536066
21
279.2145549616
0
LINE
5
296
100
AcDbEntity
8
0
100
AcDbLine
62
7
6
CONTINUOUS
10
38.7838205912
20
279.2145549616
11
39.2838205912
21
279.0017890295
0
LINE
5
297
100
AcDbEntity
8
0
100
AcDbLine
62
7
6
CONTINUOUS
10
63.7838186838
20
271.5549803636
11
63.2838186838
21
271.7677462956
0
LINE
5
298
100
AcDbEntity
8
0
100
AcDbLine
62
7
6
CONTINUOUS
10
47.7838205912
20
279.8528527579
11
47.1171526530
21
280.2783846220
0
LINE
5
299
100
AcDbEntity
8
0
100
AcDbLine
62
7
6
CONTINUOUS
10
66.4504866221
20
276.0230653843
11
65.6171545603
21
276.6613631806
0
LINE
5
29A
100
AcDbEntity
8
0
100
AcDbLine
62
7
6
CONTINUOUS
10
66.2838186838
20
279.6400868258
11
65.4504866221
21
280.2783846220
0
LINE
5
29B
100
AcDbEntity
8
0
100
AcDbLine
62
7
6
CONTINUOUS
10
71.4504866221
20
271.5549803636
11
70.9504866221
21
271.9805122277
0
LINE
5
29C
100
AcDbEntity
8
0
100
AcDbLine
62
7
6
CONTINUOUS
10
65.2838186838
20
279.2145549616
11
65.7838186838
21
278.7890230975
0
LINE
5
29D
100
AcDbEntity
8
0
100
AcDbLine
62
7
6
CONTINUOUS
10
66.9504866221
20
272.1932781598
11
67.2838186838
21
273.2571079692
0
LINE
5
29E
100
AcDbEntity
8
0
100
AcDbLine
62
7
6
CONTINUOUS
10
62.4504866221
20
278.1507253012
11
62.7838186838
21
278.7890230975
0
LINE
5
29F
100
AcDbEntity
8
0
100
AcDbLine
62
7
6
CONTINUOUS
10
62.2838186838
20
279.6400868258
11
61.7838186838
21
278.7890230975
0
LINE
5
2A0
100
AcDbEntity
8
0
100
AcDbLine
62
7
6
CONTINUOUS
10
39.6171526530
20
272.4060442409
11
39.2838205912
21
271.9805122277
0
LINE
5
2A1
100
AcDbEntity
8
0
100
AcDbLine
62
7
6
CONTINUOUS
10
39.6171526530
20
276.8741291127
11
39.2838205912
21
276.4485972485
0
LINE
5
2A2
100
AcDbEntity
8
0
100
AcDbLine
62
7
6
CONTINUOUS
10
43.2838205912
20
279.8528527579
11
42.6171526530
21
279.0017890295
0
LINE
5
2A3
100
AcDbEntity
8
0
100
AcDbLine
62
7
6
CONTINUOUS
10
25.9505571252
20
252.2011505541
11
71.9504161189
21
252.2011505541
0
LINE
5
2A4
100
AcDbEntity
8
0
100
AcDbLine
62
7
6
CONTINUOUS
10
223.9505571252
20
252.2011505541
11
269.9504161189
21
252.2011505541
0
LINE
5
2A5
100
AcDbEntity
8
0
100
AcDbLine
62
7
6
CONTINUOUS
10
43.9504866221
20
270.7039165048
11
44.7838205912
21
270.4911505541
0
LINE
5
2A6
100
AcDbEntity
8
0
100
AcDbLine
62
7
6
CONTINUOUS
10
63.1171545603
20
270.7039165048
11
63.9504866221
21
270.4911505541
0
LINE
5
2A7
100
AcDbEntity
8
0
100
AcDbLine
62
7
6
CONTINUOUS
10
31.7838196375
20
280.2783846220
11
30.9504866221
21
280.4911505541
0
LINE
5
2A8
100
AcDbEntity
8
0
100
AcDbLine
62
7
6
CONTINUOUS
10
72.2838186838
20
271.3422143570
11
71.4504866221
21
271.5549803636
0
LINE
5
2A9
100
AcDbEntity
8
0
100
AcDbLine
62
7
6
CONTINUOUS
10
46.2838205912
20
279.2145549616
11
46.9504866221
21
279.0017890295
0
LINE
5
2AA
100
AcDbEntity
8
0
100
AcDbLine
62
7
6
CONTINUOUS
10
70.7838186838
20
270.9166824555
11
71.2838186838
21
270.7039165048
0
LINE
5
2AB
100
AcDbEntity
8
0
100
AcDbLine
62
7
6
CONTINUOUS
10
64.9504866221
20
275.8102994522
11
65.4504866221
21
275.5975335202
0
LINE
5
2AC
100
AcDbEntity
8
0
100
AcDbLine
62
7
6
CONTINUOUS
10
64.7838186838
20
279.4273208937
11
65.2838186838
21
279.2145549616
0
LINE
5
2AD
100
AcDbEntity
8
0
100
AcDbLine
62
7
6
CONTINUOUS
10
100.9504866221
20
295.9457132007
11
100.9504866221
21
273.2019144023
0
LINE
5
2AE
100
AcDbEntity
8
0
100
AcDbLine
62
7
6
CONTINUOUS
10
66.2838186838
20
272.8315761051
11
65.9504866221
21
272.1932781598
0
LINE
5
2AF
100
AcDbEntity
8
0
100
AcDbLine
62
7
6
CONTINUOUS
10
66.4504866221
20
271.3422143570
11
66.9504866221
21
272.1932781598
0
LINE
5
2B0
100
AcDbEntity
8
0
100
AcDbLine
62
7
6
CONTINUOUS
10
58.9504866221
20
280.4911505541
11
57.9504866221
21
279.0017890295
0
LINE
5
2B1
100
AcDbEntity
8
0
100
AcDbLine
62
7
6
CONTINUOUS
10
57.9504866221
20
277.2996609768
11
58.9504866221
21
278.7890230975
0
LINE
5
2B2
100
AcDbEntity
8
0
100
AcDbLine
62
7
6
CONTINUOUS
10
47.7838205912
20
271.1294484249
11
48.4504866221
21
271.9805122277
0
LINE
5
2B3
100
AcDbEntity
8
0
100
AcDbLine
62
7
6
CONTINUOUS
10
39.4504866221
20
270.7039165048
11
40.1171526530
21
271.3422143570
0
LINE
5
2B4
100
AcDbEntity
8
0
100
AcDbLine
62
7
6
CONTINUOUS
10
16.8023370633
20
260.2011505541
11
73.4504866221
21
260.2011505541
0
LINE
5
2B5
100
AcDbEntity
8
0
100
AcDbLine
62
7
6
CONTINUOUS
10
222.4504866221
20
260.2011505541
11
279.0986361808
21
260.2011505541
0
LINE
5
2B6
100
AcDbEntity
8
0
100
AcDbLine
62
7
6
CONTINUOUS
10
74.9411871981
20
260.7011505541
11
220.9597860547
21
260.7011505541
0
LINE
5
2B7
100
AcDbEntity
8
0
100
AcDbLine
62
7
6
CONTINUOUS
10
71.2838186838
20
270.7039165048
11
72.2838186838
21
270.4911505541
0
LINE
5
2B8
100
AcDbEntity
8
0
100
AcDbLine
62
7
6
CONTINUOUS
10
39.4504866221
20
280.2783846220
11
38.6171526530
21
280.4911505541
0
LINE
5
2B9
100
AcDbEntity
8
0
100
AcDbLine
62
7
6
CONTINUOUS
10
47.1171526530
20
280.2783846220
11
46.2838205912
21
280.4911505541
0
LINE
5
2BA
100
AcDbEntity
8
0
100
AcDbLine
62
7
6
CONTINUOUS
10
65.6171545603
20
276.6613631806
11
64.7838186838
21
276.8741291127
0
LINE
5
2BB
100
AcDbEntity
8
0
100
AcDbLine
62
7
6
CONTINUOUS
10
65.4504866221
20
280.2783846220
11
64.6171545603
21
280.4911505541
0
LINE
5
2BC
100
AcDbEntity
8
0
100
AcDbLine
62
7
6
CONTINUOUS
10
62.4504866221
20
274.7464697918
11
62.7838186838
21
275.1720016560
0
LINE
5
2BD
100
AcDbEntity
8
0
100
AcDbLine
62
7
6
CONTINUOUS
10
43.6171526530
20
278.5762571654
11
44.1171526530
21
279.0017890295
0
LINE
5
2BE
100
AcDbEntity
8
0
100
AcDbLine
62
7
6
CONTINUOUS
10
47.4504866221
20
272.4060442409
11
46.9504866221
21
271.9805122277
0
LINE
5
2BF
100
AcDbEntity
8
0
100
AcDbLine
62
7
6
CONTINUOUS
10
75.9504866221
20
268.7011505541
11
219.9504866221
21
268.7011505541
0
LINE
5
2C0
100
AcDbEntity
8
0
100
AcDbLine
62
7
6
CONTINUOUS
10
21.6171533682
20
270.4911505541
11
22.9504866221
21
270.4911505541
0
LINE
5
2C1
100
AcDbEntity
8
0
100
AcDbLine
62
7
6
CONTINUOUS
10
26.9504866221
20
270.4911505541
11
27.9504866221
21
270.4911505541
0
LINE
5
2C2
100
AcDbEntity
8
0
100
AcDbLine
62
7
6
CONTINUOUS
10
32.1171536066
20
270.4911505541
11
33.2838196375
21
270.4911505541
0
LINE
5
2C3
100
AcDbEntity
8
0
100
AcDbLine
62
7
6
CONTINUOUS
10
34.6171536066
20
270.4911505541
11
38.6171526530
21
270.4911505541
0
LINE
5
2C4
100
AcDbEntity
8
0
100
AcDbLine
62
7
6
CONTINUOUS
10
44.7838205912
20
270.4911505541
11
46.2838205912
21
270.4911505541
0
LINE
5
2C5
100
AcDbEntity
8
0
100
AcDbLine
62
7
6
CONTINUOUS
10
58.9504866221
20
270.4911505541
11
59.9504866221
21
270.4911505541
0
LINE
5
2C6
100
AcDbEntity
8
0
100
AcDbLine
62
7
6
CONTINUOUS
10
63.9504866221
20
270.4911505541
11
64.7838186838
21
270.4911505541
0
LINE
5
2C7
100
AcDbEntity
8
0
100
AcDbLine
62
7
6
CONTINUOUS
10
64.9504866221
20
271.5549803636
11
63.7838186838
21
271.5549803636
0
LINE
5
2C8
100
AcDbEntity
8
0
100
AcDbLine
62
7
6
CONTINUOUS
10
46.2838205912
20
271.7677462956
11
44.7838205912
21
271.7677462956
0
LINE
5
2C9
100
AcDbEntity
8
0
100
AcDbLine
62
7
6
CONTINUOUS
10
38.7838205912
20
271.7677462956
11
35.6171526530
21
271.7677462956
0
LINE
5
2CA
100
AcDbEntity
8
0
100
AcDbLine
62
7
6
CONTINUOUS
10
75.9504866221
20
273.2011505541
11
100.9504866221
21
273.2011505541
0
LINE
5
2CB
100
AcDbEntity
8
0
100
AcDbLine
62
7
6
CONTINUOUS
10
194.9504866221
20
273.2011505541
11
219.9504866221
21
273.2011505541
0
LINE
5
2CC
100
AcDbEntity
8
0
100
AcDbLine
62
7
6
CONTINUOUS
10
46.1171526530
20
274.7464697918
11
47.6171526530
21
274.7464697918
0
LINE
5
2CD
100
AcDbEntity
8
0
100
AcDbLine
62
7
6
CONTINUOUS
10
27.9504866221
20
274.9592357239
11
30.7838196375
21
274.9592357239
0
LINE
5
2CE
100
AcDbEntity
8
0
100
AcDbLine
62
7
6
CONTINUOUS
10
35.6171526530
20
274.9592357239
11
38.7838205912
21
274.9592357239
0
LINE
5
2CF
100
AcDbEntity
8
0
100
AcDbLine
62
7
6
CONTINUOUS
10
63.7838186838
20
275.8102994522
11
64.9504866221
21
275.8102994522
0
LINE
5
2D0
100
AcDbEntity
8
0
100
AcDbLine
62
7
6
CONTINUOUS
10
48.6171526530
20
276.0230653843
11
46.1171526530
21
276.0230653843
0
LINE
5
2D1
100
AcDbEntity
8
0
100
AcDbLine
62
7
6
CONTINUOUS
10
100.9504866221
20
276.2011505541
11
194.9504866221
21
276.2011505541
0
LINE
5
2D2
100
AcDbEntity
8
0
100
AcDbLine
62
7
6
CONTINUOUS
10
38.7838205912
20
276.2358313164
11
35.6171526530
21
276.2358313164
0
LINE
5
2D3
100
AcDbEntity
8
0
100
AcDbLine
62
7
6
CONTINUOUS
10
31.1171536066
20
276.2358313164
11
27.9504866221
21
276.2358313164
0
LINE
5
2D4
100
AcDbEntity
8
0
100
AcDbLine
62
7
6
CONTINUOUS
10
68.6171545603
20
276.4485972485
11
69.9504866221
21
276.4485972485
0
LINE
5
2D5
100
AcDbEntity
8
0
100
AcDbLine
62
7
6
CONTINUOUS
10
70.7838186838
20
276.4485972485
11
72.6171545603
21
276.4485972485
0
LINE
5
2D6
100
AcDbEntity
8
0
100
AcDbLine
62
7
6
CONTINUOUS
10
64.7838186838
20
276.8741291127
11
63.9504866221
21
276.8741291127
0
LINE
5
2D7
100
AcDbEntity
8
0
100
AcDbLine
62
7
6
CONTINUOUS
10
72.6171545603
20
277.2996609768
11
70.7838186838
21
277.2996609768
0
LINE
5
2D8
100
AcDbEntity
8
0
100
AcDbLine
62
7
6
CONTINUOUS
10
69.9504866221
20
277.2996609768
11
68.6171545603
21
277.2996609768
0
LINE
5
2D9
100
AcDbEntity
8
0
100
AcDbLine
62
7
6
CONTINUOUS
10
62.7838186838
20
278.7890230975
11
63.2838186838
21
279.2145549616
0
LINE
5
2DA
100
AcDbEntity
8
0
100
AcDbLine
62
7
6
CONTINUOUS
10
63.1171545603
20
276.6613631806
11
62.1171545603
21
275.8102994522
0
LINE
5
2DB
100
AcDbEntity
8
0
100
AcDbLine
62
7
6
CONTINUOUS
10
62.7838186838
20
275.1720016560
11
63.2838186838
21
275.5975335202
0
LINE
5
2DC
100
AcDbEntity
8
0
100
AcDbLine
62
7
6
CONTINUOUS
10
65.9504866221
20
272.1932781598
11
65.4504866221
21
271.7677462956
0
LINE
5
2DD
100
AcDbEntity
8
0
100
AcDbLine
62
7
6
CONTINUOUS
10
63.1171545603
20
280.2783846220
11
62.2838186838
21
279.6400868258
0
LINE
5
2DE
100
AcDbEntity
8
0
100
AcDbLine
62
7
6
CONTINUOUS
10
31.7838196375
20
275.3847675881
11
32.4504866221
21
275.8102994522
0
LINE
5
2DF
100
AcDbEntity
8
0
100
AcDbLine
62
7
6
CONTINUOUS
10
43.9504866221
20
280.2783846220
11
43.2838205912
21
279.8528527579
0
LINE
5
2E0
100
AcDbEntity
8
0
100
AcDbLine
62
7
6
CONTINUOUS
10
39.7838205912
20
275.5975335202
11
40.1171526530
21
275.8102994522
0
LINE
5
2E1
100
AcDbEntity
8
0
100
AcDbLine
62
7
6
CONTINUOUS
10
156.2484140141
20
288.3713633147
11
155.5161476221
21
288.2011505541
0
LINE
5
2E2
100
AcDbEntity
8
0
100
AcDbLine
62
7
6
CONTINUOUS
10
149.2186611761
20
288.3713633147
11
148.4863956221
21
288.2011505541
0
LINE
5
2E3
100
AcDbEntity
8
0
100
AcDbLine
62
7
6
CONTINUOUS
10
47.6171526530
20
277.9379587731
11
48.6171526530
21
277.9379587731
0
LINE
5
2E4
100
AcDbEntity
8
0
100
AcDbLine
62
7
6
CONTINUOUS
10
66.1171545603
20
278.1507253012
11
66.9504866221
21
278.1507253012
0
LINE
5
2E5
100
AcDbEntity
8
0
100
AcDbLine
62
7
6
CONTINUOUS
10
70.7838186838
20
279.0017890295
11
69.9504866221
21
279.0017890295
0
LINE
5
2E6
100
AcDbEntity
8
0
100
AcDbLine
62
7
6
CONTINUOUS
10
35.6171526530
20
279.2145549616
11
38.7838205912
21
279.2145549616
0
LINE
5
2E7
100
AcDbEntity
8
0
100
AcDbLine
62
7
6
CONTINUOUS
10
44.7838205912
20
279.2145549616
11
46.2838205912
21
279.2145549616
0
LINE
5
2E8
100
AcDbEntity
8
0
100
AcDbLine
62
7
6
CONTINUOUS
10
27.9504866221
20
279.4273208937
11
31.1171536066
21
279.4273208937
0
LINE
5
2E9
100
AcDbEntity
8
0
100
AcDbLine
62
7
6
CONTINUOUS
10
63.7838186838
20
279.4273208937
11
64.7838186838
21
279.4273208937
0
LINE
5
2EA
100
AcDbEntity
8
0
100
AcDbLine
62
7
6
CONTINUOUS
10
64.6171545603
20
280.4911505541
11
63.9504866221
21
280.4911505541
0
LINE
5
2EB
100
AcDbEntity
8
0
100
AcDbLine
62
7
6
CONTINUOUS
10
59.9504866221
20
280.4911505541
11
58.9504866221
21
280.4911505541
0
LINE
5
2EC
100
AcDbEntity
8
0
100
AcDbLine
62
7
6
CONTINUOUS
10
46.2838205912
20
280.4911505541
11
44.7838205912
21
280.4911505541
0
LINE
5
2ED
100
AcDbEntity
8
0
100
AcDbLine
62
7
6
CONTINUOUS
10
38.6171526530
20
280.4911505541
11
34.6171536066
21
280.4911505541
0
LINE
5
2EE
100
AcDbEntity
8
0
100
AcDbLine
62
7
6
CONTINUOUS
10
30.9504866221
20
280.4911505541
11
26.9504866221
21
280.4911505541
0
LINE
5
2EF
100
AcDbEntity
8
0
100
AcDbLine
62
7
6
CONTINUOUS
10
25.6171531298
20
280.4911505541
11
24.6171531298
21
280.4911505541
0
LINE
5
2F0
100
AcDbEntity
8
0
100
AcDbLine
62
7
6
CONTINUOUS
10
19.9504866221
20
280.4911505541
11
18.9504866221
21
280.4911505541
0
LINE
5
2F1
100
AcDbEntity
8
0
100
AcDbLine
62
7
6
CONTINUOUS
10
138.8204866221
20
288.2011505541
11
139.6992056221
21
288.2011505541
0
LINE
5
2F2
100
AcDbEntity
8
0
100
AcDbLine
62
7
6
CONTINUOUS
10
143.3605346491
20
288.2011505541
11
144.3857070951
21
288.2011505541
0
LINE
5
2F3
100
AcDbEntity
8
0
100
AcDbLine
62
7
6
CONTINUOUS
10
147.9005826761
20
288.2011505541
11
148.4863956221
21
288.2011505541
0
LINE
5
2F4
100
AcDbEntity
8
0
100
AcDbLine
62
7
6
CONTINUOUS
10
152.0012716221
20
288.2011505541
11
155.5161476221
21
288.2011505541
0
LINE
5
2F5
100
AcDbEntity
8
0
100
AcDbLine
62
7
6
CONTINUOUS
10
147.1683171221
20
288.3713633147
11
147.9005826761
21
288.2011505541
0
LINE
5
2F6
100
AcDbEntity
8
0
100
AcDbLine
62
7
6
CONTINUOUS
10
65.6171545603
20
270.7039165048
11
66.4504866221
21
271.3422143570
0
LINE
5
2F7
100
AcDbEntity
8
0
100
AcDbLine
62
7
6
CONTINUOUS
10
47.1171526530
20
270.7039165048
11
47.7838205912
21
271.1294484249
0
LINE
5
2F8
100
AcDbEntity
8
0
100
AcDbLine
62
7
6
CONTINUOUS
10
31.6171536066
20
276.4485972485
11
31.1171536066
21
276.2358313164
0
LINE
5
2F9
100
AcDbEntity
8
0
100
AcDbLine
62
7
6
CONTINUOUS
10
39.2838205912
20
276.4485972485
11
38.7838205912
21
276.2358313164
0
LINE
5
2FA
100
AcDbEntity
8
0
100
AcDbLine
62
7
6
CONTINUOUS
10
64.7838186838
20
270.4911505541
11
65.6171545603
21
270.7039165048
0
LINE
5
2FB
100
AcDbEntity
8
0
100
AcDbLine
62
7
6
CONTINUOUS
10
46.2838205912
20
270.4911505541
11
47.1171526530
21
270.7039165048
0
LINE
5
2FC
100
AcDbEntity
8
0
100
AcDbLine
62
7
6
CONTINUOUS
10
63.9504866221
20
276.8741291127
11
63.1171545603
21
276.6613631806
0
LINE
5
2FD
100
AcDbEntity
8
0
100
AcDbLine
62
7
6
CONTINUOUS
10
38.6171526530
20
270.4911505541
11
39.4504866221
21
270.7039165048
0
LINE
5
2FE
100
AcDbEntity
8
0
100
AcDbLine
62
7
6
CONTINUOUS
10
205.2504863837
20
303.9264696950
11
204.0004868605
21
303.6711505541
0
LINE
5
2FF
100
AcDbEntity
8
0
100
AcDbLine
62
7
6
CONTINUOUS
10
201.5004863837
20
311.0754057059
11
202.7504866221
21
311.3307248244
0
LINE
5
300
100
AcDbEntity
8
0
100
AcDbLine
62
7
6
CONTINUOUS
10
147.9005826761
20
289.2224271473
11
148.4863956221
21
289.2224271473
0
LINE
5
301
100
AcDbEntity
8
0
100
AcDbLine
62
7
6
CONTINUOUS
10
152.8799906221
20
289.2224271473
11
155.5161476221
21
289.2224271473
0
LINE
5
302
100
AcDbEntity
8
0
100
AcDbLine
62
7
6
CONTINUOUS
10
139.6992056221
20
291.7756186900
11
142.1889093856
21
291.7756186900
0
LINE
5
303
100
AcDbEntity
8
0
100
AcDbLine
62
7
6
CONTINUOUS
10
142.4818156491
20
292.7968951640
11
139.6992056221
21
292.7968951640
0
LINE
5
304
100
AcDbEntity
8
0
100
AcDbLine
62
7
6
CONTINUOUS
10
152.8799906221
20
295.1798740801
11
155.5161476221
21
295.1798740801
0
LINE
5
305
100
AcDbEntity
8
0
100
AcDbLine
62
7
6
CONTINUOUS
10
139.6992056221
20
295.3500868258
11
142.4818156491
21
295.3500868258
0
LINE
5
306
100
AcDbEntity
8
0
100
AcDbLine
62
7
6
CONTINUOUS
10
155.5161476221
20
296.2011505541
11
152.0012716221
21
296.2011505541
0
LINE
5
307
100
AcDbEntity
8
0
100
AcDbLine
62
7
6
CONTINUOUS
10
150.8296465681
20
296.2011505541
11
149.9509275681
21
296.2011505541
0
LINE
5
308
100
AcDbEntity
8
0
100
AcDbLine
62
7
6
CONTINUOUS
10
146.4360515681
20
296.2011505541
11
145.5573321491
21
296.2011505541
0
LINE
5
309
100
AcDbEntity
8
0
100
AcDbLine
62
7
6
CONTINUOUS
10
142.3353626221
20
296.2011505541
11
138.8204866221
21
296.2011505541
0
LINE
5
30A
100
AcDbEntity
8
0
100
AcDbLine
62
7
6
CONTINUOUS
10
143.0676285951
20
296.0309378085
11
142.3353626221
21
296.2011505541
0
LINE
5
30B
100
AcDbEntity
8
0
100
AcDbLine
62
7
6
CONTINUOUS
10
156.2484140141
20
296.0309378085
11
155.5161476221
21
296.2011505541
0
LINE
5
30C
100
AcDbEntity
8
0
100
AcDbLine
62
7
6
CONTINUOUS
10
147.3147705681
20
289.3926398930
11
147.9005826761
21
289.2224271473
0
LINE
5
30D
100
AcDbEntity
8
0
100
AcDbLine
62
7
6
CONTINUOUS
10
155.5161476221
20
295.1798740801
11
156.1019597301
21
295.0096613345
0
LINE
5
30E
100
AcDbEntity
8
0
100
AcDbLine
62
7
6
CONTINUOUS
10
142.4818156491
20
295.3500868258
11
142.9211751491
21
295.1798740801
0
LINE
5
30F
100
AcDbEntity
8
0
100
AcDbLine
62
7
6
CONTINUOUS
10
146.5825041761
20
288.7117888507
11
147.1683171221
21
288.3713633147
0
LINE
5
310
100
AcDbEntity
8
0
100
AcDbLine
62
7
6
CONTINUOUS
10
146.8754110681
20
289.7330655035
11
147.3147705681
21
289.3926398930
0
LINE
5
311
100
AcDbEntity
8
0
100
AcDbLine
62
7
6
CONTINUOUS
10
143.6534411221
20
295.5202995715
11
143.0676285951
21
296.0309378085
0
LINE
5
312
100
AcDbEntity
8
0
100
AcDbLine
62
7
6
CONTINUOUS
10
231.9504866221
20
200.7011505541
11
234.9504866221
21
197.7011505541
0
LINE
5
313
100
AcDbEntity
8
0
100
AcDbLine
62
7
6
CONTINUOUS
10
145.9966920681
20
289.3926398930
11
146.5825041761
21
288.7117888507
0
LINE
5
314
100
AcDbEntity
8
0
100
AcDbLine
62
7
6
CONTINUOUS
10
142.9211751491
20
295.1798740801
11
143.2140816221
21
294.8394485888
0
LINE
5
315
100
AcDbEntity
8
0
100
AcDbLine
62
7
6
CONTINUOUS
10
144.0928006221
20
294.8394485888
11
143.6534411221
21
295.5202995715
0
LINE
5
316
100
AcDbEntity
8
0
100
AcDbLine
62
7
6
CONTINUOUS
10
146.5825041761
20
290.2437037405
11
146.8754110681
21
289.7330655035
0
LINE
5
317
100
AcDbEntity
8
0
100
AcDbLine
62
7
6
CONTINUOUS
10
145.7037855951
20
290.0734909949
11
145.9966920681
21
289.3926398930
0
LINE
5
318
100
AcDbEntity
8
0
100
AcDbLine
62
7
6
CONTINUOUS
10
143.0676285951
20
292.1160441813
11
144.3857070951
21
288.2011505541
0
LINE
5
319
100
AcDbEntity
8
0
100
AcDbLine
62
7
6
CONTINUOUS
10
142.1889093856
20
291.7756186900
11
143.3605346491
21
288.2011505541
0
LINE
5
31A
100
AcDbEntity
8
0
100
AcDbLine
62
7
6
CONTINUOUS
10
138.8204866221
20
288.2011505541
11
138.8204866221
21
296.2011505541
0
LINE
5
31B
100
AcDbEntity
8
0
100
AcDbLine
62
7
6
CONTINUOUS
10
139.6992056221
20
291.7756186900
11
139.6992056221
21
288.2011505541
0
LINE
5
31C
100
AcDbEntity
8
0
100
AcDbLine
62
7
6
CONTINUOUS
10
139.6992056221
20
292.7968951640
11
139.6992056221
21
295.3500868258
0
LINE
5
31D
100
AcDbEntity
8
0
100
AcDbLine
62
7
6
CONTINUOUS
10
143.3605346491
20
294.3288103518
11
143.3605346491
21
293.8181716380
0
LINE
5
31E
100
AcDbEntity
8
0
100
AcDbLine
62
7
6
CONTINUOUS
10
144.2392536491
20
293.6479588923
11
144.2392536491
21
294.3288103518
0
LINE
5
31F
100
AcDbEntity
8
0
100
AcDbLine
62
7
6
CONTINUOUS
10
145.5573321491
20
290.9245547232
11
145.5573321491
21
296.2011505541
0
LINE
5
320
100
AcDbEntity
8
0
100
AcDbLine
62
7
6
CONTINUOUS
10
146.4360515681
20
290.9245547232
11
146.4360515681
21
296.2011505541
0
LINE
5
321
100
AcDbEntity
8
DEFAULT_1
100
AcDbLine
62
2
6
CENTER
10
147.9504866221
20
351.2011505541
11
147.9504866221
21
275.2011505541
0
LINE
5
322
100
AcDbEntity
8
DEFAULT_1
100
AcDbLine
62
2
6
CENTER
10
147.9504866221
20
351.2011505541
11
147.9504866221
21
427.2011505541
0
LINE
5
323
100
AcDbEntity
8
0
100
AcDbLine
62
7
6
CONTINUOUS
10
143.3605346491
20
293.8181716380
11
143.2140816221
21
293.3075334010
0
LINE
5
324
100
AcDbEntity
8
0
100
AcDbLine
62
7
6
CONTINUOUS
10
144.0928006221
20
293.1373206553
11
144.2392536491
21
293.6479588923
0
LINE
5
325
100
AcDbEntity
8
0
100
AcDbLine
62
7
6
CONTINUOUS
10
39.2838205912
20
271.9805122277
11
38.7838205912
21
271.7677462956
0
LINE
5
326
100
AcDbEntity
8
0
100
AcDbLine
62
7
6
CONTINUOUS
10
63.2838186838
20
279.2145549616
11
63.7838186838
21
279.4273208937
0
LINE
5
327
100
AcDbEntity
8
0
100
AcDbLine
62
7
6
CONTINUOUS
10
63.2838186838
20
275.5975335202
11
63.7838186838
21
275.8102994522
0
LINE
5
328
100
AcDbEntity
8
0
100
AcDbLine
62
7
6
CONTINUOUS
10
44.1171526530
20
279.0017890295
11
44.7838205912
21
279.2145549616
0
LINE
5
329
100
AcDbEntity
8
0
100
AcDbLine
62
7
6
CONTINUOUS
10
63.9504866221
20
280.4911505541
11
63.1171545603
21
280.2783846220
0
LINE
5
32A
100
AcDbEntity
8
0
100
AcDbLine
62
7
6
CONTINUOUS
10
44.7838205912
20
280.4911505541
11
43.9504866221
21
280.2783846220
0
LINE
5
32B
100
AcDbEntity
8
0
100
AcDbLine
62
7
6
CONTINUOUS
10
201.5004863837
20
315.4158314356
11
202.7504866221
21
315.6711505541
0
LINE
5
32C
100
AcDbEntity
8
0
100
AcDbLine
62
7
6
CONTINUOUS
10
204.0004868605
20
303.6711505541
11
202.7504866221
21
303.6711505541
0
LINE
5
32D
100
AcDbEntity
8
0
100
AcDbLine
62
7
6
CONTINUOUS
10
196.7504866221
20
303.6711505541
11
195.2504866221
21
303.6711505541
0
LINE
5
32E
100
AcDbEntity
8
0
100
AcDbLine
62
7
6
CONTINUOUS
10
202.5004868605
20
304.9477463254
11
204.2504866221
21
304.9477463254
0
LINE
5
32F
100
AcDbEntity
8
0
100
AcDbLine
62
7
6
CONTINUOUS
10
204.2504866221
20
310.0541292319
11
202.5004868605
21
310.0541292319
0
LINE
5
330
100
AcDbEntity
8
0
100
AcDbLine
62
7
6
CONTINUOUS
10
202.7504866221
20
311.3307248244
11
204.0004868605
21
311.3307248244
0
LINE
5
331
100
AcDbEntity
8
0
100
AcDbLine
62
7
6
CONTINUOUS
10
156.8342261221
20
295.6905123171
11
156.2484140141
21
296.0309378085
0
LINE
5
332
100
AcDbEntity
8
0
100
AcDbLine
62
7
6
CONTINUOUS
10
156.1019597301
20
295.0096613345
11
156.5413192301
21
294.6692358431
0
LINE
5
333
100
AcDbEntity
8
0
100
AcDbLine
62
7
6
CONTINUOUS
10
157.4200382301
20
295.0096613345
11
156.8342261221
21
295.6905123171
0
LINE
5
334
100
AcDbEntity
8
0
100
AcDbLine
62
7
6
CONTINUOUS
10
156.5413192301
20
294.6692358431
11
156.8342261221
21
294.1585971293
0
LINE
5
335
100
AcDbEntity
8
0
100
AcDbLine
62
7
6
CONTINUOUS
10
143.3605346491
20
294.3288103518
11
143.2140816221
21
294.8394485888
0
LINE
5
336
100
AcDbEntity
8
0
100
AcDbLine
62
7
6
CONTINUOUS
10
144.2392536491
20
294.3288103518
11
144.0928006221
21
294.8394485888
0
LINE
5
337
100
AcDbEntity
8
0
100
AcDbLine
62
7
6
CONTINUOUS
10
146.4360515681
20
290.9245547232
11
146.5825041761
21
290.2437037405
0
LINE
5
338
100
AcDbEntity
8
0
100
AcDbLine
62
7
6
CONTINUOUS
10
145.5573321491
20
290.9245547232
11
145.7037855951
21
290.0734909949
0
LINE
5
339
100
AcDbEntity
8
0
100
AcDbLine
62
7
6
CONTINUOUS
10
149.9509275681
20
290.9245547232
11
149.9509275681
21
296.2011505541
0
LINE
5
33A
100
AcDbEntity
8
0
100
AcDbLine
62
7
6
CONTINUOUS
10
150.8296465681
20
290.9245547232
11
150.8296465681
21
296.2011505541
0
LINE
5
33B
100
AcDbEntity
8
0
100
AcDbLine
62
7
6
CONTINUOUS
10
152.0012716221
20
288.2011505541
11
152.0012716221
21
296.2011505541
0
LINE
5
33C
100
AcDbEntity
8
0
100
AcDbLine
62
7
6
CONTINUOUS
10
152.8799906221
20
289.2224271473
11
152.8799906221
21
295.1798740801
0
LINE
5
33D
100
AcDbEntity
8
0
100
AcDbLine
62
7
6
CONTINUOUS
10
156.9806787301
20
293.4777461466
11
156.9806787301
21
290.9245547232
0
LINE
5
33E
100
AcDbEntity
8
0
100
AcDbLine
62
7
6
CONTINUOUS
10
157.8593977301
20
290.9245547232
11
157.8593977301
21
293.4777461466
0
LINE
5
33F
100
AcDbEntity
8
0
100
AcDbLine
62
7
6
CONTINUOUS
10
150.8296465681
20
290.9245547232
11
150.6831931221
21
290.0734909949
0
LINE
5
340
100
AcDbEntity
8
0
100
AcDbLine
62
7
6
CONTINUOUS
10
157.8593977301
20
290.9245547232
11
157.7129451221
21
290.0734909949
0
LINE
5
341
100
AcDbEntity
8
0
100
AcDbLine
62
7
6
CONTINUOUS
10
149.9509275681
20
290.9245547232
11
149.8044741221
21
290.2437037405
0
LINE
5
342
100
AcDbEntity
8
0
100
AcDbLine
62
7
6
CONTINUOUS
10
156.9806787301
20
290.9245547232
11
156.8342261221
21
290.2437037405
0
LINE
5
343
100
AcDbEntity
8
0
100
AcDbLine
62
7
6
CONTINUOUS
10
150.6831931221
20
290.0734909949
11
150.3902870681
21
289.3926398930
0
LINE
5
344
100
AcDbEntity
8
0
100
AcDbLine
62
7
6
CONTINUOUS
10
149.8044741221
20
290.2437037405
11
149.5115680681
21
289.7330655035
0
LINE
5
345
100
AcDbEntity
8
0
100
AcDbLine
62
7
6
CONTINUOUS
10
143.6534411221
20
292.4564696726
11
144.0928006221
21
293.1373206553
0
LINE
5
346
100
AcDbEntity
8
0
100
AcDbLine
62
7
6
CONTINUOUS
10
143.2140816221
20
293.3075334010
11
142.9211751491
21
292.9671079096
0
LINE
5
347
100
AcDbEntity
8
0
100
AcDbLine
62
7
6
CONTINUOUS
10
65.4504866221
20
271.7677462956
11
64.9504866221
21
271.5549803636
0
LINE
5
348
100
AcDbEntity
8
0
100
AcDbLine
62
7
6
CONTINUOUS
10
46.9504866221
20
271.9805122277
11
46.2838205912
21
271.7677462956
0
LINE
5
349
100
AcDbEntity
8
0
100
AcDbLine
62
7
6
CONTINUOUS
10
207.2504866221
20
312.8626402506
11
206.0004870989
21
312.8626402506
0
LINE
5
34A
100
AcDbEntity
8
0
100
AcDbLine
62
7
6
CONTINUOUS
10
204.0004868605
20
314.3945549616
11
202.5004868605
21
314.3945549616
0
LINE
5
34B
100
AcDbEntity
8
0
100
AcDbLine
62
7
6
CONTINUOUS
10
195.2504866221
20
315.6711505541
11
196.7504866221
21
315.6711505541
0
LINE
5
34C
100
AcDbEntity
8
0
100
AcDbLine
62
7
6
CONTINUOUS
10
202.7504866221
20
315.6711505541
11
203.7504863837
21
315.6711505541
0
LINE
5
34D
100
AcDbEntity
8
0
100
AcDbLine
62
7
6
CONTINUOUS
10
27.4504866221
20
317.7011505541
11
70.4504866221
21
317.7011505541
0
LINE
5
34E
100
AcDbEntity
8
0
100
AcDbLine
62
7
6
CONTINUOUS
10
225.4504866221
20
317.7011505541
11
268.4504866221
21
317.7011505541
0
LINE
5
34F
100
AcDbEntity
8
0
100
AcDbLine
62
7
6
CONTINUOUS
10
202.7504866221
20
303.6711505541
11
201.5004863837
21
303.9264696950
0
LINE
5
350
100
AcDbEntity
8
0
100
AcDbLine
62
7
6
CONTINUOUS
10
204.0004868605
20
311.3307248244
11
205.2504863837
21
311.0754057059
0
LINE
5
351
100
AcDbEntity
8
0
100
AcDbLine
62
7
6
CONTINUOUS
10
201.7504868605
20
305.2030654439
11
202.5004868605
21
304.9477463254
0
LINE
5
352
100
AcDbEntity
8
0
100
AcDbLine
62
7
6
CONTINUOUS
10
157.7129451221
20
294.3288103518
11
157.4200382301
21
295.0096613345
0
LINE
5
353
100
AcDbEntity
8
0
100
AcDbLine
62
7
6
CONTINUOUS
10
156.8342261221
20
294.1585971293
11
156.9806787301
21
293.4777461466
0
LINE
5
354
100
AcDbEntity
8
0
100
AcDbLine
62
7
6
CONTINUOUS
10
157.8593977301
20
293.4777461466
11
157.7129451221
21
294.3288103518
0
LINE
5
355
100
AcDbEntity
8
0
100
AcDbLine
62
7
6
CONTINUOUS
10
157.7129451221
20
290.0734909949
11
157.4200382301
21
289.3926398930
0
LINE
5
356
100
AcDbEntity
8
0
100
AcDbLine
62
7
6
CONTINUOUS
10
156.8342261221
20
290.2437037405
11
156.5413192301
21
289.7330655035
0
LINE
5
357
100
AcDbEntity
8
0
100
AcDbLine
62
7
6
CONTINUOUS
10
150.3902870681
20
289.3926398930
11
149.8044741221
21
288.7117888507
0
LINE
5
358
100
AcDbEntity
8
0
100
AcDbLine
62
7
6
CONTINUOUS
10
157.4200382301
20
289.3926398930
11
156.8342261221
21
288.7117888507
0
LINE
5
359
100
AcDbEntity
8
0
100
AcDbLine
62
7
6
CONTINUOUS
10
63.9504866221
20
200.7011505541
11
60.9504866221
21
197.7011505541
0
LINE
5
35A
100
AcDbEntity
8
0
100
AcDbLine
62
7
6
CONTINUOUS
10
149.5115680681
20
289.7330655035
11
149.0722085681
21
289.3926398930
0
LINE
5
35B
100
AcDbEntity
8
0
100
AcDbLine
62
7
6
CONTINUOUS
10
156.5413192301
20
289.7330655035
11
156.1019597301
21
289.3926398930
0
LINE
5
35C
100
AcDbEntity
8
0
100
AcDbLine
62
7
6
CONTINUOUS
10
200.2504868605
20
314.6498740801
11
201.5004863837
21
315.4158314356
0
LINE
5
35D
100
AcDbEntity
8
0
100
AcDbLine
62
7
6
CONTINUOUS
10
143.0676285951
20
292.1160441813
11
143.6534411221
21
292.4564696726
0
LINE
5
35E
100
AcDbEntity
8
0
100
AcDbLine
62
7
6
CONTINUOUS
10
149.8044741221
20
288.7117888507
11
149.2186611761
21
288.3713633147
0
LINE
5
35F
100
AcDbEntity
8
0
100
AcDbLine
62
7
6
CONTINUOUS
10
156.8342261221
20
288.7117888507
11
156.2484140141
21
288.3713633147
0
LINE
5
360
100
AcDbEntity
8
0
100
AcDbLine
62
7
6
CONTINUOUS
10
142.9211751491
20
292.9671079096
11
142.4818156491
21
292.7968951640
0
LINE
5
361
100
AcDbEntity
8
0
100
AcDbLine
62
7
6
CONTINUOUS
10
202.5004868605
20
314.3945549616
11
201.7504868605
21
314.1392358431
0
LINE
5
362
100
AcDbEntity
8
0
100
AcDbLine
62
7
6
CONTINUOUS
10
202.5004868605
20
310.0541292319
11
201.7504868605
21
309.7988101134
0
LINE
5
363
100
AcDbEntity
8
0
100
AcDbLine
62
7
6
CONTINUOUS
10
204.2504866221
20
304.9477463254
11
205.0004866221
21
305.2030654439
0
LINE
5
364
100
AcDbEntity
8
0
100
AcDbLine
62
7
6
CONTINUOUS
10
149.0722085681
20
289.3926398930
11
148.4863956221
21
289.2224271473
0
LINE
5
365
100
AcDbEntity
8
0
100
AcDbLine
62
7
6
CONTINUOUS
10
156.1019597301
20
289.3926398930
11
155.5161476221
21
289.2224271473
0
LINE
5
366
100
AcDbEntity
8
0
100
AcDbLine
62
7
6
CONTINUOUS
10
31.1106855116
20
322.8036102547
11
72.8470144126
21
327.1902751867
0
LINE
5
367
100
AcDbEntity
8
0
100
AcDbLine
62
7
6
CONTINUOUS
10
73.0551101999
20
327.2011336502
11
72.8461161873
21
327.1901807794
0
LINE
5
368
100
AcDbEntity
8
0
100
AcDbLine
62
7
6
CONTINUOUS
10
74.2092507540
20
327.2011505541
11
73.0318070986
21
327.2011505541
0
LINE
5
369
100
AcDbEntity
8
0
100
AcDbLine
62
7
6
CONTINUOUS
10
221.6917224902
20
327.2011505541
11
222.8691661455
21
327.2011505541
0
LINE
5
36A
100
AcDbEntity
8
0
100
AcDbLine
62
7
6
CONTINUOUS
10
223.0548570568
20
327.1901807794
11
222.8458630442
21
327.2011336502
0
LINE
5
36B
100
AcDbEntity
8
0
100
AcDbLine
62
7
6
CONTINUOUS
10
264.7902877325
20
322.8036102547
11
223.0539588315
21
327.1902751867
0
LINE
5
36C
100
AcDbEntity
8
0
100
AcDbLine
62
7
6
CONTINUOUS
10
203.7504863837
20
315.6711505541
11
205.0004866221
21
315.4158314356
0
LINE
5
36D
100
AcDbEntity
8
0
100
AcDbLine
62
7
6
CONTINUOUS
10
205.0004866221
20
309.7988101134
11
204.2504866221
21
310.0541292319
0
LINE
5
36E
100
AcDbEntity
8
0
100
AcDbLine
62
7
6
CONTINUOUS
10
204.7504868605
20
314.1392358431
11
204.0004868605
21
314.3945549616
0
LINE
5
36F
100
AcDbEntity
8
0
100
AcDbLine
62
7
6
CONTINUOUS
10
201.5004863837
20
303.9264696950
11
200.2504868605
21
304.6924271175
0
LINE
5
370
100
AcDbEntity
8
0
100
AcDbLine
62
7
6
CONTINUOUS
10
193.7504866221
20
313.8839167246
11
195.2504866221
21
315.6711505541
0
LINE
5
371
100
AcDbEntity
8
0
100
AcDbLine
62
7
6
CONTINUOUS
10
195.2504866221
20
313.6285976061
11
193.7504866221
21
311.8413630614
0
LINE
5
372
100
AcDbEntity
8
0
100
AcDbLine
62
7
6
CONTINUOUS
10
201.7504868605
20
314.1392358431
11
201.0004868605
21
313.6285976061
0
LINE
5
373
100
AcDbEntity
8
0
100
AcDbLine
62
7
6
CONTINUOUS
10
200.0004863837
20
310.0541292319
11
201.5004863837
21
311.0754057059
0
LINE
5
374
100
AcDbEntity
8
0
100
AcDbLine
62
7
6
CONTINUOUS
10
201.7504868605
20
309.7988101134
11
201.0004868605
21
309.2881718764
0
LINE
5
375
100
AcDbEntity
8
0
100
AcDbLine
62
7
6
CONTINUOUS
10
206.5004866221
20
304.6924271175
11
205.2504863837
21
303.9264696950
0
LINE
5
376
100
AcDbEntity
8
0
100
AcDbLine
62
7
6
CONTINUOUS
10
205.2504863837
20
311.0754057059
11
206.5004866221
21
310.3094483504
0
LINE
5
377
100
AcDbEntity
8
0
100
AcDbLine
62
7
6
CONTINUOUS
10
205.0004866221
20
315.4158314356
11
206.2504861452
21
314.6498740801
0
LINE
5
378
100
AcDbEntity
8
0
100
AcDbLine
62
7
6
CONTINUOUS
10
201.0004868605
20
305.7137036809
11
201.7504868605
21
305.2030654439
0
LINE
5
379
100
AcDbEntity
8
0
100
AcDbLine
62
7
6
CONTINUOUS
10
205.7504866221
20
309.2881718764
11
205.0004866221
21
309.7988101134
0
LINE
5
37A
100
AcDbEntity
8
0
100
AcDbLine
62
7
6
CONTINUOUS
10
205.5004868605
20
313.6285976061
11
204.7504868605
21
314.1392358431
0
LINE
5
37B
100
AcDbEntity
8
0
100
AcDbLine
62
7
6
CONTINUOUS
10
193.7504866221
20
311.8413630614
11
193.7504866221
21
313.8839167246
0
LINE
5
37C
100
AcDbEntity
8
0
100
AcDbLine
62
7
6
CONTINUOUS
10
194.9504866221
20
295.9457132007
11
194.9504866221
21
273.2019144023
0
LINE
5
37D
100
AcDbEntity
8
0
100
AcDbLine
62
7
6
CONTINUOUS
10
195.2504866221
20
303.6711505541
11
195.2504866221
21
313.6285976061
0
LINE
5
37E
100
AcDbEntity
8
0
100
AcDbLine
62
7
6
CONTINUOUS
10
199.0004866221
20
312.3520012984
11
199.5004865029
21
313.6285976061
0
LINE
5
37F
100
AcDbEntity
8
0
100
AcDbLine
62
7
6
CONTINUOUS
10
201.0004868605
20
313.6285976061
11
200.5004866221
21
312.8626402506
0
LINE
5
380
100
AcDbEntity
8
0
100
AcDbLine
62
7
6
CONTINUOUS
10
199.5004865029
20
313.6285976061
11
200.2504868605
21
314.6498740801
0
LINE
5
381
100
AcDbEntity
8
0
100
AcDbLine
62
7
6
CONTINUOUS
10
201.0004868605
20
309.2881718764
11
200.5004866221
21
308.7775336394
0
LINE
5
382
100
AcDbEntity
8
0
100
AcDbLine
62
7
6
CONTINUOUS
10
205.0004866221
20
305.2030654439
11
205.7504866221
21
305.7137036809
0
LINE
5
383
100
AcDbEntity
8
DEFAULT_1
100
AcDbLine
62
2
6
CENTER
10
147.9504866221
20
351.2011505541
11
71.9504866221
21
351.2011505541
0
LINE
5
384
100
AcDbEntity
8
DEFAULT_1
100
AcDbLine
62
2
6
CENTER
10
147.9504866221
20
351.2011505541
11
223.9504866221
21
351.2011505541
0
LINE
5
385
100
AcDbEntity
8
0
100
AcDbLine
62
7
6
CONTINUOUS
10
206.2504861452
20
308.7775336394
11
205.7504866221
21
309.2881718764
0
LINE
5
386
100
AcDbEntity
8
0
100
AcDbLine
62
7
6
CONTINUOUS
10
206.5004866221
20
310.3094483504
11
207.2504866221
21
309.5434909949
0
LINE
5
387
100
AcDbEntity
8
0
100
AcDbLine
62
7
6
CONTINUOUS
10
200.2504868605
20
304.6924271175
11
199.5004865029
21
305.7137036809
0
LINE
5
388
100
AcDbEntity
8
0
100
AcDbLine
62
7
6
CONTINUOUS
10
200.5004866221
20
306.4796612153
11
201.0004868605
21
305.7137036809
0
LINE
5
389
100
AcDbEntity
8
0
100
AcDbLine
62
7
6
CONTINUOUS
10
199.5004865029
20
305.7137036809
11
199.0004866221
21
306.9902994522
0
LINE
5
38A
100
AcDbEntity
8
0
100
AcDbLine
62
7
6
CONTINUOUS
10
196.7504866221
20
315.6711505541
11
196.7504866221
21
303.6711505541
0
LINE
5
38B
100
AcDbEntity
8
0
100
AcDbLine
62
7
6
CONTINUOUS
10
198.7504865029
20
308.7775336394
11
198.7504865029
21
310.5647674689
0
LINE
5
38C
100
AcDbEntity
8
0
100
AcDbLine
62
7
6
CONTINUOUS
10
200.0004863837
20
310.5647674689
11
200.0004863837
21
310.0541292319
0
LINE
5
38D
100
AcDbEntity
8
0
100
AcDbLine
62
7
6
CONTINUOUS
10
200.2504868605
20
308.0115759262
11
200.2504868605
21
307.2456185707
0
LINE
5
38E
100
AcDbEntity
8
0
100
AcDbLine
62
7
6
CONTINUOUS
10
206.5004866221
20
307.2456185707
11
206.5004866221
21
308.0115759262
0
LINE
5
38F
100
AcDbEntity
8
0
100
AcDbLine
62
7
6
CONTINUOUS
10
207.7504861452
20
308.2668954024
11
207.7504861452
21
306.9902994522
0
LINE
5
390
100
AcDbEntity
8
0
100
AcDbLine
62
7
6
CONTINUOUS
10
198.7504865029
20
310.5647674689
11
199.0004866221
21
312.3520012984
0
LINE
5
391
100
AcDbEntity
8
0
100
AcDbLine
62
7
6
CONTINUOUS
10
200.2504868605
20
312.0966821799
11
200.0004863837
21
310.5647674689
0
LINE
5
392
100
AcDbEntity
8
0
100
AcDbLine
62
7
6
CONTINUOUS
10
200.5004866221
20
312.8626402506
11
200.2504868605
21
312.0966821799
0
LINE
5
393
100
AcDbEntity
8
0
100
AcDbLine
62
7
6
CONTINUOUS
10
200.5004866221
20
308.7775336394
11
200.2504868605
21
308.0115759262
0
LINE
5
394
100
AcDbEntity
8
0
100
AcDbLine
62
7
6
CONTINUOUS
10
206.2504861452
20
306.4796612153
11
206.5004866221
21
307.2456185707
0
LINE
5
395
100
AcDbEntity
8
0
100
AcDbLine
62
7
6
CONTINUOUS
10
207.7504861452
20
306.9902994522
11
207.2504866221
21
305.7137036809
0
LINE
5
396
100
AcDbEntity
8
0
100
AcDbLine
62
7
6
CONTINUOUS
10
205.7504866221
20
305.7137036809
11
206.2504861452
21
306.4796612153
0
LINE
5
397
100
AcDbEntity
8
0
100
AcDbLine
62
7
6
CONTINUOUS
10
207.2504866221
20
305.7137036809
11
206.5004866221
21
304.6924271175
0
LINE
5
398
100
AcDbEntity
8
0
100
AcDbLine
62
7
6
CONTINUOUS
10
206.2504861452
20
314.6498740801
11
207.0004861452
21
313.6285976061
0
LINE
5
399
100
AcDbEntity
8
0
100
AcDbLine
62
7
6
CONTINUOUS
10
206.0004870989
20
312.8626402506
11
205.5004868605
21
313.6285976061
0
LINE
5
39A
100
AcDbEntity
8
0
100
AcDbLine
62
7
6
CONTINUOUS
10
207.2504866221
20
309.5434909949
11
207.7504861452
21
308.2668954024
0
LINE
5
39B
100
AcDbEntity
8
0
100
AcDbLine
62
7
6
CONTINUOUS
10
200.2504868605
20
307.2456185707
11
200.5004866221
21
306.4796612153
0
LINE
5
39C
100
AcDbEntity
8
0
100
AcDbLine
62
7
6
CONTINUOUS
10
206.5004866221
20
308.0115759262
11
206.2504861452
21
308.7775336394
0
LINE
5
39D
100
AcDbEntity
8
0
100
AcDbLine
62
7
6
CONTINUOUS
10
207.0004861452
20
313.6285976061
11
207.2504866221
21
312.8626402506
0
LINE
5
39E
100
AcDbEntity
8
0
100
AcDbLine
62
7
6
CONTINUOUS
10
199.0004866221
20
306.9902994522
11
198.7504865029
21
308.7775336394
0
LINE
5
39F
100
AcDbEntity
8
0
100
AcDbLine
62
7
6
CONTINUOUS
10
220.5505849840
20
343.5705727356
11
215.9970820412
21
300.2468861944
0
LINE
5
3A0
100
AcDbEntity
8
0
100
AcDbLine
62
7
6
CONTINUOUS
10
220.6972026532
20
326.3056790176
11
220.0052676684
21
319.7223573940
0
LINE
5
3A1
100
AcDbEntity
8
0
100
AcDbLine
62
7
6
CONTINUOUS
10
219.9504866221
20
318.6770727613
11
219.9504866221
21
262.7011505541
0
LINE
5
3A2
100
AcDbEntity
8
0
100
AcDbLine
62
7
6
CONTINUOUS
10
223.9504866221
20
260.2011505541
11
223.9504866221
21
252.2011505541
0
LINE
5
3A3
100
AcDbEntity
8
0
100
AcDbLine
62
7
6
CONTINUOUS
10
224.2459067811
20
252.2011505541
11
224.2459067811
21
260.2011505541
0
LINE
5
3A4
100
AcDbEntity
8
0
100
AcDbLine
62
7
6
CONTINUOUS
10
224.4504866221
20
296.1922432212
11
224.4504866221
21
316.7011505541
0
LINE
5
3A5
100
AcDbEntity
8
0
100
AcDbLine
62
7
6
CONTINUOUS
10
231.9504866221
20
252.2011505541
11
231.9504866221
21
200.7011505541
0
LINE
5
3A6
100
AcDbEntity
8
0
100
AcDbLine
62
7
6
CONTINUOUS
10
232.4159741003
20
252.2011505541
11
232.4159741003
21
260.2011505541
0
LINE
5
3A7
100
AcDbEntity
8
0
100
AcDbLine
62
7
6
CONTINUOUS
10
238.7804193029
20
252.2011505541
11
238.7804193029
21
260.2011505541
0
LINE
5
3A8
100
AcDbEntity
8
DEFAULT_1
100
AcDbLine
62
2
6
CENTER
10
246.9504866221
20
197.7011505541
11
246.9504866221
21
290.7011505541
0
LINE
5
3A9
100
AcDbEntity
8
0
100
AcDbLine
62
7
6
CONTINUOUS
10
255.1205539413
20
252.2011505541
11
255.1205539413
21
260.2011505541
0
LINE
5
3AA
100
AcDbEntity
8
0
100
AcDbLine
62
7
6
CONTINUOUS
10
261.4849991438
20
252.2011505541
11
261.4849991438
21
260.2011505541
0
LINE
5
3AB
100
AcDbEntity
8
0
100
AcDbLine
62
7
6
CONTINUOUS
10
261.9504866221
20
252.2011505541
11
261.9504866221
21
200.7011505541
0
LINE
5
3AC
100
AcDbEntity
8
0
100
AcDbLine
62
7
6
CONTINUOUS
10
278.1401892140
20
309.4537087732
11
281.9504866221
21
273.2011505541
0
LINE
5
3AD
100
AcDbEntity
8
0
100
AcDbLine
62
7
6
CONTINUOUS
10
269.4504866221
20
296.1922497785
11
269.4504866221
21
316.7011505541
0
LINE
5
3AE
100
AcDbEntity
8
0
100
AcDbLine
62
7
6
CONTINUOUS
10
269.6550664630
20
252.2011505541
11
269.6550664630
21
260.2011505541
0
LINE
5
3AF
100
AcDbEntity
8
0
100
AcDbLine
62
7
6
CONTINUOUS
10
269.9504866221
20
260.2011505541
11
269.9504866221
21
252.2011505541
0
LINE
5
3B0
100
AcDbEntity
8
0
100
AcDbLine
62
7
6
CONTINUOUS
10
281.9504866221
20
273.2011505541
11
281.9504866221
21
270.2011505541
0
LINE
5
3B1
100
AcDbEntity
8
0
100
AcDbLine
62
7
6
CONTINUOUS
10
281.9504866221
20
270.2011505541
11
281.0876799716
21
261.9920936276
0
LINE
5
3B2
100
AcDbEntity
8
0
100
AcDbLine
62
7
6
CONTINUOUS
10
261.9504866221
20
200.7011505541
11
258.9504866221
21
197.7011505541
0
LINE
5
3B3
100
AcDbEntity
8
0
100
AcDbLine
62
7
6
CONTINUOUS
10
336.7635375601
20
200.7011505541
11
339.7635375601
21
197.7011505541
0
LINE
5
3B4
100
AcDbEntity
8
0
100
AcDbLine
62
7
6
CONTINUOUS
10
467.7629983731
20
197.7011505541
11
443.7640767471
21
197.7011505541
0
LINE
5
3B5
100
AcDbEntity
8
0
100
AcDbLine
62
7
6
CONTINUOUS
10
363.7629983731
20
197.7011505541
11
339.7640767471
21
197.7011505541
0
LINE
5
3B6
100
AcDbEntity
8
0
100
AcDbLine
62
7
6
CONTINUOUS
10
470.7635375601
20
200.7011505541
11
440.7635375601
21
200.7011505541
0
LINE
5
3B7
100
AcDbEntity
8
0
100
AcDbLine
62
7
6
CONTINUOUS
10
366.7635375601
20
200.7011505541
11
336.7635375601
21
200.7011505541
0
LINE
5
3B8
100
AcDbEntity
8
0
100
AcDbLine
62
7
6
CONTINUOUS
10
318.4635375601
20
270.4911505541
11
318.4635375601
21
280.4911505541
0
LINE
5
3B9
100
AcDbEntity
8
0
100
AcDbLine
62
7
6
CONTINUOUS
10
318.7635375601
20
287.1318426022
11
318.7635375601
21
262.7011505541
0
LINE
5
3BA
100
AcDbEntity
8
0
100
AcDbLine
62
7
6
CONTINUOUS
10
329.2635375601
20
293.0146170747
11
329.2635375601
21
316.7011505541
0
LINE
5
3BB
100
AcDbEntity
8
0
100
AcDbLine
62
7
6
CONTINUOUS
10
330.2635375601
20
252.2011505541
11
330.2635375601
21
260.2011505541
0
LINE
5
3BC
100
AcDbEntity
8
0
100
AcDbLine
62
7
6
CONTINUOUS
10
333.9380517110
20
252.2011505541
11
333.9380517110
21
260.2011505541
0
LINE
5
3BD
100
AcDbEntity
8
0
100
AcDbLine
62
7
6
CONTINUOUS
10
336.7635375601
20
252.2011505541
11
336.7635375601
21
200.7011505541
0
LINE
5
3BE
100
AcDbEntity
8
0
100
AcDbLine
62
7
6
CONTINUOUS
10
348.0890234091
20
252.2011505541
11
348.0890234091
21
260.2011505541
0
LINE
5
3BF
100
AcDbEntity
8
0
100
AcDbLine
62
7
6
CONTINUOUS
10
330.2635375601
20
252.2011505541
11
373.2635375601
21
252.2011505541
0
LINE
5
3C0
100
AcDbEntity
8
0
100
AcDbLine
62
7
6
CONTINUOUS
10
434.2635375601
20
252.2011505541
11
477.2635375601
21
252.2011505541
0
LINE
5
3C1
100
AcDbEntity
8
DEFAULT_1
100
AcDbLine
62
2
6
CENTER
10
351.7635375601
20
197.7011505541
11
351.7635375601
21
290.7011505541
0
LINE
5
3C2
100
AcDbEntity
8
0
100
AcDbLine
62
7
6
CONTINUOUS
10
355.4380517110
20
252.2011505541
11
355.4380517110
21
260.2011505541
0
LINE
5
3C3
100
AcDbEntity
8
0
100
AcDbLine
62
7
6
CONTINUOUS
10
321.2635375601
20
260.2011505541
11
486.2635375601
21
260.2011505541
0
LINE
5
3C4
100
AcDbEntity
8
0
100
AcDbLine
62
7
6
CONTINUOUS
10
440.7635375601
20
200.7011505541
11
443.7635375601
21
197.7011505541
0
LINE
5
3C5
100
AcDbEntity
8
0
100
AcDbLine
62
7
6
CONTINUOUS
10
366.7635375601
20
252.2011505541
11
366.7635375601
21
200.7011505541
0
LINE
5
3C6
100
AcDbEntity
8
0
100
AcDbLine
62
7
6
CONTINUOUS
10
320.7635375601
20
270.2011505541
11
486.7635375601
21
270.2011505541
0
LINE
5
3C7
100
AcDbEntity
8
0
100
AcDbLine
62
7
6
CONTINUOUS
10
318.7635375601
20
270.4911505541
11
318.4635375601
21
270.4911505541
0
LINE
5
3C8
100
AcDbEntity
8
0
100
AcDbLine
62
7
6
CONTINUOUS
10
488.7635375601
20
270.4911505541
11
489.0635375601
21
270.4911505541
0
LINE
5
3C9
100
AcDbEntity
8
0
100
AcDbLine
62
7
6
CONTINUOUS
10
318.7635375601
20
271.3422143570
11
318.4635375601
21
271.3422143570
0
LINE
5
3CA
100
AcDbEntity
8
0
100
AcDbLine
62
7
6
CONTINUOUS
10
318.7635375601
20
271.5549803636
11
318.4635375601
21
271.5549803636
0
LINE
5
3CB
100
AcDbEntity
8
0
100
AcDbLine
62
7
6
CONTINUOUS
10
318.7635375601
20
271.9805122277
11
318.4635375601
21
271.9805122277
0
LINE
5
3CC
100
AcDbEntity
8
0
100
AcDbLine
62
7
6
CONTINUOUS
10
318.7635375601
20
272.6188101730
11
318.4635375601
21
272.6188101730
0
LINE
5
3CD
100
AcDbEntity
8
0
100
AcDbLine
62
7
6
CONTINUOUS
10
320.7635375601
20
273.2011505541
11
486.7635375601
21
273.2011505541
0
LINE
5
3CE
100
AcDbEntity
8
0
100
AcDbLine
62
7
6
CONTINUOUS
10
369.5890234091
20
252.2011505541
11
369.5890234091
21
260.2011505541
0
LINE
5
3CF
100
AcDbEntity
8
0
100
AcDbLine
62
7
6
CONTINUOUS
10
373.2635375601
20
252.2011505541
11
373.2635375601
21
260.2011505541
0
LINE
5
3D0
100
AcDbEntity
8
0
100
AcDbLine
62
7
6
CONTINUOUS
10
374.2635375601
20
312.5258953662
11
374.2635375601
21
316.7011505541
0
LINE
5
3D1
100
AcDbEntity
8
0
100
AcDbLine
62
7
6
CONTINUOUS
10
318.7635375601
20
276.4485972485
11
318.4635375601
21
276.4485972485
0
LINE
5
3D2
100
AcDbEntity
8
0
100
AcDbLine
62
7
6
CONTINUOUS
10
318.7635375601
20
277.2996609768
11
318.4635375601
21
277.2996609768
0
LINE
5
3D3
100
AcDbEntity
8
0
100
AcDbLine
62
7
6
CONTINUOUS
10
318.7635375601
20
279.0017890295
11
318.4635375601
21
279.0017890295
0
LINE
5
3D4
100
AcDbEntity
8
0
100
AcDbLine
62
7
6
CONTINUOUS
10
318.7635375601
20
279.6400868258
11
318.4635375601
21
279.6400868258
0
LINE
5
3D5
100
AcDbEntity
8
0
100
AcDbLine
62
7
6
CONTINUOUS
10
318.7635375601
20
280.2783846220
11
318.4635375601
21
280.2783846220
0
LINE
5
3D6
100
AcDbEntity
8
0
100
AcDbLine
62
7
6
CONTINUOUS
10
318.7635375601
20
280.4911505541
11
318.4635375601
21
280.4911505541
0
LINE
5
3D7
100
AcDbEntity
8
0
100
AcDbLine
62
7
6
CONTINUOUS
10
488.7635375601
20
280.4911505541
11
489.0635375601
21
280.4911505541
0
LINE
5
3D8
100
AcDbEntity
8
0
100
AcDbLine
62
7
6
CONTINUOUS
10
387.7635375601
20
323.5442462569
11
387.7635375601
21
410.2011505541
0
LINE
5
3D9
100
AcDbEntity
8
DEFAULT_1
100
AcDbLine
62
2
6
CENTER
10
403.7635375601
20
290.2011505541
11
403.7635375601
21
250.2011505541
0
LINE
5
3DA
100
AcDbEntity
8
DEFAULT_1
100
AcDbLine
62
2
6
CENTER
10
403.7635375601
20
290.2011505541
11
403.7635375601
21
434.2011505541
0
LINE
5
3DB
100
AcDbEntity
8
0
100
AcDbLine
62
7
6
CONTINUOUS
10
366.5469516796
20
303.0046777791
11
321.7282613797
21
290.9955459074
0
LINE
5
3DC
100
AcDbEntity
8
0
100
AcDbLine
62
7
6
CONTINUOUS
10
330.2635386997
20
317.7011505541
11
373.2635375601
21
317.7011505541
0
LINE
5
3DD
100
AcDbEntity
8
0
100
AcDbLine
62
7
6
CONTINUOUS
10
434.2635386997
20
317.7011505541
11
477.2635375601
21
317.7011505541
0
LINE
5
3DE
100
AcDbEntity
8
0
100
AcDbLine
62
7
6
CONTINUOUS
10
485.7988137405
20
290.9955459074
11
440.9801234405
21
303.0046777791
0
LINE
5
3DF
100
AcDbEntity
8
0
100
AcDbLine
62
7
6
CONTINUOUS
10
419.7635375601
20
323.5442561198
11
419.7635375601
21
410.2011505541
0
LINE
5
3E0
100
AcDbEntity
8
0
100
AcDbLine
62
7
6
CONTINUOUS
10
433.2635375601
20
312.5258001700
11
433.2635375601
21
316.7011505541
0
LINE
5
3E1
100
AcDbEntity
8
0
100
AcDbLine
62
7
6
CONTINUOUS
10
434.2635375601
20
252.2011505541
11
434.2635375601
21
260.2011505541
0
LINE
5
3E2
100
AcDbEntity
8
0
100
AcDbLine
62
7
6
CONTINUOUS
10
437.9380517110
20
252.2011505541
11
437.9380517110
21
260.2011505541
0
LINE
5
3E3
100
AcDbEntity
8
0
100
AcDbLine
62
7
6
CONTINUOUS
10
440.7635375601
20
252.2011505541
11
440.7635375601
21
200.7011505541
0
LINE
5
3E4
100
AcDbEntity
8
0
100
AcDbLine
62
7
6
CONTINUOUS
10
452.0890234091
20
252.2011505541
11
452.0890234091
21
260.2011505541
0
LINE
5
3E5
100
AcDbEntity
8
DEFAULT_1
100
AcDbLine
62
2
6
CENTER
10
455.7635375601
20
197.7011505541
11
455.7635375601
21
290.7011505541
0
LINE
5
3E6
100
AcDbEntity
8
0
100
AcDbLine
62
7
6
CONTINUOUS
10
459.4380517110
20
252.2011505541
11
459.4380517110
21
260.2011505541
0
LINE
5
3E7
100
AcDbEntity
8
0
100
AcDbLine
62
7
6
CONTINUOUS
10
366.7635375601
20
200.7011505541
11
363.7635375601
21
197.7011505541
0
LINE
5
3E8
100
AcDbEntity
8
0
100
AcDbLine
62
7
6
CONTINUOUS
10
470.7635375601
20
252.2011505541
11
470.7635375601
21
200.7011505541
0
LINE
5
3E9
100
AcDbEntity
8
0
100
AcDbLine
62
7
6
CONTINUOUS
10
473.5890234091
20
252.2011505541
11
473.5890234091
21
260.2011505541
0
LINE
5
3EA
100
AcDbEntity
8
0
100
AcDbLine
62
7
6
CONTINUOUS
10
477.2635375601
20
252.2011505541
11
477.2635375601
21
260.2011505541
0
LINE
5
3EB
100
AcDbEntity
8
0
100
AcDbLine
62
7
6
CONTINUOUS
10
478.2635375601
20
293.0146170747
11
478.2635375601
21
316.7011505541
0
LINE
5
3EC
100
AcDbEntity
8
0
100
AcDbLine
62
7
6
CONTINUOUS
10
488.7635375601
20
262.7011505541
11
488.7635375601
21
287.1318426022
0
LINE
5
3ED
100
AcDbEntity
8
0
100
AcDbLine
62
7
6
CONTINUOUS
10
489.0635375601
20
280.4911505541
11
489.0635375601
21
270.4911505541
0
LINE
5
3EE
100
AcDbEntity
8
DEFAULT_2
100
AcDbLine
62
8
6
HIDDEN
10
400.7635375601
20
394.2011505541
11
406.7635375601
21
394.2011505541
0
LINE
5
3EF
100
AcDbEntity
8
0
100
AcDbLine
62
7
6
CONTINUOUS
10
401.7635375601
20
424.2011505541
11
405.7635375601
21
424.2011505541
0
LINE
5
3F0
100
AcDbEntity
8
0
100
AcDbLine
62
7
6
CONTINUOUS
10
470.7635375601
20
200.7011505541
11
467.7635375601
21
197.7011505541
0
LINE
5
3F1
100
AcDbEntity
8
0
100
AcDbLine
62
7
6
CONTINUOUS
10
13.9504866221
20
11.7029958142
11
13.9504866221
21
179.1936432290
0
LINE
5
3F2
100
AcDbEntity
8
0
100
AcDbLine
62
7
6
CONTINUOUS
10
18.9504866221
20
10.4483660183
11
18.9504866221
21
10.1483660183
0
LINE
5
3F3
100
AcDbEntity
8
0
100
AcDbLine
62
7
6
CONTINUOUS
10
19.9504866221
20
10.4483660183
11
19.9504866221
21
10.1483660183
0
LINE
5
3F4
100
AcDbEntity
8
0
100
AcDbLine
62
7
6
CONTINUOUS
10
22.2838198759
20
10.4483660183
11
22.2838198759
21
10.1483660183
0
LINE
5
3F5
100
AcDbEntity
8
0
100
AcDbLine
62
7
6
CONTINUOUS
10
14.9384190876
20
180.2478837441
11
14.9388134286
21
180.2480781281
0
LINE
5
3F6
100
AcDbEntity
8
0
100
AcDbLine
62
7
6
CONTINUOUS
10
24.6171531298
20
10.4483660183
11
24.6171531298
21
10.1483660183
0
LINE
5
3F7
100
AcDbEntity
8
0
100
AcDbLine
62
7
6
CONTINUOUS
10
25.6171531298
20
10.4483660183
11
25.6171531298
21
10.1483660183
0
LINE
5
3F8
100
AcDbEntity
8
0
100
AcDbLine
62
7
6
CONTINUOUS
10
26.9504866221
20
10.4483660183
11
26.9504866221
21
10.1483660183
0
LINE
5
3F9
100
AcDbEntity
8
0
100
AcDbLine
62
7
6
CONTINUOUS
10
30.9504866221
20
10.4483660183
11
30.9504866221
21
10.1483660183
0
LINE
5
3FA
100
AcDbEntity
8
0
100
AcDbLine
62
7
6
CONTINUOUS
10
31.7838196375
20
10.4483660183
11
31.7838196375
21
10.1483660183
0
LINE
5
3FB
100
AcDbEntity
8
0
100
AcDbLine
62
7
6
CONTINUOUS
10
32.4504866221
20
10.4483660183
11
32.4504866221
21
10.1483660183
0
LINE
5
3FC
100
AcDbEntity
8
0
100
AcDbLine
62
7
6
CONTINUOUS
10
32.9504866221
20
10.4483660183
11
32.9504866221
21
10.1483660183
0
LINE
5
3FD
100
AcDbEntity
8
0
100
AcDbLine
62
7
6
CONTINUOUS
10
33.1171536066
20
10.4483660183
11
33.1171536066
21
10.1483660183
0
LINE
5
3FE
100
AcDbEntity
8
0
100
AcDbLine
62
7
6
CONTINUOUS
10
33.2838196375
20
10.4483660183
11
33.2838196375
21
10.1483660183
0
LINE
5
3FF
100
AcDbEntity
8
0
100
AcDbLine
62
7
6
CONTINUOUS
10
34.6171536066
20
10.4483660183
11
34.6171536066
21
10.1483660183
0
LINE
5
400
100
AcDbEntity
8
0
100
AcDbLine
62
7
6
CONTINUOUS
10
37.9504866221
20
153.7992189794
11
37.9504866221
21
141.0975130573
0
LINE
5
401
100
AcDbEntity
8
0
100
AcDbLine
62
7
6
CONTINUOUS
10
37.9504866221
20
49.7992189794
11
37.9504866221
21
37.0975130573
0
LINE
5
402
100
AcDbEntity
8
0
100
AcDbLine
62
7
6
CONTINUOUS
10
38.6171526530
20
10.4483660183
11
38.6171526530
21
10.1483660183
0
LINE
5
403
100
AcDbEntity
8
0
100
AcDbLine
62
7
6
CONTINUOUS
10
39.4504866221
20
10.4483660183
11
39.4504866221
21
10.1483660183
0
LINE
5
404
100
AcDbEntity
8
0
100
AcDbLine
62
7
6
CONTINUOUS
10
40.1171526530
20
10.4483660183
11
40.1171526530
21
10.1483660183
0
LINE
5
405
100
AcDbEntity
8
0
100
AcDbLine
62
7
6
CONTINUOUS
10
40.6171526530
20
10.4483660183
11
40.6171526530
21
10.1483660183
0
LINE
5
406
100
AcDbEntity
8
0
100
AcDbLine
62
7
6
CONTINUOUS
10
40.7838205912
20
10.4483660183
11
40.7838205912
21
10.1483660183
0
LINE
5
407
100
AcDbEntity
8
0
100
AcDbLine
62
7
6
CONTINUOUS
10
42.1171526530
20
10.4483660183
11
42.1171526530
21
10.1483660183
0
LINE
5
408
100
AcDbEntity
8
0
100
AcDbLine
62
7
6
CONTINUOUS
10
42.2838205912
20
10.4483660183
11
42.2838205912
21
10.1483660183
0
LINE
5
409
100
AcDbEntity
8
0
100
AcDbLine
62
7
6
CONTINUOUS
10
42.6171526530
20
10.4483660183
11
42.6171526530
21
10.1483660183
0
LINE
5
40A
100
AcDbEntity
8
0
100
AcDbLine
62
7
6
CONTINUOUS
10
43.2838205912
20
10.4483660183
11
43.2838205912
21
10.1483660183
0
LINE
5
40B
100
AcDbEntity
8
0
100
AcDbLine
62
7
6
CONTINUOUS
10
48.9504866221
20
160.1500719405
11
37.9504866221
21
153.7992189794
0
LINE
5
40C
100
AcDbEntity
8
0
100
AcDbLine
62
7
6
CONTINUOUS
10
37.9504866221
20
37.0975130573
11
48.9504866221
21
30.7466600962
0
LINE
5
40D
100
AcDbEntity
8
0
100
AcDbLine
62
7
6
CONTINUOUS
10
43.9504866221
20
10.4483660183
11
43.9504866221
21
10.1483660183
0
LINE
5
40E
100
AcDbEntity
8
0
100
AcDbLine
62
7
6
CONTINUOUS
10
44.7838205912
20
10.4483660183
11
44.7838205912
21
10.1483660183
0
LINE
5
40F
100
AcDbEntity
8
0
100
AcDbLine
62
7
6
CONTINUOUS
10
46.2838205912
20
10.4483660183
11
46.2838205912
21
10.1483660183
0
LINE
5
410
100
AcDbEntity
8
0
100
AcDbLine
62
7
6
CONTINUOUS
10
47.1171526530
20
10.4483660183
11
47.1171526530
21
10.1483660183
0
LINE
5
411
100
AcDbEntity
8
0
100
AcDbLine
62
7
6
CONTINUOUS
10
47.7838205912
20
10.4483660183
11
47.7838205912
21
10.1483660183
0
LINE
5
412
100
AcDbEntity
8
0
100
AcDbLine
62
7
6
CONTINUOUS
10
48.4504866221
20
10.4483660183
11
48.4504866221
21
10.1483660183
0
LINE
5
413
100
AcDbEntity
8
0
100
AcDbLine
62
7
6
CONTINUOUS
10
48.6171526530
20
10.4483660183
11
48.6171526530
21
10.1483660183
0
LINE
5
414
100
AcDbEntity
8
DEFAULT_1
100
AcDbLine
62
2
6
CENTER
10
48.9504866221
20
147.4483660183
11
48.9504866221
21
121.4483660183
0
LINE
5
415
100
AcDbEntity
8
DEFAULT_1
100
AcDbLine
62
2
6
CENTER
10
48.9504866221
20
43.4483660183
11
48.9504866221
21
17.4483660183
0
LINE
5
416
100
AcDbEntity
8
DEFAULT_1
100
AcDbLine
62
2
6
CENTER
10
48.9504866221
20
43.4483660183
11
48.9504866221
21
69.4483660183
0
LINE
5
417
100
AcDbEntity
8
DEFAULT_1
100
AcDbLine
62
2
6
CENTER
10
48.9504866221
20
147.4483660183
11
48.9504866221
21
173.4483660183
0
LINE
5
418
100
AcDbEntity
8
0
100
AcDbLine
62
7
6
CONTINUOUS
10
57.9504866221
20
10.4483660183
11
57.9504866221
21
10.1483660183
0
LINE
5
419
100
AcDbEntity
8
0
100
AcDbLine
62
7
6
CONTINUOUS
10
58.9504866221
20
10.4483660183
11
58.9504866221
21
10.1483660183
0
LINE
5
41A
100
AcDbEntity
8
0
100
AcDbLine
62
7
6
CONTINUOUS
10
59.9504866221
20
10.4483660183
11
59.9504866221
21
10.1483660183
0
LINE
5
41B
100
AcDbEntity
8
0
100
AcDbLine
62
7
6
CONTINUOUS
10
59.9504866221
20
37.0975130573
11
59.9504866221
21
49.7992189794
0
LINE
5
41C
100
AcDbEntity
8
0
100
AcDbLine
62
7
6
CONTINUOUS
10
59.9504866221
20
141.0975130573
11
59.9504866221
21
153.7992189794
0
LINE
5
41D
100
AcDbEntity
8
0
100
AcDbLine
62
7
6
CONTINUOUS
10
61.2838186838
20
10.4483660183
11
61.2838186838
21
10.1483660183
0
LINE
5
41E
100
AcDbEntity
8
0
100
AcDbLine
62
7
6
CONTINUOUS
10
61.4504866221
20
10.4483660183
11
61.4504866221
21
10.1483660183
0
LINE
5
41F
100
AcDbEntity
8
0
100
AcDbLine
62
7
6
CONTINUOUS
10
61.7838186838
20
10.4483660183
11
61.7838186838
21
10.1483660183
0
LINE
5
420
100
AcDbEntity
8
0
100
AcDbLine
62
7
6
CONTINUOUS
10
62.2838186838
20
10.4483660183
11
62.2838186838
21
10.1483660183
0
LINE
5
421
100
AcDbEntity
8
0
100
AcDbLine
62
7
6
CONTINUOUS
10
63.1171545603
20
10.4483660183
11
63.1171545603
21
10.1483660183
0
LINE
5
422
100
AcDbEntity
8
0
100
AcDbLine
62
7
6
CONTINUOUS
10
63.9504866221
20
10.4483660183
11
63.9504866221
21
10.1483660183
0
LINE
5
423
100
AcDbEntity
8
0
100
AcDbLine
62
7
6
CONTINUOUS
10
64.6171545603
20
10.4483660183
11
64.6171545603
21
10.1483660183
0
LINE
5
424
100
AcDbEntity
8
0
100
AcDbLine
62
7
6
CONTINUOUS
10
48.9504866221
20
134.7466600962
11
59.9504866221
21
141.0975130573
0
LINE
5
425
100
AcDbEntity
8
0
100
AcDbLine
62
7
6
CONTINUOUS
10
72.6171545603
20
10.1483660183
11
68.6171545603
21
10.1483660183
0
LINE
5
426
100
AcDbEntity
8
0
100
AcDbLine
62
7
6
CONTINUOUS
10
67.2838186838
20
10.1483660183
11
61.2838186838
21
10.1483660183
0
LINE
5
427
100
AcDbEntity
8
0
100
AcDbLine
62
7
6
CONTINUOUS
10
59.9504866221
20
10.1483660183
11
57.9504866221
21
10.1483660183
0
LINE
5
428
100
AcDbEntity
8
0
100
AcDbLine
62
7
6
CONTINUOUS
10
48.6171526530
20
10.1483660183
11
42.1171526530
21
10.1483660183
0
LINE
5
429
100
AcDbEntity
8
0
100
AcDbLine
62
7
6
CONTINUOUS
10
40.7838205912
20
10.1483660183
11
34.6171536066
21
10.1483660183
0
LINE
5
42A
100
AcDbEntity
8
0
100
AcDbLine
62
7
6
CONTINUOUS
10
33.2838196375
20
10.1483660183
11
26.9504866221
21
10.1483660183
0
LINE
5
42B
100
AcDbEntity
8
0
100
AcDbLine
62
7
6
CONTINUOUS
10
25.6171531298
20
10.1483660183
11
18.9504866221
21
10.1483660183
0
LINE
5
42C
100
AcDbEntity
8
0
100
AcDbLine
62
7
6
CONTINUOUS
10
15.8038468283
20
10.4483660183
11
74.9504866221
21
10.4483660183
0
LINE
5
42D
100
AcDbEntity
8
0
100
AcDbLine
62
7
6
CONTINUOUS
10
220.9504866221
20
10.4483660183
11
280.0971264158
21
10.4483660183
0
LINE
5
42E
100
AcDbEntity
8
0
100
AcDbLine
62
7
6
CONTINUOUS
10
59.9504866221
20
49.7992189794
11
48.9504866221
21
56.1500719405
0
LINE
5
42F
100
AcDbEntity
8
0
100
AcDbLine
62
7
6
CONTINUOUS
10
65.4504866221
20
10.4483660183
11
65.4504866221
21
10.1483660183
0
LINE
5
430
100
AcDbEntity
8
0
100
AcDbLine
62
7
6
CONTINUOUS
10
66.2838186838
20
10.4483660183
11
66.2838186838
21
10.1483660183
0
LINE
5
431
100
AcDbEntity
8
0
100
AcDbLine
62
7
6
CONTINUOUS
10
66.7838186838
20
10.4483660183
11
66.7838186838
21
10.1483660183
0
LINE
5
432
100
AcDbEntity
8
0
100
AcDbLine
62
7
6
CONTINUOUS
10
66.9504866221
20
10.4483660183
11
66.9504866221
21
10.1483660183
0
LINE
5
433
100
AcDbEntity
8
0
100
AcDbLine
62
7
6
CONTINUOUS
10
67.2838186838
20
10.4483660183
11
67.2838186838
21
10.1483660183
0
LINE
5
434
100
AcDbEntity
8
0
100
AcDbLine
62
7
6
CONTINUOUS
10
68.6171545603
20
10.4483660183
11
68.6171545603
21
10.1483660183
0
LINE
5
435
100
AcDbEntity
8
0
100
AcDbLine
62
7
6
CONTINUOUS
10
69.9504866221
20
10.4483660183
11
69.9504866221
21
10.1483660183
0
LINE
5
436
100
AcDbEntity
8
0
100
AcDbLine
62
7
6
CONTINUOUS
10
70.7838186838
20
10.4483660183
11
70.7838186838
21
10.1483660183
0
LINE
5
437
100
AcDbEntity
8
0
100
AcDbLine
62
7
6
CONTINUOUS
10
72.6171545603
20
10.4483660183
11
72.6171545603
21
10.1483660183
0
LINE
5
438
100
AcDbEntity
8
0
100
AcDbLine
62
7
6
CONTINUOUS
10
74.9504866221
20
102.6252496006
11
74.9504866221
21
88.2699914061
0
LINE
5
439
100
AcDbEntity
8
0
100
AcDbLine
62
7
6
CONTINUOUS
10
75.9504866221
20
11.4483660183
11
75.9504866221
21
84.0877767447
0
LINE
5
43A
100
AcDbEntity
8
0
100
AcDbLine
62
7
6
CONTINUOUS
10
75.9504866221
20
106.8090898419
11
75.9504866221
21
179.4483660183
0
LINE
5
43B
100
AcDbEntity
8
0
100
AcDbLine
62
7
6
CONTINUOUS
10
80.0991047967
20
111.1098769291
11
80.0987551319
21
111.1094418864
0
LINE
5
43C
100
AcDbEntity
8
0
100
AcDbLine
62
7
6
CONTINUOUS
10
80.0996408153
20
79.7861893553
11
80.0991024025
21
79.7868581519
0
LINE
5
43D
100
AcDbEntity
8
DEFAULT_1
100
AcDbLine
62
2
6
CENTER
10
246.9504866221
20
43.4483660183
11
220.9504866221
21
43.4483660183
0
LINE
5
43E
100
AcDbEntity
8
DEFAULT_1
100
AcDbLine
62
2
6
CENTER
10
48.9504866221
20
43.4483660183
11
22.9504866221
21
43.4483660183
0
LINE
5
43F
100
AcDbEntity
8
DEFAULT_1
100
AcDbLine
62
2
6
CENTER
10
48.9504866221
20
43.4483660183
11
74.9504866221
21
43.4483660183
0
LINE
5
440
100
AcDbEntity
8
DEFAULT_1
100
AcDbLine
62
2
6
CENTER
10
246.9504866221
20
43.4483660183
11
272.9504866221
21
43.4483660183
0
LINE
5
441
100
AcDbEntity
8
0
100
AcDbLine
62
7
6
CONTINUOUS
10
100.9504866221
20
112.4483660183
11
100.9504866221
21
111.4483660183
0
LINE
5
442
100
AcDbEntity
8
0
100
AcDbLine
62
7
6
CONTINUOUS
10
100.9504866221
20
79.4483660183
11
100.9504866221
21
78.4483660183
0
LINE
5
443
100
AcDbEntity
8
0
100
AcDbLine
62
7
6
CONTINUOUS
10
80.7058620394
20
111.0138370883
11
80.7034141020
21
111.0129951439
0
LINE
5
444
100
AcDbEntity
8
0
100
AcDbLine
62
7
6
CONTINUOUS
10
80.7058611108
20
79.8828952676
11
80.7033995892
21
79.8837418870
0
LINE
5
445
100
AcDbEntity
8
0
100
AcDbLine
62
7
6
CONTINUOUS
10
75.9504866221
20
72.9483660183
11
219.9504866221
21
72.9483660183
0
LINE
5
446
100
AcDbEntity
8
0
100
AcDbLine
62
7
6
CONTINUOUS
10
48.9504866221
20
56.1500719405
11
37.9504866221
21
49.7992189794
0
LINE
5
447
100
AcDbEntity
8
0
100
AcDbLine
62
7
6
CONTINUOUS
10
75.9504866221
20
78.4483660183
11
100.9504866221
21
78.4483660183
0
LINE
5
448
100
AcDbEntity
8
0
100
AcDbLine
62
7
6
CONTINUOUS
10
194.9504866221
20
78.4483660183
11
219.9504866221
21
78.4483660183
0
LINE
5
449
100
AcDbEntity
8
0
100
AcDbLine
62
7
6
CONTINUOUS
10
80.3559627013
20
79.4483660183
11
215.5450105429
21
79.4483660183
0
LINE
5
44A
100
AcDbEntity
8
0
100
AcDbLine
62
7
6
CONTINUOUS
10
37.9504866221
20
141.0975130573
11
48.9504866221
21
134.7466600962
0
LINE
5
44B
100
AcDbEntity
8
DEFAULT_1
100
AcDbLine
62
2
6
CENTER
10
147.9504866221
20
84.4483660183
11
147.9504866221
21
106.4483660183
0
LINE
5
44C
100
AcDbEntity
8
0
100
AcDbLine
62
7
6
CONTINUOUS
10
246.9504866221
20
160.1500719405
11
235.9504866221
21
153.7992189794
0
LINE
5
44D
100
AcDbEntity
8
DEFAULT_1
100
AcDbLine
62
2
6
CENTER
10
248.9504866221
20
95.4483660183
11
46.9504866221
21
95.4483660183
0
LINE
5
44E
100
AcDbEntity
8
0
100
AcDbLine
62
7
6
CONTINUOUS
10
235.9504866221
20
37.0975130573
11
246.9504866221
21
30.7466600962
0
LINE
5
44F
100
AcDbEntity
8
0
100
AcDbLine
62
7
6
CONTINUOUS
10
48.9504866221
20
30.7466600962
11
59.9504866221
21
37.0975130573
0
LINE
5
450
100
AcDbEntity
8
0
100
AcDbLine
62
7
6
CONTINUOUS
10
59.9504866221
20
153.7992189794
11
48.9504866221
21
160.1500719405
0
LINE
5
451
100
AcDbEntity
8
0
100
AcDbLine
62
7
6
CONTINUOUS
10
246.9504866221
20
134.7466600962
11
257.9504866221
21
141.0975130573
0
LINE
5
452
100
AcDbEntity
8
0
100
AcDbLine
62
7
6
CONTINUOUS
10
80.3559627013
20
111.4483660183
11
215.5450105429
21
111.4483660183
0
LINE
5
453
100
AcDbEntity
8
0
100
AcDbLine
62
7
6
CONTINUOUS
10
75.9504866221
20
112.4483660183
11
100.9504866221
21
112.4483660183
0
LINE
5
454
100
AcDbEntity
8
0
100
AcDbLine
62
7
6
CONTINUOUS
10
194.9504866221
20
112.4483660183
11
219.9504866221
21
112.4483660183
0
LINE
5
455
100
AcDbEntity
8
0
100
AcDbLine
62
7
6
CONTINUOUS
10
75.9504866221
20
117.9483660183
11
219.9504866221
21
117.9483660183
0
LINE
5
456
100
AcDbEntity
8
0
100
AcDbLine
62
7
6
CONTINUOUS
10
257.9504866221
20
49.7992189794
11
246.9504866221
21
56.1500719405
0
LINE
5
457
100
AcDbEntity
8
0
100
AcDbLine
62
7
6
CONTINUOUS
10
215.1951539858
20
79.8829096677
11
215.1974725464
21
79.8837071068
0
LINE
5
458
100
AcDbEntity
8
0
100
AcDbLine
62
7
6
CONTINUOUS
10
215.1951529469
20
111.0138227261
11
215.1974589029
21
111.0130296247
0
LINE
5
459
100
AcDbEntity
8
0
100
AcDbLine
62
7
6
CONTINUOUS
10
194.9504866221
20
112.4483660183
11
194.9504866221
21
111.4483660183
0
LINE
5
45A
100
AcDbEntity
8
0
100
AcDbLine
62
7
6
CONTINUOUS
10
194.9504866221
20
79.4483660183
11
194.9504866221
21
78.4483660183
0
LINE
5
45B
100
AcDbEntity
8
DEFAULT_1
100
AcDbLine
62
2
6
CENTER
10
246.9504866221
20
147.4483660183
11
220.9504866221
21
147.4483660183
0
LINE
5
45C
100
AcDbEntity
8
DEFAULT_1
100
AcDbLine
62
2
6
CENTER
10
48.9504866221
20
147.4483660183
11
22.9504866221
21
147.4483660183
0
LINE
5
45D
100
AcDbEntity
8
DEFAULT_1
100
AcDbLine
62
2
6
CENTER
10
48.9504866221
20
147.4483660183
11
74.9504866221
21
147.4483660183
0
LINE
5
45E
100
AcDbEntity
8
DEFAULT_1
100
AcDbLine
62
2
6
CENTER
10
246.9504866221
20
147.4483660183
11
272.9504866221
21
147.4483660183
0
LINE
5
45F
100
AcDbEntity
8
0
100
AcDbLine
62
7
6
CONTINUOUS
10
215.8018702920
20
79.7868565102
11
215.8022278016
21
79.7873013173
0
LINE
5
460
100
AcDbEntity
8
0
100
AcDbLine
62
7
6
CONTINUOUS
10
215.8018678938
20
111.1098785607
11
215.8022256885
21
111.1094333984
0
LINE
5
461
100
AcDbEntity
8
0
100
AcDbLine
62
7
6
CONTINUOUS
10
219.9504866221
20
179.4483660183
11
219.9504866221
21
106.8093851844
0
LINE
5
462
100
AcDbEntity
8
0
100
AcDbLine
62
7
6
CONTINUOUS
10
219.9504866221
20
84.0874052396
11
219.9504866221
21
11.4483660183
0
LINE
5
463
100
AcDbEntity
8
0
100
AcDbLine
62
7
6
CONTINUOUS
10
220.9504866221
20
102.6267406184
11
220.9504866221
21
88.2699914061
0
LINE
5
464
100
AcDbEntity
8
0
100
AcDbLine
62
7
6
CONTINUOUS
10
223.2838186838
20
180.4483660183
11
223.2838186838
21
180.7483660183
0
LINE
5
465
100
AcDbEntity
8
0
100
AcDbLine
62
7
6
CONTINUOUS
10
225.1171545603
20
180.4483660183
11
225.1171545603
21
180.7483660183
0
LINE
5
466
100
AcDbEntity
8
0
100
AcDbLine
62
7
6
CONTINUOUS
10
225.9504866221
20
180.4483660183
11
225.9504866221
21
180.7483660183
0
LINE
5
467
100
AcDbEntity
8
0
100
AcDbLine
62
7
6
CONTINUOUS
10
227.2838186838
20
180.4483660183
11
227.2838186838
21
180.7483660183
0
LINE
5
468
100
AcDbEntity
8
0
100
AcDbLine
62
7
6
CONTINUOUS
10
228.6171545603
20
180.4483660183
11
228.6171545603
21
180.7483660183
0
LINE
5
469
100
AcDbEntity
8
0
100
AcDbLine
62
7
6
CONTINUOUS
10
228.9504866221
20
180.4483660183
11
228.9504866221
21
180.7483660183
0
LINE
5
46A
100
AcDbEntity
8
0
100
AcDbLine
62
7
6
CONTINUOUS
10
229.1171545603
20
180.4483660183
11
229.1171545603
21
180.7483660183
0
LINE
5
46B
100
AcDbEntity
8
0
100
AcDbLine
62
7
6
CONTINUOUS
10
229.6171545603
20
180.4483660183
11
229.6171545603
21
180.7483660183
0
LINE
5
46C
100
AcDbEntity
8
0
100
AcDbLine
62
7
6
CONTINUOUS
10
230.4504866221
20
180.4483660183
11
230.4504866221
21
180.7483660183
0
LINE
5
46D
100
AcDbEntity
8
0
100
AcDbLine
62
7
6
CONTINUOUS
10
231.2838186838
20
180.4483660183
11
231.2838186838
21
180.7483660183
0
LINE
5
46E
100
AcDbEntity
8
0
100
AcDbLine
62
7
6
CONTINUOUS
10
231.9504866221
20
180.4483660183
11
231.9504866221
21
180.7483660183
0
LINE
5
46F
100
AcDbEntity
8
0
100
AcDbLine
62
7
6
CONTINUOUS
10
232.7838186838
20
180.4483660183
11
232.7838186838
21
180.7483660183
0
LINE
5
470
100
AcDbEntity
8
0
100
AcDbLine
62
7
6
CONTINUOUS
10
233.6171545603
20
180.4483660183
11
233.6171545603
21
180.7483660183
0
LINE
5
471
100
AcDbEntity
8
0
100
AcDbLine
62
7
6
CONTINUOUS
10
246.9504866221
20
56.1500719405
11
235.9504866221
21
49.7992189794
0
LINE
5
472
100
AcDbEntity
8
0
100
AcDbLine
62
7
6
CONTINUOUS
10
280.0971264158
20
180.4483660183
11
220.9504866221
21
180.4483660183
0
LINE
5
473
100
AcDbEntity
8
0
100
AcDbLine
62
7
6
CONTINUOUS
10
15.8038468283
20
180.4483660183
11
74.9504866221
21
180.4483660183
0
LINE
5
474
100
AcDbEntity
8
0
100
AcDbLine
62
7
6
CONTINUOUS
10
223.2838186838
20
180.7483660183
11
227.2838186838
21
180.7483660183
0
LINE
5
475
100
AcDbEntity
8
0
100
AcDbLine
62
7
6
CONTINUOUS
10
228.6171545603
20
180.7483660183
11
234.6171545603
21
180.7483660183
0
LINE
5
476
100
AcDbEntity
8
0
100
AcDbLine
62
7
6
CONTINUOUS
10
235.9504866221
20
180.7483660183
11
237.9504866221
21
180.7483660183
0
LINE
5
477
100
AcDbEntity
8
0
100
AcDbLine
62
7
6
CONTINUOUS
10
247.2838205912
20
180.7483660183
11
253.7838205912
21
180.7483660183
0
LINE
5
478
100
AcDbEntity
8
0
100
AcDbLine
62
7
6
CONTINUOUS
10
255.1171526530
20
180.7483660183
11
261.2838196375
21
180.7483660183
0
LINE
5
479
100
AcDbEntity
8
0
100
AcDbLine
62
7
6
CONTINUOUS
10
262.6171536066
20
180.7483660183
11
268.9504866221
21
180.7483660183
0
LINE
5
47A
100
AcDbEntity
8
0
100
AcDbLine
62
7
6
CONTINUOUS
10
270.2838201144
20
180.7483660183
11
276.9504866221
21
180.7483660183
0
LINE
5
47B
100
AcDbEntity
8
0
100
AcDbLine
62
7
6
CONTINUOUS
10
235.9504866221
20
141.0975130573
11
246.9504866221
21
134.7466600962
0
LINE
5
47C
100
AcDbEntity
8
0
100
AcDbLine
62
7
6
CONTINUOUS
10
234.1171545603
20
180.4483660183
11
234.1171545603
21
180.7483660183
0
LINE
5
47D
100
AcDbEntity
8
0
100
AcDbLine
62
7
6
CONTINUOUS
10
234.4504866221
20
180.4483660183
11
234.4504866221
21
180.7483660183
0
LINE
5
47E
100
AcDbEntity
8
0
100
AcDbLine
62
7
6
CONTINUOUS
10
234.6171545603
20
180.4483660183
11
234.6171545603
21
180.7483660183
0
LINE
5
47F
100
AcDbEntity
8
0
100
AcDbLine
62
7
6
CONTINUOUS
10
235.9504866221
20
153.7992189794
11
235.9504866221
21
141.0975130573
0
LINE
5
480
100
AcDbEntity
8
0
100
AcDbLine
62
7
6
CONTINUOUS
10
235.9504866221
20
49.7992189794
11
235.9504866221
21
37.0975130573
0
LINE
5
481
100
AcDbEntity
8
0
100
AcDbLine
62
7
6
CONTINUOUS
10
235.9504866221
20
180.4483660183
11
235.9504866221
21
180.7483660183
0
LINE
5
482
100
AcDbEntity
8
0
100
AcDbLine
62
7
6
CONTINUOUS
10
236.9504866221
20
180.4483660183
11
236.9504866221
21
180.7483660183
0
LINE
5
483
100
AcDbEntity
8
0
100
AcDbLine
62
7
6
CONTINUOUS
10
237.9504866221
20
180.4483660183
11
237.9504866221
21
180.7483660183
0
LINE
5
484
100
AcDbEntity
8
DEFAULT_1
100
AcDbLine
62
2
6
CENTER
10
246.9504866221
20
147.4483660183
11
246.9504866221
21
121.4483660183
0
LINE
5
485
100
AcDbEntity
8
DEFAULT_1
100
AcDbLine
62
2
6
CENTER
10
246.9504866221
20
43.4483660183
11
246.9504866221
21
17.4483660183
0
LINE
5
486
100
AcDbEntity
8
DEFAULT_1
100
AcDbLine
62
2
6
CENTER
10
246.9504866221
20
43.4483660183
11
246.9504866221
21
69.4483660183
0
LINE
5
487
100
AcDbEntity
8
DEFAULT_1
100
AcDbLine
62
2
6
CENTER
10
246.9504866221
20
147.4483660183
11
246.9504866221
21
173.4483660183
0
LINE
5
488
100
AcDbEntity
8
0
100
AcDbLine
62
7
6
CONTINUOUS
10
247.2838205912
20
180.4483660183
11
247.2838205912
21
180.7483660183
0
LINE
5
489
100
AcDbEntity
8
0
100
AcDbLine
62
7
6
CONTINUOUS
10
247.4504866221
20
180.4483660183
11
247.4504866221
21
180.7483660183
0
LINE
5
48A
100
AcDbEntity
8
0
100
AcDbLine
62
7
6
CONTINUOUS
10
248.1171526530
20
180.4483660183
11
248.1171526530
21
180.7483660183
0
LINE
5
48B
100
AcDbEntity
8
0
100
AcDbLine
62
7
6
CONTINUOUS
10
248.7838205912
20
180.4483660183
11
248.7838205912
21
180.7483660183
0
LINE
5
48C
100
AcDbEntity
8
0
100
AcDbLine
62
7
6
CONTINUOUS
10
249.6171526530
20
180.4483660183
11
249.6171526530
21
180.7483660183
0
LINE
5
48D
100
AcDbEntity
8
0
100
AcDbLine
62
7
6
CONTINUOUS
10
251.1171526530
20
180.4483660183
11
251.1171526530
21
180.7483660183
0
LINE
5
48E
100
AcDbEntity
8
0
100
AcDbLine
62
7
6
CONTINUOUS
10
251.9504866221
20
180.4483660183
11
251.9504866221
21
180.7483660183
0
LINE
5
48F
100
AcDbEntity
8
0
100
AcDbLine
62
7
6
CONTINUOUS
10
252.6171526530
20
180.4483660183
11
252.6171526530
21
180.7483660183
0
LINE
5
490
100
AcDbEntity
8
0
100
AcDbLine
62
7
6
CONTINUOUS
10
253.2838205912
20
180.4483660183
11
253.2838205912
21
180.7483660183
0
LINE
5
491
100
AcDbEntity
8
0
100
AcDbLine
62
7
6
CONTINUOUS
10
253.6171526530
20
180.4483660183
11
253.6171526530
21
180.7483660183
0
LINE
5
492
100
AcDbEntity
8
0
100
AcDbLine
62
7
6
CONTINUOUS
10
253.7838205912
20
180.4483660183
11
253.7838205912
21
180.7483660183
0
LINE
5
493
100
AcDbEntity
8
0
100
AcDbLine
62
7
6
CONTINUOUS
10
255.1171526530
20
180.4483660183
11
255.1171526530
21
180.7483660183
0
LINE
5
494
100
AcDbEntity
8
0
100
AcDbLine
62
7
6
CONTINUOUS
10
246.9504866221
20
30.7466600962
11
257.9504866221
21
37.0975130573
0
LINE
5
495
100
AcDbEntity
8
0
100
AcDbLine
62
7
6
CONTINUOUS
10
257.9504866221
20
153.7992189794
11
246.9504866221
21
160.1500719405
0
LINE
5
496
100
AcDbEntity
8
0
100
AcDbLine
62
7
6
CONTINUOUS
10
255.2838205912
20
180.4483660183
11
255.2838205912
21
180.7483660183
0
LINE
5
497
100
AcDbEntity
8
0
100
AcDbLine
62
7
6
CONTINUOUS
10
255.7838205912
20
180.4483660183
11
255.7838205912
21
180.7483660183
0
LINE
5
498
100
AcDbEntity
8
0
100
AcDbLine
62
7
6
CONTINUOUS
10
256.4504866221
20
180.4483660183
11
256.4504866221
21
180.7483660183
0
LINE
5
499
100
AcDbEntity
8
0
100
AcDbLine
62
7
6
CONTINUOUS
10
257.2838205912
20
180.4483660183
11
257.2838205912
21
180.7483660183
0
LINE
5
49A
100
AcDbEntity
8
0
100
AcDbLine
62
7
6
CONTINUOUS
10
257.9504866221
20
37.0975130573
11
257.9504866221
21
49.7992189794
0
LINE
5
49B
100
AcDbEntity
8
0
100
AcDbLine
62
7
6
CONTINUOUS
10
257.9504866221
20
141.0975130573
11
257.9504866221
21
153.7992189794
0
LINE
5
49C
100
AcDbEntity
8
0
100
AcDbLine
62
7
6
CONTINUOUS
10
261.2838196375
20
180.4483660183
11
261.2838196375
21
180.7483660183
0
LINE
5
49D
100
AcDbEntity
8
0
100
AcDbLine
62
7
6
CONTINUOUS
10
262.6171536066
20
180.4483660183
11
262.6171536066
21
180.7483660183
0
LINE
5
49E
100
AcDbEntity
8
0
100
AcDbLine
62
7
6
CONTINUOUS
10
262.7838196375
20
180.4483660183
11
262.7838196375
21
180.7483660183
0
LINE
5
49F
100
AcDbEntity
8
0
100
AcDbLine
62
7
6
CONTINUOUS
10
262.9504866221
20
180.4483660183
11
262.9504866221
21
180.7483660183
0
LINE
5
4A0
100
AcDbEntity
8
0
100
AcDbLine
62
7
6
CONTINUOUS
10
263.4504866221
20
180.4483660183
11
263.4504866221
21
180.7483660183
0
LINE
5
4A1
100
AcDbEntity
8
0
100
AcDbLine
62
7
6
CONTINUOUS
10
264.1171536066
20
180.4483660183
11
264.1171536066
21
180.7483660183
0
LINE
5
4A2
100
AcDbEntity
8
0
100
AcDbLine
62
7
6
CONTINUOUS
10
264.9504866221
20
180.4483660183
11
264.9504866221
21
180.7483660183
0
LINE
5
4A3
100
AcDbEntity
8
0
100
AcDbLine
62
7
6
CONTINUOUS
10
268.9504866221
20
180.4483660183
11
268.9504866221
21
180.7483660183
0
LINE
5
4A4
100
AcDbEntity
8
0
100
AcDbLine
62
7
6
CONTINUOUS
10
270.2838201144
20
180.4483660183
11
270.2838201144
21
180.7483660183
0
LINE
5
4A5
100
AcDbEntity
8
0
100
AcDbLine
62
7
6
CONTINUOUS
10
271.2838201144
20
180.4483660183
11
271.2838201144
21
180.7483660183
0
LINE
5
4A6
100
AcDbEntity
8
0
100
AcDbLine
62
7
6
CONTINUOUS
10
273.6171533682
20
180.4483660183
11
273.6171533682
21
180.7483660183
0
LINE
5
4A7
100
AcDbEntity
8
0
100
AcDbLine
62
7
6
CONTINUOUS
10
275.9504866221
20
180.4483660183
11
275.9504866221
21
180.7483660183
0
LINE
5
4A8
100
AcDbEntity
8
0
100
AcDbLine
62
7
6
CONTINUOUS
10
276.9504866221
20
180.4483660183
11
276.9504866221
21
180.7483660183
0
LINE
5
4A9
100
AcDbEntity
8
0
100
AcDbLine
62
7
6
CONTINUOUS
10
281.9504866221
20
11.7030888076
11
281.9504866221
21
179.1937362224
0
LINE
5
4AA
100
AcDbEntity
8
0
100
AcDbLine
62
7
6
CONTINUOUS
10
280.9625541565
20
10.6488482925
11
280.9621598155
21
10.6486539085
0
ARC
5
4AB
100
AcDbEntity
8
0
100
AcDbCircle
62
7
6
CONTINUOUS
10
221.6917245485
20
326.2011505541
40
1.0000000000
100
AcDbArc
50
90.0000000000
51
174.0000000000
0
ARC
5
4AC
100
AcDbEntity
8
0
100
AcDbCircle
62
7
6
CONTINUOUS
10
222.4504866221
20
262.7011505541
40
2.5000000000
100
AcDbArc
50
180.0000000000
51
270.0000000000
0
ARC
5
4AD
100
AcDbEntity
8
0
100
AcDbCircle
62
7
6
CONTINUOUS
10
229.9504866221
20
318.6770727613
40
10.0000000000
100
AcDbArc
50
174.0000000000
51
180.0000000000
0
ARC
5
4AE
100
AcDbEntity
8
0
100
AcDbCircle
62
7
6
CONTINUOUS
10
279.0986361808
20
262.2011505541
40
2.0000000000
100
AcDbArc
50
270.0000000000
51
354.0000000000
0
ARC
5
4AF
100
AcDbEntity
8
0
100
AcDbCircle
62
7
6
CONTINUOUS
10
263.2223607835
20
307.8857818242
40
15.0000000000
100
AcDbArc
50
6.0000000000
51
84.0000000000
0
ARC
5
4B0
100
AcDbEntity
8
0
100
AcDbCircle
62
7
6
CONTINUOUS
10
74.2092486957
20
326.2011505541
40
1.0000000000
100
AcDbArc
50
6.0000000000
51
90.0000000000
0
ARC
5
4B1
100
AcDbEntity
8
0
100
AcDbCircle
62
7
6
CONTINUOUS
10
73.4504866221
20
262.7011505541
40
2.5000000000
100
AcDbArc
50
270.0000000000
51
360.0000000000
0
ARC
5
4B2
100
AcDbEntity
8
0
100
AcDbCircle
62
7
6
CONTINUOUS
10
65.9504866221
20
318.6770727613
40
10.0000000000
100
AcDbArc
50
0.0000000000
51
6.0000000000
0
ARC
5
4B3
100
AcDbEntity
8
0
100
AcDbCircle
62
7
6
CONTINUOUS
10
16.8023370633
20
262.2011505541
40
2.0000000000
100
AcDbArc
50
186.0000000000
51
270.0000000000
0
ARC
5
4B4
100
AcDbEntity
8
0
100
AcDbCircle
62
7
6
CONTINUOUS
10
32.6786124606
20
307.8857818242
40
15.0000000000
100
AcDbArc
50
96.0000000000
51
174.0000000000
0
ARC
5
4B5
100
AcDbEntity
8
0
100
AcDbCircle
62
7
6
CONTINUOUS
10
27.4504866221
20
316.7011505541
40
1.0000000000
100
AcDbArc
50
90.0000000000
51
180.0000000000
0
ARC
5
4B6
100
AcDbEntity
8
0
100
AcDbCircle
62
7
6
CONTINUOUS
10
70.4504866221
20
316.7011505541
40
1.0000000000
100
AcDbArc
50
0.0000000000
51
90.0000000000
0
ARC
5
4B7
100
AcDbEntity
8
0
100
AcDbCircle
62
7
6
CONTINUOUS
10
225.4504866221
20
316.7011505541
40
1.0000000000
100
AcDbArc
50
90.0000000000
51
180.0000000000
0
ARC
5
4B8
100
AcDbEntity
8
0
100
AcDbCircle
62
7
6
CONTINUOUS
10
268.4504866221
20
316.7011505541
40
1.0000000000
100
AcDbArc
50
0.0000000000
51
90.0000000000
0
CIRCLE
5
4B9
100
AcDbEntity
8
0
100
AcDbCircle
62
7
6
CONTINUOUS
10
200.7904866221
20
309.4511505541
40
11.0000000000
0
CIRCLE
5
4BA
100
AcDbEntity
8
0
100
AcDbCircle
62
7
6
CONTINUOUS
10
147.9504866221
20
349.2011505541
40
45.0000000000
0
ARC
5
4BB
100
AcDbEntity
8
0
100
AcDbCircle
62
7
6
CONTINUOUS
10
220.0598422230
20
310.2011505541
40
3.0000000000
100
AcDbArc
50
174.0353537168
51
267.9070427246
0
ARC
5
4BC
100
AcDbEntity
8
0
100
AcDbCircle
62
7
6
CONTINUOUS
10
75.8411310211
20
310.2011505541
40
3.0000000000
100
AcDbArc
50
272.0979543956
51
5.9646462830
0
ARC
5
4BD
100
AcDbEntity
8
0
100
AcDbCircle
62
7
6
CONTINUOUS
10
147.9504866221
20
351.2011505541
40
73.0000000000
100
AcDbArc
50
354.0000000000
51
186.0000000000
0
ARC
5
4BE
100
AcDbEntity
8
DEFAULT_2
100
AcDbCircle
62
8
6
HIDDEN
10
400.7618386658
20
407.1994745575
40
12.9999684194
100
AcDbArc
50
180.0000000000
51
270.0074886172
0
ARC
5
4BF
100
AcDbEntity
8
DEFAULT_2
100
AcDbCircle
62
8
6
HIDDEN
10
406.7652364205
20
407.1994745878
40
12.9999684194
100
AcDbArc
50
269.9925115320
51
360.0000000000
0
ARC
5
4C0
100
AcDbEntity
8
0
100
AcDbCircle
62
7
6
CONTINUOUS
10
401.7635375601
20
410.2011505541
40
14.0000000000
100
AcDbArc
50
90.0000000000
51
180.0000000000
0
ARC
5
4C1
100
AcDbEntity
8
0
100
AcDbCircle
62
7
6
CONTINUOUS
10
405.7635375601
20
410.2011505541
40
14.0000000000
100
AcDbArc
50
0.0000000000
51
90.0000000000
0
ARC
5
4C2
100
AcDbEntity
8
0
100
AcDbCircle
62
7
6
CONTINUOUS
10
434.2635375601
20
316.7011505541
40
1.0000000000
100
AcDbArc
50
90.0000000000
51
180.0000000000
0
ARC
5
4C3
100
AcDbEntity
8
0
100
AcDbCircle
62
7
6
CONTINUOUS
10
477.2635375601
20
316.7011505541
40
1.0000000000
100
AcDbArc
50
0.0000000000
51
90.0000000000
0
ARC
5
4C4
100
AcDbEntity
8
0
100
AcDbCircle
62
7
6
CONTINUOUS
10
330.2635375601
20
316.7011505541
40
1.0000000000
100
AcDbArc
50
90.0000000000
51
180.0000000000
0
ARC
5
4C5
100
AcDbEntity
8
0
100
AcDbCircle
62
7
6
CONTINUOUS
10
373.2635375601
20
316.7011505541
40
1.0000000000
100
AcDbArc
50
0.0000000000
51
90.0000000000
0
ARC
5
4C6
100
AcDbEntity
8
0
100
AcDbCircle
62
7
6
CONTINUOUS
10
321.2635375601
20
262.7011505541
40
2.5000000000
100
AcDbArc
50
180.0000000000
51
270.0000000000
0
ARC
5
4C7
100
AcDbEntity
8
0
100
AcDbCircle
62
7
6
CONTINUOUS
10
486.2635375601
20
262.7011505541
40
2.5000000000
100
AcDbArc
50
270.0000000000
51
360.0000000000
0
ARC
5
4C8
100
AcDbEntity
8
0
100
AcDbCircle
62
7
6
CONTINUOUS
10
484.7635375601
20
287.1318426022
40
4.0000000000
100
AcDbArc
50
0.0000000000
51
75.0000000000
0
ARC
5
4C9
100
AcDbEntity
8
0
100
AcDbCircle
62
7
6
CONTINUOUS
10
442.5330377111
20
308.8002327368
40
6.0000000000
100
AcDbArc
50
205.6286595769
51
255.0000000000
0
ARC
5
4CA
100
AcDbEntity
8
0
100
AcDbCircle
62
7
6
CONTINUOUS
10
322.7635375601
20
287.1318426022
40
4.0000000000
100
AcDbArc
50
105.0000000000
51
180.0000000000
0
ARC
5
4CB
100
AcDbEntity
8
0
100
AcDbCircle
62
7
6
CONTINUOUS
10
364.9940374090
20
308.8002327368
40
6.0000000000
100
AcDbArc
50
285.0000000000
51
334.3713404231
0
ARC
5
4CC
100
AcDbEntity
8
0
100
AcDbCircle
62
7
6
CONTINUOUS
10
403.7635375601
20
290.2011505541
40
37.0000000000
100
AcDbArc
50
25.6286595769
51
154.3713404231
0
CIRCLE
5
4CD
100
AcDbEntity
8
0
100
AcDbCircle
62
7
6
CONTINUOUS
10
48.9504866221
20
43.4483660183
40
22.5000000000
0
CIRCLE
5
4CE
100
AcDbEntity
8
0
100
AcDbCircle
62
7
6
CONTINUOUS
10
48.9504866221
20
147.4483660183
40
22.5000000000
0
CIRCLE
5
4CF
100
AcDbEntity
8
0
100
AcDbCircle
62
7
6
CONTINUOUS
10
246.9504866221
20
43.4483660183
40
22.5000000000
0
CIRCLE
5
4D0
100
AcDbEntity
8
0
100
AcDbCircle
62
7
6
CONTINUOUS
10
246.9504866221
20
147.4483660183
40
22.5000000000
0
ARC
5
4D1
100
AcDbEntity
8
0
100
AcDbCircle
62
7
6
CONTINUOUS
10
220.9504866221
20
179.4483660183
40
1.0000000000
100
AcDbArc
50
90.0000000000
51
180.0000000000
0
ARC
5
4D2
100
AcDbEntity
8
0
100
AcDbCircle
62
7
6
CONTINUOUS
10
220.9504866221
20
11.4483660183
40
1.0000000000
100
AcDbArc
50
180.0000000000
51
270.0000000000
0
CIRCLE
5
4D3
100
AcDbEntity
8
0
100
AcDbCircle
62
7
6
CONTINUOUS
10
246.9504866221
20
43.4483660183
40
24.0000000000
0
CIRCLE
5
4D4
100
AcDbEntity
8
0
100
AcDbCircle
62
7
6
CONTINUOUS
10
246.9504866221
20
147.4483660183
40
24.0000000000
0
ARC
5
4D5
100
AcDbEntity
8
0
100
AcDbCircle
62
7
6
CONTINUOUS
10
74.9504866221
20
11.4483660183
40
1.0000000000
100
AcDbArc
50
270.0000000000
51
360.0000000000
0
ARC
5
4D6
100
AcDbEntity
8
0
100
AcDbCircle
62
7
6
CONTINUOUS
10
74.9504866221
20
179.4483660183
40
1.0000000000
100
AcDbArc
50
0.0000000000
51
90.0000000000
0
CIRCLE
5
4D7
100
AcDbEntity
8
0
100
AcDbCircle
62
7
6
CONTINUOUS
10
48.9504866221
20
147.4483660183
40
24.0000000000
0
CIRCLE
5
4D8
100
AcDbEntity
8
0
100
AcDbCircle
62
7
6
CONTINUOUS
10
48.9504866221
20
43.4483660183
40
24.0000000000
0
SPLINE
5
4D9
100
AcDbEntity
8
0
100
AcDbSpline
62
7
6
CONTINUOUS
70
0
71
3
72
25
73
21
74
19
42
0.0000001000
43
0.0000001000
44
0.0000000001
12
5.6479544983
22
-53.7366975174
32
0.0000000000
13
5.6479544983
23
53.7366975174
33
0.0000000000
40
0.0000000000
40
0.0000000000
40
0.0000000000
40
0.0000000000
40
0.0236674961
40
0.0549531995
40
0.0960750481
40
0.1469822730
40
0.2066386761
40
0.2735349481
40
0.3459480194
40
0.4220561030
40
0.5000146310
40
0.5779719007
40
0.6540765386
40
0.7264846585
40
0.7933754288
40
0.8530265812
40
0.9039295250
40
0.9450484956
40
0.9763328459
40
1.0000000000
40
1.0000000000
40
1.0000000000
40
1.0000000000
10
221.7583604002
20
299.0434739044
30
0.0000000000
10
221.8029180473
20
298.6195362106
30
0.0000000000
10
222.2755105784
20
297.6829597674
30
0.0000000000
10
223.6396042382
20
296.5864484617
30
0.0000000000
10
225.6254380008
20
295.5714469076
30
0.0000000000
10
228.2102578497
20
294.6692653915
30
0.0000000000
10
231.3143625622
20
293.8946863028
30
0.0000000000
10
234.8458899152
20
293.2722968866
30
0.0000000000
10
238.7007231792
20
292.8170308522
30
0.0000000000
10
242.7719335826
20
292.5399101912
30
0.0000000000
10
246.9512556677
20
292.4468972270
30
0.0000000000
10
251.1305141503
20
292.5399776660
30
0.0000000000
10
255.2015464368
20
292.8171531866
30
0.0000000000
10
259.0561235921
20
293.2724523362
30
0.0000000000
10
262.5873622138
20
293.8948491673
30
0.0000000000
10
265.6911917700
20
294.6694115045
30
0.0000000000
10
268.2757861669
20
295.5715587530
30
0.0000000000
10
270.2614685793
20
296.5865181694
30
0.0000000000
10
271.6254833954
20
297.6829931481
30
0.0000000000
10
272.0980558409
20
298.6195423381
30
0.0000000000
10
272.1426128439
20
299.0434739044
30
0.0000000000
11
221.7583604002
21
299.0434739044
31
0.0000000000
11
222.2670594256
21
297.8701869529
31
0.0000000000
11
223.5257077947
21
296.7417241305
31
0.0000000000
11
225.4850713099
21
295.6939445261
31
0.0000000000
11
228.0717422326
21
294.7584052157
31
0.0000000000
11
231.1949667453
21
293.9610648498
31
0.0000000000
11
234.7526371474
21
293.3221502150
31
0.0000000000
11
238.6374736642
21
292.8562554564
31
0.0000000000
11
242.7400389510
21
292.5731063338
31
0.0000000000
11
246.9512780745
21
292.4781602989
31
0.0000000000
11
251.1624476406
21
292.5731750853
31
0.0000000000
11
255.2648224981
21
292.8563793735
31
0.0000000000
11
259.1493857543
21
293.3223058479
31
0.0000000000
11
262.7067532858
21
293.9612251986
31
0.0000000000
11
265.8296903743
21
294.7585444564
31
0.0000000000
11
268.4161297676
21
295.6940438006
31
0.0000000000
11
270.3753422755
21
296.7417760213
31
0.0000000000
11
271.6339254348
21
297.8702020626
31
0.0000000000
11
272.1426128439
21
299.0434739044
31
0.0000000000
0
SPLINE
5
4DA
100
AcDbEntity
8
0
100
AcDbSpline
62
7
6
CONTINUOUS
70
0
71
3
72
11
73
7
74
5
42
0.0000001000
43
0.0000001000
44
0.0000000001
12
0.4635277377
22
4.4101718310
32
0.0000000000
13
-3.9205471833
23
2.0813237710
33
0.0000000000
40
0.0000000000
40
0.0000000000
40
0.0000000000
40
0.0000000000
40
0.1913045416
40
0.4092553439
40
0.6771830856
40
1.0000000000
40
1.0000000000
40
1.0000000000
40
1.0000000000
10
272.1426128439
20
299.0434739044
30
0.0000000000
10
272.1721711644
20
299.3247025379
30
0.0000000000
10
272.0834447089
20
299.9488735149
30
0.0000000000
10
271.5277557929
20
300.8055971742
30
0.0000000000
10
270.6226047604
20
301.5998262438
30
0.0000000000
10
269.8726963230
20
302.0529035965
30
0.0000000000
10
269.4508233415
20
302.2768657690
30
0.0000000000
11
272.1426128439
21
299.0434739044
31
0.0000000000
11
272.0352281090
21
299.8849830644
31
0.0000000000
11
271.5395650660
21
300.7147003828
31
0.0000000000
11
270.6657942853
21
301.5197744541
31
0.0000000000
11
269.4508233415
21
302.2768657690
31
0.0000000000
0
SPLINE
5
4DB
100
AcDbEntity
8
0
100
AcDbSpline
62
7
6
CONTINUOUS
70
0
71
3
72
9
73
5
74
3
42
0.0000001000
43
0.0000001000
44
0.0000000001
12
-0.0131712900
22
-0.1158007101
32
0.0000000000
13
0.1058738773
23
0.0487238078
33
0.0000000000
40
0.0000000000
40
0.0000000000
40
0.0000000000
40
0.0000000000
40
0.7430039709
40
1.0000000000
40
1.0000000000
40
1.0000000000
40
1.0000000000
10
281.9278273106
20
271.9290407144
30
0.0000000000
10
281.9245652037
20
271.9003605852
30
0.0000000000
10
281.9053033330
20
271.8644290119
30
0.0000000000
10
281.9414169001
20
271.8203271776
30
0.0000000000
10
281.9504866221
20
271.8245011193
30
0.0000000000
11
281.9278273106
21
271.9290407144
31
0.0000000000
11
281.9265121927
21
271.8424555493
31
0.0000000000
11
281.9504866221
21
271.8245011193
31
0.0000000000
0
SPLINE
5
4DC
100
AcDbEntity
8
0
100
AcDbSpline
62
7
6
CONTINUOUS
70
0
71
3
72
11
73
7
74
5
42
0.0000001000
43
0.0000001000
44
0.0000000001
12
-3.9205471047
22
-2.0813237145
32
0.0000000000
13
0.4635277277
23
-4.4101717364
33
0.0000000000
40
0.0000000000
40
0.0000000000
40
0.0000000000
40
0.0000000000
40
0.3228159117
40
0.5907439340
40
0.8086951457
40
1.0000000000
40
1.0000000000
40
1.0000000000
40
1.0000000000
10
224.4501498494
20
302.2768657419
30
0.0000000000
10
224.0282781867
20
302.0529042711
30
0.0000000000
10
223.2783706446
20
301.5998275938
30
0.0000000000
10
222.3732194489
20
300.8055995084
30
0.0000000000
10
221.8175289293
20
299.9488750886
30
0.0000000000
10
221.7288020321
20
299.3247029916
30
0.0000000000
10
221.7583604002
20
299.0434739044
30
0.0000000000
11
224.4501498494
21
302.2768657419
31
0.0000000000
11
223.2351825089
21
301.5197771003
31
0.0000000000
11
222.3614102415
21
300.7147028444
31
0.0000000000
11
221.8657456116
21
299.8849843832
31
0.0000000000
11
221.7583604002
21
299.0434739044
31
0.0000000000
0
SPLINE
5
4DD
100
AcDbEntity
8
0
100
AcDbSpline
62
7
6
CONTINUOUS
70
0
71
3
72
25
73
21
74
19
42
0.0000001000
43
0.0000001000
44
0.0000000001
12
-5.6479544983
22
-53.7366975174
32
0.0000000000
13
-5.6479544983
23
53.7366975174
33
0.0000000000
40
0.0000000000
40
0.0000000000
40
0.0000000000
40
0.0000000000
40
0.0236674961
40
0.0549531995
40
0.0960750481
40
0.1469822730
40
0.2066386761
40
0.2735349481
40
0.3459480194
40
0.4220561030
40
0.5000146310
40
0.5779719007
40
0.6540765386
40
0.7264846585
40
0.7933754288
40
0.8530265812
40
0.9039295250
40
0.9450484956
40
0.9763328459
40
1.0000000000
40
1.0000000000
40
1.0000000000
40
1.0000000000
10
74.1426128439
20
299.0434739044
30
0.0000000000
10
74.0980551968
20
298.6195362106
30
0.0000000000
10
73.6254626658
20
297.6829597674
30
0.0000000000
10
72.2613690060
20
296.5864484617
30
0.0000000000
10
70.2755352434
20
295.5714469076
30
0.0000000000
10
67.6907153944
20
294.6692653915
30
0.0000000000
10
64.5866106820
20
293.8946863028
30
0.0000000000
10
61.0550833289
20
293.2722968866
30
0.0000000000
10
57.2002500649
20
292.8170308522
30
0.0000000000
10
53.1290396616
20
292.5399101912
30
0.0000000000
10
48.9497175764
20
292.4468972270
30
0.0000000000
10
44.7704590938
20
292.5399776660
30
0.0000000000
10
40.6994268073
20
292.8171531866
30
0.0000000000
10
36.8448496520
20
293.2724523362
30
0.0000000000
10
33.3136110303
20
293.8948491673
30
0.0000000000
10
30.2097814742
20
294.6694115045
30
0.0000000000
10
27.6251870772
20
295.5715587530
30
0.0000000000
10
25.6395046649
20
296.5865181694
30
0.0000000000
10
24.2754898488
20
297.6829931481
30
0.0000000000
10
23.8029174033
20
298.6195423381
30
0.0000000000
10
23.7583604002
20
299.0434739044
30
0.0000000000
11
74.1426128439
21
299.0434739044
31
0.0000000000
11
73.6339138186
21
297.8701869529
31
0.0000000000
11
72.3752654495
21
296.7417241305
31
0.0000000000
11
70.4159019343
21
295.6939445261
31
0.0000000000
11
67.8292310115
21
294.7584052157
31
0.0000000000
11
64.7060064988
21
293.9610648498
31
0.0000000000
11
61.1483360968
21
293.3221502150
31
0.0000000000
11
57.2634995799
21
292.8562554564
31
0.0000000000
11
53.1609342932
21
292.5731063338
31
0.0000000000
11
48.9496951696
21
292.4781602989
31
0.0000000000
11
44.7385256035
21
292.5731750853
31
0.0000000000
11
40.6361507460
21
292.8563793735
31
0.0000000000
11
36.7515874899
21
293.3223058479
31
0.0000000000
11
33.1942199583
21
293.9612251986
31
0.0000000000
11
30.0712828698
21
294.7585444564
31
0.0000000000
11
27.4848434765
21
295.6940438006
31
0.0000000000
11
25.5256309686
21
296.7417760213
31
0.0000000000
11
24.2670478093
21
297.8702020626
31
0.0000000000
11
23.7583604002
21
299.0434739044
31
0.0000000000
0
SPLINE
5
4DE
100
AcDbEntity
8
0
100
AcDbSpline
62
7
6
CONTINUOUS
70
0
71
3
72
11
73
7
74
5
42
0.0000001000
43
0.0000001000
44
0.0000000001
12
3.9205470900
22
-2.0813237083
32
0.0000000000
13
-0.4635277257
23
-4.4101717167
33
0.0000000000
40
0.0000000000
40
0.0000000000
40
0.0000000000
40
0.0000000000
40
0.3228157661
40
0.5907438776
40
0.8086951694
40
1.0000000000
40
1.0000000000
40
1.0000000000
40
1.0000000000
10
71.4508234097
20
302.2768657343
30
0.0000000000
10
71.8726948805
20
302.0529043652
30
0.0000000000
10
72.6226023517
20
301.5998277476
30
0.0000000000
10
73.5277536413
20
300.8055997261
30
0.0000000000
10
74.0834443212
20
299.9488751327
30
0.0000000000
10
74.1721712083
20
299.3247029554
30
0.0000000000
10
74.1426128439
20
299.0434739044
30
0.0000000000
11
71.4508234097
21
302.2768657343
31
0.0000000000
11
72.6657902252
21
301.5197774805
31
0.0000000000
11
73.5395628457
21
300.7147030317
31
0.0000000000
11
74.0352276705
21
299.8849842782
31
0.0000000000
11
74.1426128439
21
299.0434739044
31
0.0000000000
0
SPLINE
5
4DF
100
AcDbEntity
8
0
100
AcDbSpline
62
7
6
CONTINUOUS
70
0
71
3
72
9
73
5
74
3
42
0.0000001000
43
0.0000001000
44
0.0000000001
12
0.1059550386
22
-0.0485782253
32
0.0000000000
13
-0.0132236542
23
0.1158078113
33
0.0000000000
40
0.0000000000
40
0.0000000000
40
0.0000000000
40
0.0000000000
40
0.2572411171
40
1.0000000000
40
1.0000000000
40
1.0000000000
40
1.0000000000
10
13.9504866221
20
271.8245011193
30
0.0000000000
10
13.9595719529
20
271.8203356803
30
0.0000000000
10
13.9956837188
20
271.8644120627
30
0.0000000000
10
13.9764199291
20
271.9003682875
30
0.0000000000
10
13.9731459335
20
271.9290407144
30
0.0000000000
11
13.9504866221
21
271.8245011193
31
0.0000000000
11
13.9744864487
21
271.8424748609
31
0.0000000000
11
13.9731459335
21
271.9290407144
31
0.0000000000
0
SPLINE
5
4E0
100
AcDbEntity
8
0
100
AcDbSpline
62
7
6
CONTINUOUS
70
0
71
3
72
11
73
7
74
5
42
0.0000001000
43
0.0000001000
44
0.0000000001
12
-0.4635277354
22
4.4101718097
32
0.0000000000
13
3.9205471707
23
2.0813237569
33
0.0000000000
40
0.0000000000
40
0.0000000000
40
0.0000000000
40
0.0000000000
40
0.1913045202
40
0.4092554058
40
0.6771832415
40
1.0000000000
40
1.0000000000
40
1.0000000000
40
1.0000000000
10
23.7583604002
20
299.0434739044
30
0.0000000000
10
23.7288020832
20
299.3247025051
30
0.0000000000
10
23.8175285319
20
299.9488735708
30
0.0000000000
10
24.3732176223
20
300.8055974128
30
0.0000000000
10
25.2783687513
20
301.5998264094
30
0.0000000000
10
26.0282771102
20
302.0529036980
30
0.0000000000
10
26.4501498865
20
302.2768657608
30
0.0000000000
11
23.7583604002
21
299.0434739044
31
0.0000000000
11
23.8657451006
21
299.8849829689
31
0.0000000000
11
24.3614083508
21
300.7147005887
31
0.0000000000
11
25.2351795050
21
301.5197748611
31
0.0000000000
11
26.4501498865
21
302.2768657608
31
0.0000000000
0
SPLINE
5
4E1
100
AcDbEntity
8
0
100
AcDbSpline
62
7
6
CONTINUOUS
70
0
71
3
72
10
73
6
74
4
42
0.0000001000
43
0.0000001000
44
0.0000000001
12
0.0364337421
22
-0.3175178207
32
0.0000000000
13
0.0837409374
23
-0.3084354704
33
0.0000000000
40
0.0000000000
40
0.0000000000
40
0.0000000000
40
0.0000000000
40
0.3174014358
40
0.6428351834
40
1.0000000000
40
1.0000000000
40
1.0000000000
40
1.0000000000
10
320.0182603494
20
271.8231123949
30
0.0000000000
10
320.0221150567
20
271.7895188575
30
0.0000000000
10
320.0284169826
20
271.7208574664
30
0.0000000000
10
320.0048410852
20
271.6144998695
30
0.0000000000
10
320.0275440618
20
271.5430752857
30
0.0000000000
10
320.0375138339
20
271.5063545196
30
0.0000000000
11
320.0182603494
21
271.8231123949
31
0.0000000000
11
320.0231071223
21
271.7217863396
31
0.0000000000
11
320.0144073689
21
271.6181417749
31
0.0000000000
11
320.0375138339
21
271.5063545196
31
0.0000000000
0
SPLINE
5
4E2
100
AcDbEntity
8
0
100
AcDbSpline
62
7
6
CONTINUOUS
70
0
71
3
72
16
73
12
74
10
42
0.0000001000
43
0.0000001000
44
0.0000000001
12
0.4032400219
22
-1.5029149060
32
0.0000000000
13
1.5560706057
23
0.0000000000
33
0.0000000000
40
0.0000000000
40
0.0000000000
40
0.0000000000
40
0.0000000000
40
0.1488538503
40
0.2865569132
40
0.4138655862
40
0.5314421861
40
0.6400995514
40
0.7398709641
40
0.8367851346
40
0.9249289604
40
1.0000000000
40
1.0000000000
40
1.0000000000
40
1.0000000000
10
320.0375138339
20
271.5063545196
30
0.0000000000
10
320.0575217772
20
271.4317829628
30
0.0000000000
10
320.0977377158
20
271.2886715352
30
0.0000000000
10
320.1618225433
20
271.0837551901
30
0.0000000000
10
320.2277424925
20
270.8965259334
30
0.0000000000
10
320.2962897697
20
270.7263550598
30
0.0000000000
10
320.3685364804
20
270.5733412378
30
0.0000000000
10
320.4475076639
20
270.4357527968
30
0.0000000000
10
320.5366275702
20
270.3173142539
30
0.0000000000
10
320.6396642182
20
270.2272532665
30
0.0000000000
10
320.7245989474
20
270.2011505541
30
0.0000000000
10
320.7635375601
20
270.2011505541
30
0.0000000000
11
320.0375138339
21
271.5063545196
31
0.0000000000
11
320.1004240285
21
271.2834343067
31
0.0000000000
11
320.1646810277
21
271.0790202447
31
0.0000000000
11
320.2308480385
21
270.8922957274
31
0.0000000000
11
320.2997132655
21
270.7227934441
31
0.0000000000
11
320.3726026557
21
270.5702330074
31
0.0000000000
11
320.4509926345
21
270.4362255568
31
0.0000000000
11
320.5435948929
21
270.3172001064
31
0.0000000000
11
320.6507586568
21
270.2315949127
31
0.0000000000
11
320.7635375601
21
270.2011505541
31
0.0000000000
0
SPLINE
5
4E3
100
AcDbEntity
8
0
100
AcDbSpline
62
7
6
CONTINUOUS
70
0
71
3
72
10
73
6
74
4
42
0.0000001000
43
0.0000001000
44
0.0000000001
12
0.0836458785
22
0.3080853482
32
0.0000000000
13
0.0363807006
23
0.3171587290
33
0.0000000000
40
0.0000000000
40
0.0000000000
40
0.0000000000
40
0.0000000000
40
0.3562334917
40
0.6813482950
40
1.0000000000
40
1.0000000000
40
1.0000000000
40
1.0000000000
10
487.4895612862
20
271.5063545196
30
0.0000000000
10
487.4994937740
20
271.5429379594
30
0.0000000000
10
487.5221054743
20
271.6141414614
30
0.0000000000
10
487.4987146471
20
271.7203970297
30
0.0000000000
10
487.5050435068
20
271.7890740419
30
0.0000000000
10
487.5089077642
20
271.8227617652
30
0.0000000000
11
487.4895612862
21
271.5063545196
31
0.0000000000
11
487.5126005387
21
271.6177197488
31
0.0000000000
11
487.5040181394
21
271.7211534573
31
0.0000000000
11
487.5089077642
21
271.8227617652
31
0.0000000000
0
SPLINE
5
4E4
100
AcDbEntity
8
0
100
AcDbSpline
62
7
6
CONTINUOUS
70
0
71
3
72
16
73
12
74
10
42
0.0000001000
43
0.0000001000
44
0.0000000001
12
1.5560706057
22
0.0000000000
32
0.0000000000
13
0.4032400219
23
1.5029149060
33
0.0000000000
40
0.0000000000
40
0.0000000000
40
0.0000000000
40
0.0000000000
40
0.0750710396
40
0.1632148654
40
0.2601290359
40
0.3599004486
40
0.4685578139
40
0.5861344138
40
0.7134430868
40
0.8511461497
40
1.0000000000
40
1.0000000000
40
1.0000000000
40
1.0000000000
10
486.7635375601
20
270.2011505541
30
0.0000000000
10
486.8024761727
20
270.2011505541
30
0.0000000000
10
486.8874109020
20
270.2272532665
30
0.0000000000
10
486.9904475499
20
270.3173142539
30
0.0000000000
10
487.0795674562
20
270.4357527968
30
0.0000000000
10
487.1585386398
20
270.5733412378
30
0.0000000000
10
487.2307853505
20
270.7263550598
30
0.0000000000
10
487.2993326276
20
270.8965259334
30
0.0000000000
10
487.3652525768
20
271.0837551901
30
0.0000000000
10
487.4293374044
20
271.2886715352
30
0.0000000000
10
487.4695533429
20
271.4317829628
30
0.0000000000
10
487.4895612862
20
271.5063545196
30
0.0000000000
11
486.7635375601
21
270.2011505541
31
0.0000000000
11
486.8763164634
21
270.2315949127
31
0.0000000000
11
486.9834802273
21
270.3172001064
31
0.0000000000
11
487.0760824857
21
270.4362255568
31
0.0000000000
11
487.1544724644
21
270.5702330074
31
0.0000000000
11
487.2273618547
21
270.7227934441
31
0.0000000000
11
487.2962270816
21
270.8922957274
31
0.0000000000
11
487.3623940924
21
271.0790202447
31
0.0000000000
11
487.4266510917
21
271.2834343067
31
0.0000000000
11
487.4895612862
21
271.5063545196
31
0.0000000000
0
SPLINE
5
4E5
100
AcDbEntity
8
0
100
AcDbSpline
62
7
6
CONTINUOUS
70
0
71
3
72
17
73
13
74
11
42
0.0000001000
43
0.0000001000
44
0.0000000001
12
-0.3922315926
22
1.3984690681
32
0.0000000000
13
-1.4524329095
23
0.0000000000
33
0.0000000000
40
0.0000000000
40
0.0000000000
40
0.0000000000
40
0.0000000000
40
0.1317388658
40
0.2549521049
40
0.3701992984
40
0.4776023835
40
0.5781915351
40
0.6757998060
40
0.7717689272
40
0.8585648750
40
0.9329510254
40
1.0000000000
40
1.0000000000
40
1.0000000000
40
1.0000000000
10
487.4619835407
20
271.9964958709
30
0.0000000000
10
487.4447594923
20
272.0579067805
30
0.0000000000
10
487.4101309165
20
272.1763980592
30
0.0000000000
10
487.3553570192
20
272.3470775114
30
0.0000000000
10
487.2992492161
20
272.5048798350
30
0.0000000000
10
487.2412811301
20
272.6502905598
30
0.0000000000
10
487.1800442316
20
272.7850546946
30
0.0000000000
10
487.1130647212
20
272.9108779964
30
0.0000000000
10
487.0385303730
20
273.0246692233
30
0.0000000000
10
486.9558018763
20
273.1185371260
30
0.0000000000
10
486.8648992149
20
273.1839025275
30
0.0000000000
10
486.7959989392
20
273.2011505541
30
0.0000000000
10
486.7635375601
20
273.2011505541
30
0.0000000000
11
487.4619835407
21
271.9964958709
31
0.0000000000
11
487.4081469450
21
272.1801077712
31
0.0000000000
11
487.3532700504
21
272.3504451924
31
0.0000000000
11
487.2969560553
21
272.5080768828
31
0.0000000000
11
487.2388918501
21
272.6528637262
31
0.0000000000
11
487.1780526983
21
272.7856926149
31
0.0000000000
11
487.1108139954
21
272.9105026226
31
0.0000000000
11
487.0332762333
21
273.0263348629
31
0.0000000000
11
486.9482301723
21
273.1193919696
31
0.0000000000
11
486.8585004915
21
273.1795701957
31
0.0000000000
11
486.7635375601
21
273.2011505541
31
0.0000000000
0
SPLINE
5
4E6
100
AcDbEntity
8
0
100
AcDbSpline
62
7
6
CONTINUOUS
70
0
71
3
72
9
73
5
74
3
42
0.0000001000
43
0.0000001000
44
0.0000000001
12
0.1432955270
22
-0.0252930171
32
0.0000000000
13
-0.0671576985
23
0.1290859725
33
0.0000000000
40
0.0000000000
40
0.0000000000
40
0.0000000000
40
0.0000000000
40
0.3820686006
40
1.0000000000
40
1.0000000000
40
1.0000000000
40
1.0000000000
10
487.5084464558
20
271.8245011193
30
0.0000000000
10
487.5266960296
20
271.8212798968
30
0.0000000000
10
487.5920817448
20
271.8410725000
30
0.0000000000
10
487.5505749374
20
271.9024519558
30
0.0000000000
10
487.5367419872
20
271.9290407144
30
0.0000000000
11
487.5084464558
21
271.8245011193
31
0.0000000000
11
487.5610558997
21
271.8424748609
31
0.0000000000
11
487.5367419872
21
271.9290407144
31
0.0000000000
0
SPLINE
5
4E7
100
AcDbEntity
8
0
100
AcDbSpline
62
7
6
CONTINUOUS
70
0
71
3
72
9
73
5
74
3
42
0.0000001000
43
0.0000001000
44
0.0000000001
12
-0.0453586406
22
0.1741514249
32
0.0000000000
13
-0.0435409784
23
0.1746147424
33
0.0000000000
40
0.0000000000
40
0.0000000000
40
0.0000000000
40
0.0000000000
40
0.5119743361
40
1.0000000000
40
1.0000000000
40
1.0000000000
40
1.0000000000
10
487.5089077642
20
271.8227617652
30
0.0000000000
10
487.5011669442
20
271.8524821185
30
0.0000000000
10
487.4862292457
20
271.9105822158
30
0.0000000000
10
487.4690665790
20
271.9680903790
30
0.0000000000
10
487.4619835407
20
271.9964958709
30
0.0000000000
11
487.5089077642
21
271.8227617652
31
0.0000000000
11
487.4852883041
21
271.9118184796
31
0.0000000000
11
487.4619835407
21
271.9964958709
31
0.0000000000
0
SPLINE
5
4E8
100
AcDbEntity
8
0
100
AcDbSpline
62
7
6
CONTINUOUS
70
0
71
3
72
9
73
5
74
3
42
0.0000001000
43
0.0000001000
44
0.0000000001
12
-0.0434532119
22
-0.1742627679
32
0.0000000000
13
-0.0452672102
23
-0.1738003842
33
0.0000000000
40
0.0000000000
40
0.0000000000
40
0.0000000000
40
0.0000000000
40
0.4890113742
40
1.0000000000
40
1.0000000000
40
1.0000000000
40
1.0000000000
10
320.0650915795
20
271.9964958709
30
0.0000000000
10
320.0580085412
20
271.9680903790
30
0.0000000000
10
320.0408793752
20
271.9106984274
30
0.0000000000
10
320.0259706926
20
271.8527157348
30
0.0000000000
10
320.0182603494
20
271.8231123949
30
0.0000000000
11
320.0650915795
21
271.9964958709
31
0.0000000000
11
320.0417868161
21
271.9118184796
31
0.0000000000
11
320.0182603494
21
271.8231123949
31
0.0000000000
0
SPLINE
5
4E9
100
AcDbEntity
8
0
100
AcDbSpline
62
7
6
CONTINUOUS
70
0
71
3
72
9
73
5
74
3
42
0.0000001000
43
0.0000001000
44
0.0000000001
12
-0.0670260644
22
-0.1290950350
32
0.0000000000
13
0.1432280937
23
0.0253719244
33
0.0000000000
40
0.0000000000
40
0.0000000000
40
0.0000000000
40
0.0000000000
40
0.6181837040
40
1.0000000000
40
1.0000000000
40
1.0000000000
40
1.0000000000
10
319.9903331329
20
271.9290407144
30
0.0000000000
10
319.9765216594
20
271.9024392321
30
0.0000000000
10
319.9350570082
20
271.8410800644
30
0.0000000000
10
320.0003997243
20
271.8212719812
30
0.0000000000
10
320.0186286643
20
271.8245011193
30
0.0000000000
11
319.9903331329
21
271.9290407144
31
0.0000000000
11
319.9660726681
21
271.8424555493
31
0.0000000000
11
320.0186286643
21
271.8245011193
31
0.0000000000
0
SPLINE
5
4EA
100
AcDbEntity
8
0
100
AcDbSpline
62
7
6
CONTINUOUS
70
0
71
3
72
17
73
13
74
11
42
0.0000001000
43
0.0000001000
44
0.0000000001
12
-1.4524329095
22
0.0000000000
32
0.0000000000
13
-0.3922315926
23
-1.3984690681
33
0.0000000000
40
0.0000000000
40
0.0000000000
40
0.0000000000
40
0.0000000000
40
0.0670489746
40
0.1414351250
40
0.2282310728
40
0.3242001940
40
0.4218084649
40
0.5223976165
40
0.6298007016
40
0.7450478951
40
0.8682611342
40
1.0000000000
40
1.0000000000
40
1.0000000000
40
1.0000000000
10
320.7635375601
20
273.2011505541
30
0.0000000000
10
320.7310761810
20
273.2011505541
30
0.0000000000
10
320.6621759052
20
273.1839025275
30
0.0000000000
10
320.5712732438
20
273.1185371260
30
0.0000000000
10
320.4885447471
20
273.0246692233
30
0.0000000000
10
320.4140103990
20
272.9108779964
30
0.0000000000
10
320.3470308886
20
272.7850546946
30
0.0000000000
10
320.2857939901
20
272.6502905598
30
0.0000000000
10
320.2278259040
20
272.5048798350
30
0.0000000000
10
320.1717181009
20
272.3470775114
30
0.0000000000
10
320.1169442037
20
272.1763980592
30
0.0000000000
10
320.0823156279
20
272.0579067805
30
0.0000000000
10
320.0650915795
20
271.9964958709
30
0.0000000000
11
320.7635375601
21
273.2011505541
31
0.0000000000
11
320.6685746287
21
273.1795701957
31
0.0000000000
11
320.5788449479
21
273.1193919696
31
0.0000000000
11
320.4937988869
21
273.0263348629
31
0.0000000000
11
320.4162611248
21
272.9105026226
31
0.0000000000
11
320.3490224219
21
272.7856926149
31
0.0000000000
11
320.2881832700
21
272.6528637262
31
0.0000000000
11
320.2301190649
21
272.5080768828
31
0.0000000000
11
320.1738050697
21
272.3504451924
31
0.0000000000
11
320.1189281752
21
272.1801077712
31
0.0000000000
11
320.0650915795
21
271.9964958709
31
0.0000000000
0
SPLINE
5
4EB
100
AcDbEntity
8
0
100
AcDbSpline
62
7
6
CONTINUOUS
70
0
71
3
72
11
73
7
74
5
42
0.0000001000
43
0.0000001000
44
0.0000000001
12
-0.3049535498
22
-0.3004922309
32
0.0000000000
13
-0.2357780797
23
-0.3528560023
33
0.0000000000
40
0.0000000000
40
0.0000000000
40
0.0000000000
40
0.0000000000
40
0.4683540466
40
0.8943391012
40
0.9725188627
40
1.0000000000
40
1.0000000000
40
1.0000000000
40
1.0000000000
10
80.3551816168
20
111.4476450990
30
0.0000000000
10
80.3075728738
20
111.4007328483
30
0.0000000000
10
80.2279010574
20
111.3024540999
30
0.0000000000
10
80.1521346937
20
111.1873308224
30
0.0000000000
10
80.1105710271
20
111.1246021230
30
0.0000000000
10
80.1022778079
20
111.1121648143
30
0.0000000000
10
80.1001179914
20
111.1089325196
30
0.0000000000
11
80.3551816168
21
111.4476450990
31
0.0000000000
11
80.2268680841
21
111.2957166642
31
0.0000000000
11
80.1249402508
21
111.1462981001
31
0.0000000000
11
80.1065895282
21
111.1186364060
31
0.0000000000
11
80.1001179914
21
111.1089325196
31
0.0000000000
0
SPLINE
5
4EC
100
AcDbEntity
8
0
100
AcDbSpline
62
7
6
CONTINUOUS
70
0
71
3
72
9
73
5
74
3
42
0.0000001000
43
0.0000001000
44
0.0000000001
12
-0.7702209886
22
-0.9140425519
32
0.0000000000
13
1.0650840966
23
0.6832945732
33
0.0000000000
40
0.0000000000
40
0.0000000000
40
0.0000000000
40
0.0000000000
40
0.8541395705
40
1.0000000000
40
1.0000000000
40
1.0000000000
40
1.0000000000
10
80.0987591657
20
111.1101681762
30
0.0000000000
10
79.8794670909
20
110.8499282053
30
0.0000000000
10
79.2233664784
20
110.2559028247
30
0.0000000000
10
79.5572644425
20
110.4729831332
30
0.0000000000
10
79.6090489838
20
110.5062050132
30
0.0000000000
11
80.0987591657
21
111.1101681762
31
0.0000000000
11
79.4809219236
21
110.4269127675
31
0.0000000000
11
79.6090489838
21
110.5062050132
31
0.0000000000
0
SPLINE
5
4ED
100
AcDbEntity
8
0
100
AcDbSpline
62
7
6
CONTINUOUS
70
0
71
3
72
11
73
7
74
5
42
0.0000001000
43
0.0000001000
44
0.0000000001
12
-0.2305386962
22
0.3562454695
32
0.0000000000
13
-0.3015468762
23
0.3027242227
33
0.0000000000
40
0.0000000000
40
0.0000000000
40
0.0000000000
40
0.0000000000
40
0.0318798564
40
0.1009653525
40
0.5278202052
40
1.0000000000
40
1.0000000000
40
1.0000000000
40
1.0000000000
10
215.8004516047
20
111.1087153563
30
0.0000000000
10
215.7980017578
20
111.1125010411
30
0.0000000000
10
215.7902414964
20
111.1244922131
30
0.0000000000
10
215.7496101396
20
111.1871747638
30
0.0000000000
10
215.6737641336
20
111.3014823970
30
0.0000000000
10
215.5932530735
20
111.3999983515
30
0.0000000000
10
215.5457916261
20
111.4476451053
30
0.0000000000
11
215.8004516047
21
111.1087153563
31
0.0000000000
11
215.7930999487
21
111.1200733985
31
0.0000000000
11
215.7771379330
21
111.1446804098
31
0.0000000000
11
215.6750433120
21
111.2944097429
31
0.0000000000
11
215.5457916261
21
111.4476451053
31
0.0000000000
0
SPLINE
5
4EE
100
AcDbEntity
8
0
100
AcDbSpline
62
7
6
CONTINUOUS
70
0
71
3
72
9
73
5
74
3
42
0.0000001000
43
0.0000001000
44
0.0000000001
12
0.9590837990
22
-0.5954658613
32
0.0000000000
13
-3.2037866184
23
3.0051222595
33
0.0000000000
40
0.0000000000
40
0.0000000000
40
0.0000000000
40
0.0000000000
40
0.1321158549
40
1.0000000000
40
1.0000000000
40
1.0000000000
40
1.0000000000
10
216.3003218444
20
110.5019523875
30
0.0000000000
10
216.3425585697
20
110.4757288937
30
0.0000000000
10
216.6534461450
20
110.2781207014
30
0.0000000000
10
216.7319593339
20
110.2439806397
30
0.0000000000
10
215.8051207971
20
111.1133466274
30
0.0000000000
11
216.3003218444
21
110.5019523875
31
0.0000000000
11
216.4206489235
21
110.4263678139
31
0.0000000000
11
215.8051207971
21
111.1133466274
31
0.0000000000
0
SPLINE
5
4EF
100
AcDbEntity
8
0
100
AcDbSpline
62
7
6
CONTINUOUS
70
0
71
3
72
13
73
9
74
7
42
0.0000001000
43
0.0000001000
44
0.0000000001
12
-0.0014179904
22
10.8414144253
32
0.0000000000
13
-10.2612166890
23
3.5328899041
33
0.0000000000
40
0.0000000000
40
0.0000000000
40
0.0000000000
40
0.0000000000
40
0.1660327237
40
0.3533869092
40
0.5355665386
40
0.7128254701
40
0.8858847946
40
1.0000000000
40
1.0000000000
40
1.0000000000
40
1.0000000000
10
220.9504588215
20
102.6249286492
30
0.0000000000
10
220.9503803439
20
103.2249385046
30
0.0000000000
10
220.8314196629
20
104.5052511184
30
0.0000000000
10
220.2568809847
20
106.3677887027
30
0.0000000000
10
219.2622973374
20
108.0925948107
30
0.0000000000
10
217.9431918867
20
109.5138219241
30
0.0000000000
10
216.5456629381
20
110.4649104720
30
0.0000000000
10
215.5877488352
20
110.8785559849
30
0.0000000000
10
215.1974285518
20
111.0129414705
30
0.0000000000
11
220.9504588215
21
102.6249286492
31
0.0000000000
11
220.7811727544
21
104.4166709356
31
0.0000000000
11
220.1804517967
21
106.3550752587
31
0.0000000000
11
219.1925650202
21
108.0632941828
31
0.0000000000
11
217.8850813127
21
109.4693197894
31
0.0000000000
11
216.3342382562
21
110.5222679194
31
0.0000000000
11
215.1974285518
21
111.0129414705
31
0.0000000000
0
SPLINE
5
4F0
100
AcDbEntity
8
0
100
AcDbSpline
62
7
6
CONTINUOUS
70
0
71
3
72
13
73
9
74
7
42
0.0000001000
43
0.0000001000
44
0.0000000001
12
-10.2623372695
22
-3.5332655459
32
0.0000000000
13
-0.0014364253
23
-10.8411226276
33
0.0000000000
40
0.0000000000
40
0.0000000000
40
0.0000000000
40
0.0000000000
40
0.1098865857
40
0.2837169896
40
0.4617721949
40
0.6447882917
40
0.8330304072
40
1.0000000000
40
1.0000000000
40
1.0000000000
40
1.0000000000
10
80.7034478794
20
111.0128970378
30
0.0000000000
10
80.3275501446
20
110.8834775420
30
0.0000000000
10
79.3802363211
20
110.4775859258
30
0.0000000000
10
77.9859484141
20
109.5388434113
30
0.0000000000
10
76.6553045391
20
108.1162639810
30
0.0000000000
10
75.6513221271
20
106.3861708993
30
0.0000000000
10
75.0708454731
20
104.5152333206
30
0.0000000000
10
74.9505946827
20
103.2283045388
30
0.0000000000
10
74.9505147363
20
102.6249252620
30
0.0000000000
11
80.7034478794
21
111.0128970378
31
0.0000000000
11
79.6073393297
21
110.5434316727
31
0.0000000000
11
78.0443702708
21
109.4936246099
31
0.0000000000
11
76.7255909083
21
108.0864298823
31
0.0000000000
11
75.7284672334
21
106.3731690547
31
0.0000000000
11
75.1217201747
21
104.4266349805
31
0.0000000000
11
74.9505147363
21
102.6249252620
31
0.0000000000
0
SPLINE
5
4F1
100
AcDbEntity
8
0
100
AcDbSpline
62
7
6
CONTINUOUS
70
0
71
3
72
11
73
7
74
5
42
0.0000001000
43
0.0000001000
44
0.0000000001
12
0.3015471240
22
0.3027286239
32
0.0000000000
13
0.2305351784
23
0.3562525337
33
0.0000000000
40
0.0000000000
40
0.0000000000
40
0.0000000000
40
0.0000000000
40
0.4721805621
40
0.8990358464
40
0.9681168280
40
1.0000000000
40
1.0000000000
40
1.0000000000
40
1.0000000000
10
215.5457916250
20
79.4490869265
30
0.0000000000
10
215.5932531885
20
79.4967344505
30
0.0000000000
10
215.6737657430
20
79.5952510518
30
0.0000000000
10
215.7496126193
20
79.7095591187
30
0.0000000000
10
215.7902435969
20
79.7722426297
30
0.0000000000
10
215.7980036621
20
79.7842338882
30
0.0000000000
10
215.8004537263
20
79.7880200418
30
0.0000000000
11
215.5457916250
21
79.4490869265
31
0.0000000000
11
215.6750449229
21
79.6023238419
31
0.0000000000
11
215.7771405610
21
79.7520547829
31
0.0000000000
11
215.7931014045
21
79.7766606015
31
0.0000000000
11
215.8004537263
21
79.7880200418
31
0.0000000000
0
SPLINE
5
4F2
100
AcDbEntity
8
0
100
AcDbSpline
62
7
6
CONTINUOUS
70
0
71
3
72
11
73
7
74
5
42
0.0000001000
43
0.0000001000
44
0.0000000001
12
0.2353944752
22
-0.3518216030
32
0.0000000000
13
0.3042303959
23
-0.2998555162
33
0.0000000000
40
0.0000000000
40
0.0000000000
40
0.0000000000
40
0.0000000000
40
0.0250105853
40
0.1069876240
40
0.5147814728
40
1.0000000000
40
1.0000000000
40
1.0000000000
40
1.0000000000
10
80.1007073414
20
79.7869028738
30
0.0000000000
10
80.1026697926
20
79.7839697858
30
0.0000000000
10
80.1110542144
20
79.7714140593
30
0.0000000000
10
80.1512260462
20
79.7108512939
30
0.0000000000
10
80.2270323301
20
79.5957863895
30
0.0000000000
10
80.3059755431
20
79.4975854166
30
0.0000000000
10
80.3551816180
20
79.4490869326
30
0.0000000000
11
80.1007073414
21
79.7869028738
31
0.0000000000
11
80.1065879210
21
79.7780977609
31
0.0000000000
11
80.1257964660
21
79.7491777710
31
0.0000000000
11
80.2229957531
21
79.6064229580
31
0.0000000000
11
80.3551816180
21
79.4490869326
31
0.0000000000
0
SPLINE
5
4F3
100
AcDbEntity
8
0
100
AcDbSpline
62
7
6
CONTINUOUS
70
0
71
3
72
8
73
4
74
2
42
0.0000001000
43
0.0000001000
44
0.0000000001
12
0.4398160811
22
-0.4573242242
32
0.0000000000
13
0.3995535677
23
-0.4741604299
33
0.0000000000
40
0.0000000000
40
0.0000000000
40
0.0000000000
40
0.0000000000
40
1.0000000000
40
1.0000000000
40
1.0000000000
40
1.0000000000
10
79.5599602485
20
80.3462750786
30
0.0000000000
10
79.7065656089
20
80.1938336705
30
0.0000000000
10
79.9655722418
20
79.9446203749
30
0.0000000000
10
80.0987567644
20
79.7865668983
30
0.0000000000
11
79.5599602485
21
80.3462750786
31
0.0000000000
11
80.0987567644
21
79.7865668983
31
0.0000000000
0
SPLINE
5
4F4
100
AcDbEntity
8
0
100
AcDbSpline
62
7
6
CONTINUOUS
70
0
71
3
72
13
73
9
74
7
42
0.0000001000
43
0.0000001000
44
0.0000000001
12
10.2611515493
22
3.5329030438
32
0.0000000000
13
0.0014694294
23
10.8420448144
33
0.0000000000
40
0.0000000000
40
0.0000000000
40
0.0000000000
40
0.0000000000
40
0.1144339716
40
0.2878181926
40
0.4654193386
40
0.6479670196
40
0.8357196560
40
1.0000000000
40
1.0000000000
40
1.0000000000
40
1.0000000000
10
215.1974420284
20
79.8837957450
30
0.0000000000
10
215.5888501368
20
80.0185571205
30
0.0000000000
10
216.5488414652
20
80.4333432026
30
0.0000000000
10
217.9487615538
20
81.3873543075
30
0.0000000000
10
219.2689804047
20
82.8127452118
30
0.0000000000
10
220.2631002733
20
84.5425250849
30
0.0000000000
10
220.8331453731
20
86.4027300220
30
0.0000000000
10
220.9503742665
20
87.6781149181
30
0.0000000000
10
220.9504547326
20
88.2718265353
30
0.0000000000
11
215.1974420284
21
79.8837957450
31
0.0000000000
11
216.3373158706
21
80.3760799637
31
0.0000000000
11
217.8903929176
21
81.4319696614
31
0.0000000000
11
219.1989307317
21
82.8420499172
31
0.0000000000
11
220.1863365809
21
84.5551276967
31
0.0000000000
11
220.7847418297
21
86.4987437659
31
0.0000000000
11
220.9504547326
21
88.2718265353
31
0.0000000000
0
SPLINE
5
4F5
100
AcDbEntity
8
0
100
AcDbSpline
62
7
6
CONTINUOUS
70
0
71
3
72
13
73
9
74
7
42
0.0000001000
43
0.0000001000
44
0.0000000001
12
0.0014889670
22
-10.8417561109
32
0.0000000000
13
10.2622744285
23
-3.5332810655
33
0.0000000000
40
0.0000000000
40
0.0000000000
40
0.0000000000
40
0.0000000000
40
0.1652174530
40
0.3538581264
40
0.5372422080
40
0.7156394683
40
0.8897946581
40
1.0000000000
40
1.0000000000
40
1.0000000000
40
1.0000000000
10
74.9505188757
20
88.2718301904
30
0.0000000000
10
74.9506008768
20
87.6747477470
30
0.0000000000
10
75.0691106578
20
86.3927458742
30
0.0000000000
10
75.6450725396
20
84.5241271387
30
0.0000000000
10
76.6485928146
20
82.7890520985
30
0.0000000000
10
77.9803584446
20
81.3623071486
30
0.0000000000
10
79.3770541977
20
80.4206591052
30
0.0000000000
10
80.3264477381
20
80.0136360326
30
0.0000000000
10
80.7034335587
20
79.8838405500
30
0.0000000000
11
74.9505188757
21
88.2718301904
31
0.0000000000
11
75.1181312371
21
86.4887731864
31
0.0000000000
11
75.7225541573
21
84.5370176356
31
0.0000000000
11
76.7191981265
21
82.8188909879
31
0.0000000000
11
78.0390388905
21
81.4076408880
31
0.0000000000
11
79.6042519322
21
80.3548994892
31
0.0000000000
11
80.7034335587
21
79.8838405500
31
0.0000000000
0
SPLINE
5
4F6
100
AcDbEntity
8
0
100
AcDbSpline
62
7
6
CONTINUOUS
70
0
71
3
72
9
73
5
74
3
42
0.0000001000
43
0.0000001000
44
0.0000000001
12
3.2238862731
22
3.0239444853
32
0.0000000000
13
-0.9674938299
23
-0.5993084387
33
0.0000000000
40
0.0000000000
40
0.0000000000
40
0.0000000000
40
0.0000000000
40
0.8624562919
40
1.0000000000
40
1.0000000000
40
1.0000000000
40
1.0000000000
10
215.8051232802
20
79.7833883157
30
0.0000000000
10
216.7319436137
20
80.6527282983
30
0.0000000000
10
216.6529415959
20
80.6183844452
30
0.0000000000
10
216.3386297023
20
80.4185044592
30
0.0000000000
10
216.2942721394
20
80.3910274242
30
0.0000000000
11
215.8051232802
21
79.7833883157
31
0.0000000000
11
216.4206412929
21
80.4703572706
31
0.0000000000
11
216.2942721394
21
80.3910274242
31
0.0000000000
0
SPLINE
5
4F7
100
AcDbEntity
8
0
100
AcDbSpline
62
7
6
CONTINUOUS
70
0
71
3
72
17
73
13
74
11
42
0.0000001000
43
0.0000001000
44
0.0000000001
12
0.2080575369
22
0.0978084179
32
0.0000000000
13
0.1953673036
23
0.1211891100
33
0.0000000000
40
0.0000000000
40
0.0000000000
40
0.0000000000
40
0.0000000000
40
0.0859895054
40
0.1771416684
40
0.2731838135
40
0.3733189674
40
0.4764656402
40
0.5814034257
40
0.6875462100
40
0.7952935985
40
0.9049083414
40
1.0000000000
40
1.0000000000
40
1.0000000000
40
1.0000000000
10
280.9617105055
20
10.6477179543
30
0.0000000000
10
280.9676740937
20
10.6505214534
30
0.0000000000
10
280.9799315173
20
10.6563561175
30
0.0000000000
10
280.9987422831
20
10.6655456559
30
0.0000000000
10
281.0184217995
20
10.6754237880
30
0.0000000000
10
281.0388048797
20
10.6859460704
30
0.0000000000
10
281.0596647367
20
10.6970274463
30
0.0000000000
10
281.0807932646
20
10.7085807364
30
0.0000000000
10
281.1020857953
20
10.7205651944
30
0.0000000000
10
281.1235377427
20
10.7329932905
30
0.0000000000
10
281.1441033401
20
10.7452580766
30
0.0000000000
10
281.1574801716
20
10.7534535503
30
0.0000000000
10
281.1636727719
20
10.7572949081
30
0.0000000000
11
280.9617105055
21
10.6477179543
31
0.0000000000
11
280.9795601731
21
10.6562153242
31
0.0000000000
11
280.9983893071
21
10.6654140287
31
0.0000000000
11
281.0181229361
21
10.6753194845
31
0.0000000000
11
281.0385791612
21
10.6858796345
31
0.0000000000
11
281.0595210757
21
10.6970046931
31
0.0000000000
11
281.0806884579
21
10.7085793045
31
0.0000000000
11
281.1019537340
21
10.7205484879
31
0.0000000000
11
281.1233876706
21
10.7329662089
31
0.0000000000
11
281.1450314684
21
10.7458740611
31
0.0000000000
11
281.1636727719
21
10.7572949081
31
0.0000000000
0
SPLINE
5
4F8
100
AcDbEntity
8
0
100
AcDbSpline
62
7
6
CONTINUOUS
70
0
71
3
72
22
73
18
74
16
42
0.0000001000
43
0.0000001000
44
0.0000000001
12
0.3489318593
22
0.2164473825
32
0.0000000000
13
0.2963661587
23
0.2842038303
33
0.0000000000
40
0.0000000000
40
0.0000000000
40
0.0000000000
40
0.0000000000
40
0.0093235307
40
0.0732268263
40
0.1386130828
40
0.2056245947
40
0.2743180410
40
0.3446385740
40
0.4165238483
40
0.4899115461
40
0.5647393728
40
0.6409464637
40
0.7184904288
40
0.7973418876
40
0.8774717537
40
0.9588509651
40
1.0000000000
40
1.0000000000
40
1.0000000000
40
1.0000000000
10
281.1636727719
20
10.7572949081
30
0.0000000000
10
281.1647571976
20
10.7579675927
30
0.0000000000
10
281.1732691252
20
10.7632591148
30
0.0000000000
10
281.1893050722
20
10.7733984073
30
0.0000000000
10
281.2118193174
20
10.7880622368
30
0.0000000000
10
281.2346733398
20
10.8034010025
30
0.0000000000
10
281.2578632315
20
10.8194462601
30
0.0000000000
10
281.2813607632
20
10.8362140534
30
0.0000000000
10
281.3051239466
20
10.8537101973
30
0.0000000000
10
281.3291098251
20
10.8719386360
30
0.0000000000
10
281.3532755439
20
10.8909020707
30
0.0000000000
10
281.3775803766
20
10.9106034922
30
0.0000000000
10
281.4019870141
20
10.9310474442
30
0.0000000000
10
281.4264612547
20
10.9522401709
30
0.0000000000
10
281.4509699538
20
10.9741881348
30
0.0000000000
10
281.4713178415
20
10.9930408356
30
0.0000000000
10
281.4834723838
20
11.0045962198
30
0.0000000000
10
281.4875374443
20
11.0084944576
30
0.0000000000
11
281.1636727719
21
10.7572949081
31
0.0000000000
11
281.1669240872
21
10.7593161199
31
0.0000000000
11
281.1891020478
21
10.7733389690
31
0.0000000000
11
281.2115992520
21
10.7879917513
31
0.0000000000
11
281.2344460641
21
10.8033257298
31
0.0000000000
11
281.2576413090
21
10.8193747440
31
0.0000000000
11
281.2811449157
21
10.8361469260
31
0.0000000000
11
281.3049140470
21
10.8536475034
31
0.0000000000
11
281.3289057451
21
10.8718804196
31
0.0000000000
11
281.3530770023
21
10.8908482560
31
0.0000000000
11
281.3773852829
21
10.9105525282
31
0.0000000000
11
281.4017939013
21
10.9309981959
31
0.0000000000
11
281.4262700087
21
10.9521925958
31
0.0000000000
11
281.4507804890
21
10.9741422115
31
0.0000000000
11
281.4752919083
21
10.9968525596
31
0.0000000000
11
281.4875374443
21
11.0084944576
31
0.0000000000
0
SPLINE
5
4F9
100
AcDbEntity
8
0
100
AcDbSpline
62
7
6
CONTINUOUS
70
0
71
3
72
18
73
14
74
12
42
0.0000001000
43
0.0000001000
44
0.0000000001
12
0.2622718854
22
0.2515087239
32
0.0000000000
13
0.2112069737
23
0.2956956438
33
0.0000000000
40
0.0000000000
40
0.0000000000
40
0.0000000000
40
0.0000000000
40
0.0468388793
40
0.1415221642
40
0.2375188676
40
0.3347962798
40
0.4333217302
40
0.5330686822
40
0.6341060985
40
0.7365786128
40
0.8406328011
40
0.9464150965
40
1.0000000000
40
1.0000000000
40
1.0000000000
40
1.0000000000
10
281.4875374443
20
11.0084944576
30
0.0000000000
10
281.4916322847
20
11.0124212532
30
0.0000000000
10
281.5039530937
20
11.0243397701
30
0.0000000000
10
281.5243671103
20
11.0446135564
30
0.0000000000
10
281.5486767276
20
11.0696273763
30
0.0000000000
10
281.5728512763
20
11.0954135587
30
0.0000000000
10
281.5968568647
20
11.1219727584
30
0.0000000000
10
281.6206675861
20
11.1493137681
30
0.0000000000
10
281.6442704914
20
11.1774613352
30
0.0000000000
10
281.6676635430
20
11.2064571293
30
0.0000000000
10
281.6908469145
20
11.2363516759
30
0.0000000000
10
281.7099047587
20
11.2619440561
30
0.0000000000
10
281.7212030033
20
11.2775960991
30
0.0000000000
10
281.7249755051
20
11.2828777066
30
0.0000000000
11
281.4875374443
21
11.0084944576
31
0.0000000000
11
281.4997705543
21
11.0203281475
31
0.0000000000
11
281.5241824781
21
11.0445724345
31
0.0000000000
11
281.5484935382
21
11.0695877946
31
0.0000000000
11
281.5726694470
21
11.0953754828
31
0.0000000000
11
281.5966758194
21
11.1219356038
31
0.0000000000
11
281.6204796613
21
11.1492687667
31
0.0000000000
11
281.6440698934
21
11.1774012716
31
0.0000000000
11
281.6674503533
21
11.2063815081
31
0.0000000000
11
281.6906213807
21
11.2362601857
31
0.0000000000
11
281.7135790843
21
11.2670896524
31
0.0000000000
11
281.7249755051
21
11.2828777066
31
0.0000000000
0
SPLINE
5
4FA
100
AcDbEntity
8
0
100
AcDbSpline
62
7
6
CONTINUOUS
70
0
71
3
72
35
73
31
74
29
42
0.0000001000
43
0.0000001000
44
0.0000000001
12
1.1430390132
22
-0.0104295500
32
0.0000000000
13
0.9656665585
23
0.6116905987
33
0.0000000000
40
0.0000000000
40
0.0000000000
40
0.0000000000
40
0.0000000000
40
0.0412812788
40
0.0823921157
40
0.1233108838
40
0.1640159887
40
0.2044858553
40
0.2446989188
40
0.2846336183
40
0.3242683930
40
0.3635816799
40
0.4025519121
40
0.4411575186
40
0.4793769237
40
0.5171885476
40
0.5545708062
40
0.5915021122
40
0.6279602724
40
0.6639230660
40
0.6993699380
40
0.7342803194
40
0.7686336055
40
0.8024089221
40
0.8355859023
40
0.8681438236
40
0.9000611364
40
0.9313130629
40
0.9618637020
40
0.9916757057
40
1.0000000000
40
1.0000000000
40
1.0000000000
40
1.0000000000
10
280.0794195132
20
10.4480952447
30
0.0000000000
10
280.0951482172
20
10.4479517297
30
0.0000000000
10
280.1265453464
20
10.4480367741
30
0.0000000000
10
280.1735182014
20
10.4492739050
30
0.0000000000
10
280.2202299117
20
10.4516045694
30
0.0000000000
10
280.2666305557
20
10.4550101380
30
0.0000000000
10
280.3126716367
20
10.4594691916
30
0.0000000000
10
280.3583056518
20
10.4649576027
30
0.0000000000
10
280.4034863585
20
10.4714486169
30
0.0000000000
10
280.4481688512
20
10.4789129447
30
0.0000000000
10
280.4923096802
20
10.4873188587
30
0.0000000000
10
280.5358669515
20
10.4966322979
30
0.0000000000
10
280.5788004213
20
10.5068169784
30
0.0000000000
10
280.6210715819
20
10.5178345092
30
0.0000000000
10
280.6626437384
20
10.5296445133
30
0.0000000000
10
280.7034820747
20
10.5422047531
30
0.0000000000
10
280.7435534930
20
10.5554711872
30
0.0000000000
10
280.7828266594
20
10.5693980746
30
0.0000000000
10
280.8212726448
20
10.5839383088
30
0.0000000000
10
280.8588651416
20
10.5990436884
30
0.0000000000
10
280.8955804467
20
10.6146651189
30
0.0000000000
10
280.9313967749
20
10.6307524781
30
0.0000000000
10
280.9662944155
20
10.6472548597
30
0.0000000000
10
281.0002556794
20
10.6641204911
30
0.0000000000
10
281.0332647049
20
10.6812967466
30
0.0000000000
10
281.0653061002
20
10.6987297440
30
0.0000000000
10
281.0963614268
20
10.7163622600
30
0.0000000000
10
281.1264092184
20
10.7341332677
30
0.0000000000
10
281.1487036369
20
10.7478439748
30
0.0000000000
10
281.1609977833
20
10.7555906476
30
0.0000000000
10
281.1636772809
20
10.7572879452
30
0.0000000000
11
280.0794195132
21
10.4480952447
31
0.0000000000
11
280.1266074163
21
10.4482231089
31
0.0000000000
11
280.1735843723
21
10.4494603745
31
0.0000000000
11
280.2202999533
21
10.4517912661
31
0.0000000000
11
280.2667045926
21
10.4551971541
31
0.0000000000
11
280.3127497088
21
10.4596566234
31
0.0000000000
11
280.3583878293
21
10.4651455496
31
0.0000000000
11
280.4035727100
21
10.4716371824
31
0.0000000000
11
280.4482594503
21
10.4791022363
31
0.0000000000
11
280.4924046032
21
10.4875089878
31
0.0000000000
11
280.5359662766
21
10.4968233803
31
0.0000000000
11
280.5789042285
21
10.5070091340
31
0.0000000000
11
280.6211799521
21
10.5180278622
31
0.0000000000
11
280.6627567526
21
10.5298391921
31
0.0000000000
11
280.7035998140
21
10.5424008899
31
0.0000000000
11
280.7436762560
21
10.5556689907
31
0.0000000000
11
280.7829545333
21
10.5695976925
31
0.0000000000
11
280.8214051120
21
10.5841396647
31
0.0000000000
11
280.8590022854
21
10.5992469237
31
0.0000000000
11
280.8957223570
21
10.6148703797
31
0.0000000000
11
280.9315436168
21
10.6309599570
31
0.0000000000
11
280.9664460956
21
10.6474646004
31
0.0000000000
11
281.0004124035
21
10.6643326747
31
0.0000000000
11
281.0334268194
21
10.6815116722
31
0.0000000000
11
281.0654747499
21
10.6989481518
31
0.0000000000
11
281.0965403486
21
10.7165864153
31
0.0000000000
11
281.1265989000
21
10.7343636869
31
0.0000000000
11
281.1556267043
21
10.7522151947
31
0.0000000000
11
281.1636772809
21
10.7572879452
31
0.0000000000
0
SPLINE
5
4FB
100
AcDbEntity
8
0
100
AcDbSpline
62
7
6
CONTINUOUS
70
0
71
3
72
13
73
9
74
7
42
0.0000001000
43
0.0000001000
44
0.0000000001
12
0.1395407087
22
0.0883904894
32
0.0000000000
13
0.1318771384
23
0.0994599170
33
0.0000000000
40
0.0000000000
40
0.0000000000
40
0.0000000000
40
0.0000000000
40
0.1433345052
40
0.3386260343
40
0.5274064790
40
0.7067823399
40
0.8733107166
40
1.0000000000
40
1.0000000000
40
1.0000000000
40
1.0000000000
10
281.1636772809
20
10.7572879452
30
0.0000000000
10
281.1703442804
20
10.7615110809
30
0.0000000000
10
281.1860359335
20
10.7715814053
30
0.0000000000
10
281.2102543931
20
10.7876059090
30
0.0000000000
10
281.2358539166
20
10.8051323264
30
0.0000000000
10
281.2598922984
20
10.8221293307
30
0.0000000000
10
281.2809251879
20
10.8374504853
30
0.0000000000
10
281.2938604978
20
10.8471111574
30
0.0000000000
10
281.2994296379
20
10.8513113260
30
0.0000000000
11
281.1636772809
21
10.7572879452
31
0.0000000000
11
281.1836028501
21
10.7700753885
31
0.0000000000
11
281.2105051007
21
10.7878754414
31
0.0000000000
11
281.2362351577
21
10.8054909946
31
0.0000000000
11
281.2604277763
21
10.8225963830
31
0.0000000000
11
281.2826613325
21
10.8387919584
31
0.0000000000
11
281.2994296379
21
10.8513113260
31
0.0000000000
0
SPLINE
5
4FC
100
AcDbEntity
8
0
100
AcDbSpline
62
7
6
CONTINUOUS
70
0
71
3
72
13
73
9
74
7
42
0.0000001000
43
0.0000001000
44
0.0000000001
12
-0.1201639228
22
0.0901377314
32
0.0000000000
13
-0.1337217472
23
0.0848049440
33
0.0000000000
40
0.0000000000
40
0.0000000000
40
0.0000000000
40
0.0000000000
40
0.0594948593
40
0.2299258266
40
0.4156309836
40
0.6120195147
40
0.8158033312
40
1.0000000000
40
1.0000000000
40
1.0000000000
40
1.0000000000
10
281.2970616828
20
180.0471995251
30
0.0000000000
10
281.2946786375
20
180.0489871023
30
0.0000000000
10
281.2797238727
20
180.0601908176
30
0.0000000000
10
281.2662728960
20
180.0699658251
30
0.0000000000
10
281.2409124221
20
180.0880872270
30
0.0000000000
10
281.2159010733
20
180.1053038767
30
0.0000000000
10
281.1900904503
20
180.1225172927
30
0.0000000000
10
281.1728819539
20
180.1336071547
30
0.0000000000
10
281.1646715871
20
180.1388140841
30
0.0000000000
11
281.2970616828
21
180.0471995251
31
0.0000000000
11
281.2874424267
21
180.0543970906
31
0.0000000000
11
281.2656631668
21
180.0703633994
31
0.0000000000
11
281.2416924009
21
180.0874289422
31
0.0000000000
11
281.2160743361
21
180.1050933360
31
0.0000000000
11
281.1892054455
21
180.1230008327
31
0.0000000000
11
281.1646715871
21
180.1388140841
31
0.0000000000
0
SPLINE
5
4FD
100
AcDbEntity
8
0
100
AcDbSpline
62
7
6
CONTINUOUS
70
0
71
3
72
18
73
14
74
12
42
0.0000001000
43
0.0000001000
44
0.0000000001
12
-0.3209236999
22
0.2035264790
32
0.0000000000
13
-0.3539276268
23
0.1390888670
33
0.0000000000
40
0.0000000000
40
0.0000000000
40
0.0000000000
40
0.0000000000
40
0.0106836695
40
0.1005075000
40
0.1926061468
40
0.2868651616
40
0.3831707549
40
0.4814412991
40
0.5816103586
40
0.6836136426
40
0.7873890323
40
0.8928722494
40
1.0000000000
40
1.0000000000
40
1.0000000000
40
1.0000000000
10
281.1646715871
20
180.1388140841
30
0.0000000000
10
281.1635287062
20
180.1395388873
30
0.0000000000
10
281.1527695768
20
180.1463469484
30
0.0000000000
10
281.1320072639
20
180.1592110138
30
0.0000000000
10
281.1019344187
20
180.1771288476
30
0.0000000000
10
281.0708312205
20
180.1949207189
30
0.0000000000
10
281.0387248326
20
180.2125199764
30
0.0000000000
10
281.0056334455
20
180.2298684185
30
0.0000000000
10
280.9715735284
20
180.2469102386
30
0.0000000000
10
280.9365609253
20
180.2635916235
30
0.0000000000
10
280.9006134549
20
180.2798594814
30
0.0000000000
10
280.8637509282
20
180.2956616964
30
0.0000000000
10
280.8387688273
20
180.3057756106
30
0.0000000000
10
280.8261303371
20
180.3107423698
30
0.0000000000
11
281.1646715871
21
180.1388140841
31
0.0000000000
11
281.1612405245
21
180.1409851676
31
0.0000000000
11
281.1322040843
21
180.1589742618
31
0.0000000000
11
281.1021173938
21
180.1769006931
31
0.0000000000
11
281.0710041094
21
180.1946981000
31
0.0000000000
11
281.0388902004
21
180.2123014488
31
0.0000000000
11
281.0057933285
21
180.2296526863
31
0.0000000000
11
280.9717281577
21
180.2466970760
31
0.0000000000
11
280.9367106519
21
180.2633807596
31
0.0000000000
11
280.9007581128
21
180.2796509152
31
0.0000000000
11
280.8638907057
21
180.2954552194
31
0.0000000000
11
280.8261303371
21
180.3107423698
31
0.0000000000
0
SPLINE
5
4FE
100
AcDbEntity
8
0
100
AcDbSpline
62
7
6
CONTINUOUS
70
0
71
3
72
14
73
10
74
8
42
0.0000001000
43
0.0000001000
44
0.0000000001
12
-0.2590531487
22
0.1018044544
32
0.0000000000
13
-0.2707126121
23
0.0647134602
33
0.0000000000
40
0.0000000000
40
0.0000000000
40
0.0000000000
40
0.0000000000
40
0.1485222296
40
0.2991188101
40
0.4516975715
40
0.6061647399
40
0.7624297283
40
0.9204019642
40
1.0000000000
40
1.0000000000
40
1.0000000000
40
1.0000000000
10
280.8261303371
20
180.3107423698
30
0.0000000000
10
280.8133052867
20
180.3157824446
30
0.0000000000
10
280.7873706653
20
180.3256648091
30
0.0000000000
10
280.7479034056
20
180.3397660300
30
0.0000000000
10
280.7076228466
20
180.3532022823
30
0.0000000000
10
280.6665607497
20
180.3659266595
30
0.0000000000
10
280.6247507943
20
180.3778939626
30
0.0000000000
10
280.5894069733
20
180.3871756704
30
0.0000000000
10
280.5679977282
20
180.3924195950
30
0.0000000000
10
280.5608149975
20
180.3941366165
30
0.0000000000
11
280.8261303371
21
180.3107423698
31
0.0000000000
11
280.7875009615
21
180.3254620598
31
0.0000000000
11
280.7480285656
21
180.3395651178
31
0.0000000000
11
280.7077428093
21
180.3530031070
31
0.0000000000
11
280.6666758774
21
180.3657289873
31
0.0000000000
11
280.6248611704
21
180.3776976568
31
0.0000000000
11
280.5823340867
21
180.3888657830
31
0.0000000000
11
280.5608149975
21
180.3941366165
31
0.0000000000
0
SPLINE
5
4FF
100
AcDbEntity
8
0
100
AcDbSpline
62
7
6
CONTINUOUS
70
0
71
3
72
18
73
14
74
12
42
0.0000001000
43
0.0000001000
44
0.0000000001
12
-0.4550152328
22
0.1087707363
32
0.0000000000
13
-0.4678366531
23
-0.0000835623
33
0.0000000000
40
0.0000000000
40
0.0000000000
40
0.0000000000
40
0.0000000000
40
0.0475908095
40
0.1434466876
40
0.2401567014
40
0.3376670075
40
0.4359237720
40
0.5348731673
40
0.6344613655
40
0.7346345295
40
0.8353387967
40
0.9365202569
40
1.0000000000
40
1.0000000000
40
1.0000000000
40
1.0000000000
10
280.5608149975
20
180.3941366165
30
0.0000000000
10
280.5535968164
20
180.3958621123
30
0.0000000000
10
280.5318109287
20
180.4009414140
30
0.0000000000
10
280.4951973907
20
180.4088297065
30
0.0000000000
10
280.4507690325
20
180.4173550261
30
0.0000000000
10
280.4057884749
20
180.4249269017
30
0.0000000000
10
280.3603000341
20
180.4315127685
30
0.0000000000
10
280.3143495312
20
180.4370825656
30
0.0000000000
10
280.2679841687
20
180.4416088372
30
0.0000000000
10
280.2212524515
20
180.4450668278
30
0.0000000000
10
280.1742039121
20
180.4474345669
30
0.0000000000
10
280.1328332513
20
180.4485348736
30
0.0000000000
10
280.1071546903
20
180.4487215211
30
0.0000000000
10
280.0972553068
20
180.4487197529
30
0.0000000000
11
280.5608149975
21
180.3941366165
31
0.0000000000
11
280.5391319641
21
180.3991919367
31
0.0000000000
11
280.4952940119
21
180.4086367227
31
0.0000000000
11
280.4508612323
21
180.4171629051
31
0.0000000000
11
280.4058763317
21
180.4247355284
31
0.0000000000
11
280.3603836242
21
180.4313220322
31
0.0000000000
11
280.3144289253
21
180.4368923597
31
0.0000000000
11
280.2680594392
21
180.4414190591
31
0.0000000000
11
280.2213236400
21
180.4448773784
31
0.0000000000
11
280.1742711464
21
180.4472453514
31
0.0000000000
11
280.1269525954
21
180.4485038772
31
0.0000000000
11
280.0972553068
21
180.4487197529
31
0.0000000000
0
SPLINE
5
500
100
AcDbEntity
8
0
100
AcDbSpline
62
7
6
CONTINUOUS
70
0
71
3
72
9
73
5
74
3
42
0.0000001000
43
0.0000001000
44
0.0000000001
12
0.4711624166
22
-0.2501139380
32
0.0000000000
13
0.3970459841
23
-0.3563631935
33
0.0000000000
40
0.0000000000
40
0.0000000000
40
0.0000000000
40
0.0000000000
40
0.4342774151
40
1.0000000000
40
1.0000000000
40
1.0000000000
40
1.0000000000
10
281.0172372918
20
180.2188034965
30
0.0000000000
10
281.0854423573
20
180.1825972184
30
0.0000000000
10
281.2381653731
20
180.0906647066
30
0.0000000000
10
281.3798864263
20
179.9819561526
30
0.0000000000
10
281.4547590531
20
179.9147552502
30
0.0000000000
11
281.0172372918
21
180.2188034965
31
0.0000000000
11
281.2160157346
21
180.0995848821
31
0.0000000000
11
281.4547590531
21
179.9147552502
31
0.0000000000
0
SPLINE
5
501
100
AcDbEntity
8
0
100
AcDbSpline
62
7
6
CONTINUOUS
70
0
71
3
72
9
73
5
74
3
42
0.0000001000
43
0.0000001000
44
0.0000000001
12
0.6556529008
22
-0.5884722951
32
0.0000000000
13
0.2818089892
23
-0.8328306599
33
0.0000000000
40
0.0000000000
40
0.0000000000
40
0.0000000000
40
0.0000000000
40
0.3454822863
40
1.0000000000
40
1.0000000000
40
1.0000000000
40
1.0000000000
10
281.4547590531
20
179.9147552502
30
0.0000000000
10
281.5302645408
20
179.8469863323
30
0.0000000000
10
281.7332078022
20
179.6340441959
30
0.0000000000
10
281.8756707025
20
179.3696575644
30
0.0000000000
10
281.9371536943
20
179.1879567579
30
0.0000000000
11
281.4547590531
21
179.9147552502
31
0.0000000000
11
281.6632723291
21
179.6937105475
31
0.0000000000
11
281.9371536943
21
179.1879567579
31
0.0000000000
0
SPLINE
5
502
100
AcDbEntity
8
0
100
AcDbSpline
62
7
6
CONTINUOUS
70
0
71
3
72
8
73
4
74
2
42
0.0000001000
43
0.0000001000
44
0.0000000001
12
0.0138745674
22
-0.0410035364
32
0.0000000000
13
0.0127887973
23
-0.0412802857
33
0.0000000000
40
0.0000000000
40
0.0000000000
40
0.0000000000
40
0.0000000000
40
1.0000000000
40
1.0000000000
40
1.0000000000
40
1.0000000000
10
281.9371536943
20
179.1879567579
30
0.0000000000
10
281.9417785501
20
179.1742889125
30
0.0000000000
10
281.9462236896
20
179.1605720939
30
0.0000000000
10
281.9504866221
20
179.1468119987
30
0.0000000000
11
281.9371536943
21
179.1879567579
31
0.0000000000
11
281.9504866221
21
179.1468119987
31
0.0000000000
0
SPLINE
5
503
100
AcDbEntity
8
0
100
AcDbSpline
62
7
6
CONTINUOUS
70
0
71
3
72
11
73
7
74
5
42
0.0000001000
43
0.0000001000
44
0.0000000001
12
-0.0572814479
22
0.1443233320
32
0.0000000000
13
-0.0685927072
23
0.1393040438
33
0.0000000000
40
0.0000000000
40
0.0000000000
40
0.0000000000
40
0.0000000000
40
0.1683241454
40
0.4958510871
40
0.8307490111
40
1.0000000000
40
1.0000000000
40
1.0000000000
40
1.0000000000
10
281.9504866202
20
179.2001330073
30
0.0000000000
10
281.9472726700
20
179.2082307078
30
0.0000000000
10
281.9376449099
20
179.2320214847
30
0.0000000000
10
281.9207288149
20
179.2715564897
30
0.0000000000
10
281.9027547611
20
179.3106749226
30
0.0000000000
10
281.8913856823
20
179.3341626627
30
0.0000000000
10
281.8875158877
20
179.3420217784
30
0.0000000000
11
281.9504866202
21
179.2001330073
31
0.0000000000
11
281.9406820480
21
179.2243606955
31
0.0000000000
11
281.9206765788
21
179.2711160055
31
0.0000000000
11
281.8989658869
21
179.3183668439
31
0.0000000000
11
281.8875158877
21
179.3420217784
31
0.0000000000
0
SPLINE
5
504
100
AcDbEntity
8
0
100
AcDbSpline
62
7
6
CONTINUOUS
70
0
71
3
72
9
73
5
74
3
42
0.0000001000
43
0.0000001000
44
0.0000000001
12
-0.0233339949
22
0.0473887092
32
0.0000000000
13
-0.0246101286
23
0.0467387188
33
0.0000000000
40
0.0000000000
40
0.0000000000
40
0.0000000000
40
0.0000000000
40
0.4995541051
40
1.0000000000
40
1.0000000000
40
1.0000000000
40
1.0000000000
10
281.8875158877
20
179.3420217784
30
0.0000000000
10
281.8836303568
20
179.3499128532
30
0.0000000000
10
281.8757453793
20
179.3656564159
30
0.0000000000
10
281.8676476918
20
179.3812916392
30
0.0000000000
10
281.8635423459
20
179.3890883725
30
0.0000000000
11
281.8875158877
21
179.3420217784
31
0.0000000000
11
281.8756993284
21
179.3656153394
31
0.0000000000
11
281.8635423459
21
179.3890883725
31
0.0000000000
0
SPLINE
5
505
100
AcDbEntity
8
0
100
AcDbSpline
62
7
6
CONTINUOUS
70
0
71
3
72
31
73
27
74
25
42
0.0000001000
43
0.0000001000
44
0.0000000001
12
-0.4820107125
22
0.8582054187
32
0.0000000000
13
-0.8361172680
23
0.5193471096
33
0.0000000000
40
0.0000000000
40
0.0000000000
40
0.0000000000
40
0.0000000000
40
0.0266352606
40
0.0792608019
40
0.1308018647
40
0.1812782082
40
0.2307439508
40
0.2792533286
40
0.3268606642
40
0.3736203517
40
0.4195867106
40
0.4647939543
40
0.5092352902
40
0.5528989226
40
0.5957730359
40
0.6378457979
40
0.6791053634
40
0.7195398774
40
0.7591374618
40
0.7978762521
40
0.8357072319
40
0.8725767885
40
0.9084312799
40
0.9432200482
40
0.9769683708
40
1.0000000000
40
1.0000000000
40
1.0000000000
40
1.0000000000
10
281.8383266266
20
179.4354434154
30
0.0000000000
10
281.8340471329
20
179.4430629237
30
0.0000000000
10
281.8211597492
20
179.4656512662
30
0.0000000000
10
281.7991487145
20
179.5024973765
30
0.0000000000
10
281.7719891471
20
179.5453596540
30
0.0000000000
10
281.7443121442
20
179.5866468276
30
0.0000000000
10
281.7161771641
20
179.6264104696
30
0.0000000000
10
281.6876303972
20
179.6647114173
30
0.0000000000
10
281.6587111553
20
179.7016099232
30
0.0000000000
10
281.6294522712
20
179.7371652981
30
0.0000000000
10
281.5998847806
20
179.7714306260
30
0.0000000000
10
281.5700479289
20
179.8044430770
30
0.0000000000
10
281.5399923891
20
179.8362242234
30
0.0000000000
10
281.5097774879
20
179.8667862684
30
0.0000000000
10
281.4794624994
20
179.8961422505
30
0.0000000000
10
281.4491054782
20
179.9243071399
30
0.0000000000
10
281.4187631970
20
179.9512977205
30
0.0000000000
10
281.3884910946
20
179.9771324651
30
0.0000000000
10
281.3583457616
20
180.0018293378
30
0.0000000000
10
281.3283921224
20
180.0254004364
30
0.0000000000
10
281.2987053606
20
180.0478519729
30
0.0000000000
10
281.2693689265
20
180.0691870978
30
0.0000000000
10
281.2404667007
20
180.0894120229
30
0.0000000000
10
281.2120608621
20
180.1085505583
30
0.0000000000
10
281.1868602814
20
180.1249087171
30
0.0000000000
10
281.1710918990
20
180.1348292145
30
0.0000000000
10
281.1646728513
20
180.1388163512
30
0.0000000000
11
281.8383266266
21
179.4354434154
31
0.0000000000
11
281.8253347634
21
179.4582148807
31
0.0000000000
11
281.7987708112
21
179.5026825687
31
0.0000000000
11
281.7716178136
21
179.5455345531
31
0.0000000000
11
281.7439537306
21
179.5868025342
31
0.0000000000
11
281.7158319922
21
179.6265475474
31
0.0000000000
11
281.6872987705
21
179.6648304121
31
0.0000000000
11
281.6583933635
21
179.7017113604
31
0.0000000000
11
281.6291485636
21
179.7372497183
31
0.0000000000
11
281.5995911027
21
179.7715035241
31
0.0000000000
11
281.5697553897
21
179.8045148191
31
0.0000000000
11
281.5396997542
21
179.8362961725
31
0.0000000000
11
281.5094846154
21
179.8668585651
31
0.0000000000
11
281.4791692444
21
179.8962150255
31
0.0000000000
11
281.4488116942
21
179.9243805139
31
0.0000000000
11
281.4184687364
21
179.9513718044
31
0.0000000000
11
281.3881958051
21
179.9772073638
31
0.0000000000
11
281.3580469617
21
180.0019072193
31
0.0000000000
11
281.3280826225
21
180.0254868437
31
0.0000000000
11
281.2983836624
21
180.0479477101
31
0.0000000000
11
281.2690347129
21
180.0692920400
31
0.0000000000
11
281.2401204701
21
180.0895254757
31
0.0000000000
11
281.2117229896
21
180.1086584794
31
0.0000000000
11
281.1838607802
21
180.1267444491
31
0.0000000000
11
281.1646728513
21
180.1388163512
31
0.0000000000
0
SPLINE
5
506
100
AcDbEntity
8
0
100
AcDbSpline
62
7
6
CONTINUOUS
70
0
71
3
72
14
73
10
74
8
42
0.0000001000
43
0.0000001000
44
0.0000000001
12
-0.1428224753
22
0.0887129624
32
0.0000000000
13
-0.1498375040
23
0.0762679984
33
0.0000000000
40
0.0000000000
40
0.0000000000
40
0.0000000000
40
0.0000000000
40
0.0572636801
40
0.2445280948
40
0.4276069245
40
0.6071593352
40
0.7837615132
40
0.9554254463
40
1.0000000000
40
1.0000000000
40
1.0000000000
40
1.0000000000
10
281.1646728513
20
180.1388163512
30
0.0000000000
10
281.1619466712
20
180.1405096947
30
0.0000000000
10
281.1502876445
20
180.1477122024
30
0.0000000000
10
281.1297686936
20
180.1600943669
30
0.0000000000
10
281.1031338464
20
180.1755994486
30
0.0000000000
10
281.0767840650
20
180.1903991931
30
0.0000000000
10
281.0507759045
20
180.2044937763
30
0.0000000000
10
281.0312660255
20
180.2146970251
30
0.0000000000
10
281.0204761659
20
180.2202147245
30
0.0000000000
10
281.0182498526
20
180.2213479285
30
0.0000000000
11
281.1646728513
21
180.1388163512
31
0.0000000000
11
281.1564819394
21
180.1438763905
31
0.0000000000
11
281.1295251747
21
180.1601435584
31
0.0000000000
11
281.1029233808
21
180.1756295115
31
0.0000000000
11
281.0766028282
21
180.1904129600
31
0.0000000000
11
281.0504977571
21
180.2045602287
31
0.0000000000
11
281.0249223711
21
180.2179357383
31
0.0000000000
11
281.0182498526
21
180.2213479285
31
0.0000000000
0
SPLINE
5
507
100
AcDbEntity
8
0
100
AcDbSpline
62
7
6
CONTINUOUS
70
0
71
3
72
9
73
5
74
3
42
0.0000001000
43
0.0000001000
44
0.0000000001
12
0.9547849112
22
0.0002359330
32
0.0000000000
13
0.8463115656
23
-0.4492597691
33
0.0000000000
40
0.0000000000
40
0.0000000000
40
0.0000000000
40
0.0000000000
40
0.6223448395
40
1.0000000000
40
1.0000000000
40
1.0000000000
40
1.0000000000
10
280.0971264158
20
180.4483660183
30
0.0000000000
10
280.2951949033
20
180.4484149622
30
0.0000000000
10
280.6164434540
20
180.4010913427
30
0.0000000000
10
280.9106993151
20
180.2753585866
30
0.0000000000
10
281.0172372918
20
180.2188034965
30
0.0000000000
11
280.0971264158
21
180.4483660183
31
0.0000000000
11
280.6845950365
21
180.3591428558
31
0.0000000000
11
281.0172372918
21
180.2188034965
31
0.0000000000
0
SPLINE
5
508
100
AcDbEntity
8
0
100
AcDbSpline
62
7
6
CONTINUOUS
70
0
71
3
72
9
73
5
74
3
42
0.0000001000
43
0.0000001000
44
0.0000000001
12
-0.0295243899
22
0.0766889796
32
0.0000000000
13
0.0176167354
23
-0.0802654336
33
0.0000000000
40
0.0000000000
40
0.0000000000
40
0.0000000000
40
0.0000000000
40
0.7036744468
40
1.0000000000
40
1.0000000000
40
1.0000000000
40
1.0000000000
10
281.9504866221
20
179.1932749141
30
0.0000000000
10
281.9435614358
20
179.2112629392
30
0.0000000000
10
281.9233660659
20
179.2726293649
30
0.0000000000
10
281.9260872143
20
179.2294986785
30
0.0000000000
10
281.9278273106
20
179.2215704455
30
0.0000000000
11
281.9504866221
21
179.1932749141
31
0.0000000000
11
281.9264867955
21
179.2458843580
31
0.0000000000
11
281.9278273106
21
179.2215704455
31
0.0000000000
0
SPLINE
5
509
100
AcDbEntity
8
0
100
AcDbSpline
62
7
6
CONTINUOUS
70
0
71
3
72
9
73
5
74
3
42
0.0000001000
43
0.0000001000
44
0.0000000001
12
-0.0175608818
22
-0.0801610522
32
0.0000000000
13
0.0294790150
23
0.0765843753
33
0.0000000000
40
0.0000000000
40
0.0000000000
40
0.0000000000
40
0.0000000000
40
0.2960696937
40
1.0000000000
40
1.0000000000
40
1.0000000000
40
1.0000000000
10
281.9278273106
20
11.6751615912
30
0.0000000000
10
281.9260942290
20
11.6672505051
30
0.0000000000
10
281.9234219401
20
11.6241917755
30
0.0000000000
10
281.9435695647
20
11.6854871017
30
0.0000000000
10
281.9504866221
20
11.7034571226
30
0.0000000000
11
281.9278273106
21
11.6751615912
31
0.0000000000
11
281.9265121927
21
11.6509011263
31
0.0000000000
11
281.9504866221
21
11.7034571226
31
0.0000000000
0
SPLINE
5
50A
100
AcDbEntity
8
0
100
AcDbSpline
62
7
6
CONTINUOUS
70
0
71
3
72
12
73
8
74
6
42
0.0000001000
43
0.0000001000
44
0.0000000001
12
0.4400186097
22
-15.6242210750
32
0.0000000000
13
-8.7224957309
23
-12.9702725030
33
0.0000000000
40
0.0000000000
40
0.0000000000
40
0.0000000000
40
0.0000000000
40
0.2010432716
40
0.4016756630
40
0.6018655927
40
0.8013841808
40
1.0000000000
40
1.0000000000
40
1.0000000000
40
1.0000000000
10
272.1426128439
20
147.4483660183
30
0.0000000000
10
272.1721004376
20
146.4013178445
30
0.0000000000
10
272.1004226629
20
144.3033314645
30
0.0000000000
10
271.6035118626
20
141.1993682641
30
0.0000000000
10
270.7277758263
20
138.1880151522
30
0.0000000000
10
269.4909446621
20
135.3182863300
30
0.0000000000
10
268.4383461811
20
133.5236523314
30
0.0000000000
10
267.8608709695
20
132.6649518988
30
0.0000000000
11
272.1426128439
21
147.4483660183
31
0.0000000000
11
272.0352281435
21
144.3078114343
31
0.0000000000
11
271.5395648934
21
141.2112631213
31
0.0000000000
11
270.6657937392
21
138.2066850328
31
0.0000000000
11
269.4314199995
21
135.3428190016
31
0.0000000000
11
267.8608709695
21
132.6649518988
31
0.0000000000
0
SPLINE
5
50B
100
AcDbEntity
8
0
100
AcDbSpline
62
7
6
CONTINUOUS
70
0
71
3
72
25
73
21
74
19
42
0.0000001000
43
0.0000001000
44
0.0000000001
12
2.1866630513
22
77.6442318033
32
0.0000000000
13
2.1866630513
23
-77.6442318033
33
0.0000000000
40
0.0000000000
40
0.0000000000
40
0.0000000000
40
0.0000000000
40
0.0567520482
40
0.1133408889
40
0.1696497783
40
0.2255913416
40
0.2811286647
40
0.3362665372
40
0.3910614186
40
0.4456024330
40
0.5000101518
40
0.5544172554
40
0.6089565568
40
0.6637488498
40
0.7188836096
40
0.7744175541
40
0.8303558001
40
0.8866617831
40
0.9432486902
40
1.0000000000
40
1.0000000000
40
1.0000000000
40
1.0000000000
10
221.7583604002
20
147.4483660183
30
0.0000000000
10
221.7997262692
20
148.9171890797
30
0.0000000000
10
222.1401793244
20
151.8498257332
30
0.0000000000
10
223.4043246717
20
156.0787355747
30
0.0000000000
10
225.3725427688
20
160.0070756585
30
0.0000000000
10
227.9714990608
20
163.5150877692
30
0.0000000000
10
231.1101255346
20
166.5055168900
30
0.0000000000
10
234.6862148725
20
168.9023340834
30
0.0000000000
10
238.5917235458
20
170.6503420630
30
0.0000000000
10
242.7167465731
20
171.7128599885
30
0.0000000000
10
246.9512658754
20
172.0691646980
30
0.0000000000
10
251.1857182589
20
171.7126016975
30
0.0000000000
10
255.3105542632
20
170.6498755888
30
0.0000000000
10
259.2157948762
20
168.9017456150
30
0.0000000000
10
262.7915834662
20
166.5049082447
30
0.0000000000
10
265.9299253803
20
163.5145542101
30
0.0000000000
10
268.5286528928
20
160.0066867737
30
0.0000000000
10
270.4967247791
20
156.0785134605
30
0.0000000000
10
271.7608058535
20
151.8497374801
30
0.0000000000
10
272.1012475132
20
148.9171699693
30
0.0000000000
10
272.1426128439
20
147.4483660183
30
0.0000000000
11
221.7583604002
21
147.4483660183
31
0.0000000000
11
222.2670594256
21
151.8271325328
31
0.0000000000
11
223.5257077947
21
156.0386131205
31
0.0000000000
11
225.4850713099
21
159.9489798394
31
0.0000000000
11
228.0717422326
21
163.4404600782
31
0.0000000000
11
231.1949667453
21
166.4161748349
31
0.0000000000
11
234.7526371474
21
168.8006367136
31
0.0000000000
11
238.6374736642
21
170.5393796237
31
0.0000000000
11
242.7400389510
21
171.5961065351
31
0.0000000000
11
246.9512780745
21
171.9504499616
31
0.0000000000
11
251.1624476406
21
171.5958499512
31
0.0000000000
11
255.2648224981
21
170.5389171589
31
0.0000000000
11
259.1493857543
21
168.8000558838
31
0.0000000000
11
262.7067532858
21
166.4155764049
31
0.0000000000
11
265.8296903743
21
163.4399404250
31
0.0000000000
11
268.4161297676
21
159.9486093419
31
0.0000000000
11
270.3753422755
21
156.0384194615
31
0.0000000000
11
271.6339254348
21
151.8270761428
31
0.0000000000
11
272.1426128439
21
147.4483660183
31
0.0000000000
0
SPLINE
5
50C
100
AcDbEntity
8
0
100
AcDbSpline
62
7
6
CONTINUOUS
70
0
71
3
72
12
73
8
74
6
42
0.0000001000
43
0.0000001000
44
0.0000000001
12
-8.7224956905
22
12.9702724220
32
0.0000000000
13
0.4400186072
23
15.6242209853
33
0.0000000000
40
0.0000000000
40
0.0000000000
40
0.0000000000
40
0.0000000000
40
0.1986153784
40
0.3981337406
40
0.5983237381
40
0.7989564138
40
1.0000000000
40
1.0000000000
40
1.0000000000
40
1.0000000000
10
226.0401022202
20
132.6649519705
30
0.0000000000
10
225.4626282928
20
133.5236504923
30
0.0000000000
10
224.4100313674
20
135.3182813171
30
0.0000000000
10
223.1732004696
20
138.1880068088
30
0.0000000000
10
222.2974630758
20
141.1993601995
30
0.0000000000
10
221.8005508462
20
144.3033267024
30
0.0000000000
10
221.7288727606
20
146.4013162120
30
0.0000000000
10
221.7583604002
20
147.4483660183
30
0.0000000000
11
226.0401022202
21
132.6649519705
31
0.0000000000
11
224.4695563308
21
135.3428129084
31
0.0000000000
11
223.2351830190
21
138.2066752572
31
0.0000000000
11
222.3614103985
21
141.2112540040
31
0.0000000000
11
221.8657455737
21
144.3078065481
31
0.0000000000
11
221.7583604002
21
147.4483660183
31
0.0000000000
0
SPLINE
5
50D
100
AcDbEntity
8
0
100
AcDbSpline
62
7
6
CONTINUOUS
70
0
71
3
72
12
73
8
74
6
42
0.0000001000
43
0.0000001000
44
0.0000000001
12
-2.6812885988
22
-3.9870519698
32
0.0000000000
13
-2.8021083957
23
-3.9030860225
33
0.0000000000
40
0.0000000000
40
0.0000000000
40
0.0000000000
40
0.0000000000
40
0.2745108432
40
0.5156079544
40
0.7184969904
40
0.8814833552
40
1.0000000000
40
1.0000000000
40
1.0000000000
40
1.0000000000
10
267.8608709695
20
132.6649518988
30
0.0000000000
10
267.6155233715
20
132.3001222327
30
0.0000000000
10
267.1427947080
20
131.6227925476
30
0.0000000000
10
266.4563452779
20
130.6990861152
30
0.0000000000
10
265.8607962754
20
129.9306888534
30
0.0000000000
10
265.3816438557
20
129.3206109991
30
0.0000000000
10
265.1077213325
20
128.9623620271
30
0.0000000000
10
264.9970225040
20
128.8081684739
30
0.0000000000
11
267.8608709695
21
132.6649518988
31
0.0000000000
11
267.1065243467
21
131.5829970317
31
0.0000000000
11
266.4164658255
21
130.6525392189
31
0.0000000000
11
265.8207441256
21
129.8809030282
31
0.0000000000
11
265.3391755716
21
129.2633609833
31
0.0000000000
11
264.9970225040
21
128.8081684739
31
0.0000000000
0
SPLINE
5
50E
100
AcDbEntity
8
0
100
AcDbSpline
62
7
6
CONTINUOUS
70
0
71
3
72
12
73
8
74
6
42
0.0000001000
43
0.0000001000
44
0.0000000001
12
-2.8021085593
22
3.9030862504
32
0.0000000000
13
-2.6812887630
23
3.9870521975
33
0.0000000000
40
0.0000000000
40
0.0000000000
40
0.0000000000
40
0.0000000000
40
0.1191776055
40
0.2825609812
40
0.4853999040
40
0.7261345967
40
1.0000000000
40
1.0000000000
40
1.0000000000
40
1.0000000000
10
228.9039507401
20
128.8081684739
30
0.0000000000
10
228.7926345439
20
128.9632219651
30
0.0000000000
10
228.5176350745
20
129.3227819859
30
0.0000000000
10
228.0374804846
20
129.9341243994
30
0.0000000000
10
227.4420039129
20
130.7025470104
30
0.0000000000
10
226.7566492939
20
131.6249556260
30
0.0000000000
10
226.2848729690
20
132.3009800846
30
0.0000000000
10
226.0401022262
20
132.6649519705
30
0.0000000000
11
228.9039507401
21
128.8081684739
31
0.0000000000
11
228.5598558977
21
129.2658743460
31
0.0000000000
11
228.0771007044
21
129.8849100780
31
0.0000000000
11
227.4815765298
21
130.6563946425
31
0.0000000000
11
226.7926338086
21
131.5855120833
31
0.0000000000
11
226.0401022262
21
132.6649519705
31
0.0000000000
0
SPLINE
5
50F
100
AcDbEntity
8
0
100
AcDbSpline
62
7
6
CONTINUOUS
70
0
71
3
72
21
73
17
74
15
42
0.0000001000
43
0.0000001000
44
0.0000000001
12
-24.0924165895
22
-33.5585784559
32
0.0000000000
13
-24.0924165895
23
33.5585784559
33
0.0000000000
40
0.0000000000
40
0.0000000000
40
0.0000000000
40
0.0000000000
40
0.0540480850
40
0.1161455790
40
0.1845316993
40
0.2584104407
40
0.3360302927
40
0.4174789862
40
0.5000689227
40
0.5826027907
40
0.6640623597
40
0.7416887913
40
0.8155195690
40
0.8838871680
40
0.9459520945
40
1.0000000000
40
1.0000000000
40
1.0000000000
40
1.0000000000
10
264.9970225040
20
128.8081684739
30
0.0000000000
10
264.5629728440
20
128.2035761734
30
0.0000000000
10
263.5294345473
20
126.9752826820
30
0.0000000000
10
261.6490795677
20
125.2561584439
30
0.0000000000
10
259.3366711310
20
123.6379930194
30
0.0000000000
10
256.6412599143
20
122.2389282430
30
0.0000000000
10
253.6130492522
20
121.1514823642
30
0.0000000000
10
250.3465839431
20
120.4619088702
30
0.0000000000
10
246.9483954067
20
120.2258646317
30
0.0000000000
10
243.5501202157
20
120.4625478049
30
0.0000000000
10
240.2842740089
20
121.1524964745
30
0.0000000000
10
237.2566385334
20
122.2403071597
30
0.0000000000
10
234.5621644709
20
123.6393537382
30
0.0000000000
10
232.2510092333
20
125.2569204466
30
0.0000000000
10
230.3712458635
20
126.9756302761
30
0.0000000000
10
229.3379989584
20
128.2035781817
30
0.0000000000
10
228.9039507401
20
128.8081684739
30
0.0000000000
11
264.9970225040
21
128.8081684739
31
0.0000000000
11
263.5685874555
21
127.0920822501
31
0.0000000000
11
261.6799027944
21
125.3560592036
31
0.0000000000
11
259.3678204308
21
123.7326147625
31
0.0000000000
11
256.6604140150
21
122.3237804485
31
0.0000000000
11
253.6432288717
21
121.2380893799
31
0.0000000000
11
250.3512997576
21
120.5418497825
31
0.0000000000
11
246.9476332785
21
120.3050065728
31
0.0000000000
11
243.5463214182
21
120.5423196118
31
0.0000000000
11
240.2540564647
21
121.2391424017
31
0.0000000000
11
237.2367975585
21
122.3254311423
31
0.0000000000
11
234.5313405363
21
123.7337191091
31
0.0000000000
11
232.2200153152
21
125.3569103488
31
0.0000000000
11
230.3323806673
21
127.0920876372
31
0.0000000000
11
228.9039507401
21
128.8081684739
31
0.0000000000
0
SPLINE
5
510
100
AcDbEntity
8
0
100
AcDbSpline
62
7
6
CONTINUOUS
70
0
71
3
72
21
73
17
74
15
42
0.0000001000
43
0.0000001000
44
0.0000000001
12
24.0924164951
22
33.5585783244
32
0.0000000000
13
24.0924164951
23
-33.5585783244
33
0.0000000000
40
0.0000000000
40
0.0000000000
40
0.0000000000
40
0.0000000000
40
0.0540483073
40
0.1161121669
40
0.1844779003
40
0.2583055179
40
0.3359331464
40
0.4173950231
40
0.4999313104
40
0.5825236606
40
0.6639746768
40
0.7415954426
40
0.8154710128
40
0.8838552280
40
0.9459516519
40
1.0000000000
40
1.0000000000
40
1.0000000000
40
1.0000000000
10
228.9039507401
20
62.0885635628
30
0.0000000000
10
229.3380021837
20
62.6931583476
30
0.0000000000
10
230.3712439033
20
63.9210987281
30
0.0000000000
10
232.2509806564
20
65.6397854362
30
0.0000000000
10
234.5620616094
20
67.2573108768
30
0.0000000000
10
237.2564775061
20
68.6563528880
30
0.0000000000
10
240.2841082198
20
69.7441921572
30
0.0000000000
10
243.5500311675
20
70.4341763985
30
0.0000000000
10
246.9484050107
20
70.6708720496
30
0.0000000000
10
250.3466922204
20
70.4348126832
30
0.0000000000
10
253.6132300418
20
69.7452017975
30
0.0000000000
10
256.6414316001
20
68.6577268904
30
0.0000000000
10
259.3367800913
20
67.2586678800
30
0.0000000000
10
261.6491131156
20
65.6405434298
30
0.0000000000
10
263.5294391358
20
63.9214434426
30
0.0000000000
10
264.5629707327
20
62.6931588041
30
0.0000000000
10
264.9970225040
20
62.0885635628
30
0.0000000000
11
228.9039507401
21
62.0885635628
31
0.0000000000
11
230.3323921237
21
63.8046564503
31
0.0000000000
11
232.2199938687
21
65.5398043865
31
0.0000000000
11
234.5312510475
21
67.1629583897
31
0.0000000000
11
237.2365817950
21
68.5712061892
31
0.0000000000
11
240.2538775424
21
69.6575385305
31
0.0000000000
11
243.5462317722
21
70.3543998535
31
0.0000000000
11
246.9476429292
21
70.5917254650
31
0.0000000000
11
250.3514082888
21
70.3548670497
31
0.0000000000
11
253.6434267367
21
69.6585861758
31
0.0000000000
11
256.6606370950
21
68.5728537184
31
0.0000000000
11
259.3679163324
21
67.1640588406
31
0.0000000000
11
261.6799288138
21
65.5406518454
31
0.0000000000
11
263.5685799562
21
63.8046576750
31
0.0000000000
11
264.9970225040
21
62.0885635628
31
0.0000000000
0
SPLINE
5
511
100
AcDbEntity
8
0
100
AcDbSpline
62
7
6
CONTINUOUS
70
0
71
3
72
12
73
8
74
6
42
0.0000001000
43
0.0000001000
44
0.0000000001
12
2.8021085357
22
-3.9030862175
32
0.0000000000
13
2.6812887328
23
-3.9870521690
33
0.0000000000
40
0.0000000000
40
0.0000000000
40
0.0000000000
40
0.0000000000
40
0.1183804125
40
0.2815642245
40
0.4847559895
40
0.7259532252
40
1.0000000000
40
1.0000000000
40
1.0000000000
40
1.0000000000
10
264.9970225040
20
62.0885635628
30
0.0000000000
10
265.1075940922
20
61.9345472440
30
0.0000000000
10
265.3815666390
20
61.5762132653
30
0.0000000000
10
265.8610844201
20
60.9656810691
30
0.0000000000
10
266.4572129886
20
60.1965163546
30
0.0000000000
10
267.1435637414
20
59.2728582689
30
0.0000000000
10
267.6159381263
20
58.5959930672
30
0.0000000000
10
267.8608709695
20
58.2317801379
30
0.0000000000
11
264.9970225040
21
62.0885635628
31
0.0000000000
11
265.3387753946
21
61.6338890804
31
0.0000000000
11
265.8209251401
21
61.0155971617
31
0.0000000000
11
266.4175241977
21
60.2428006690
31
0.0000000000
11
267.1078293636
21
59.3119267666
31
0.0000000000
11
267.8608709695
21
58.2317801379
31
0.0000000000
0
SPLINE
5
512
100
AcDbEntity
8
0
100
AcDbSpline
62
7
6
CONTINUOUS
70
0
71
3
72
12
73
8
74
6
42
0.0000001000
43
0.0000001000
44
0.0000000001
12
2.6812886966
22
3.9870521152
32
0.0000000000
13
2.8021084979
23
3.9030861648
33
0.0000000000
40
0.0000000000
40
0.0000000000
40
0.0000000000
40
0.0000000000
40
0.2740139272
40
0.5149000435
40
0.7178135920
40
0.8811076630
40
1.0000000000
40
1.0000000000
40
1.0000000000
40
1.0000000000
10
226.0401022746
20
58.2317801379
30
0.0000000000
10
226.2850057565
20
58.5959494072
30
0.0000000000
10
226.7570635257
20
59.2723636080
30
0.0000000000
10
227.4427991786
20
60.1952366852
30
0.0000000000
10
228.0384289168
20
60.9638174603
30
0.0000000000
10
228.5182864553
20
61.5747826719
30
0.0000000000
10
228.7929009975
20
61.9338812175
30
0.0000000000
10
228.9039507401
20
62.0885635628
30
0.0000000000
11
226.0401022746
21
58.2317801379
31
0.0000000000
11
226.7930514995
21
59.3117987553
31
0.0000000000
11
227.4824487760
21
60.2414848604
31
0.0000000000
11
228.0782083133
21
61.0132406756
31
0.0000000000
11
228.5606939853
21
61.6319424291
31
0.0000000000
11
228.9039507401
21
62.0885635628
31
0.0000000000
0
SPLINE
5
513
100
AcDbEntity
8
0
100
AcDbSpline
62
7
6
CONTINUOUS
70
0
71
3
72
12
73
8
74
6
42
0.0000001000
43
0.0000001000
44
0.0000000001
12
-8.7224957308
22
-12.9702725027
32
0.0000000000
13
0.4400186097
23
-15.6242210747
33
0.0000000000
40
0.0000000000
40
0.0000000000
40
0.0000000000
40
0.0000000000
40
0.1986155053
40
0.3981338403
40
0.5983237861
40
0.7989563898
40
1.0000000000
40
1.0000000000
40
1.0000000000
40
1.0000000000
10
226.0401022746
20
58.2317801379
30
0.0000000000
10
225.4626279757
20
57.3730810623
30
0.0000000000
10
224.4100308291
20
55.5784497391
30
0.0000000000
10
223.1732000262
20
52.7087239167
30
0.0000000000
10
222.2974629799
20
49.6973712311
30
0.0000000000
10
221.8005508510
20
46.5934052280
30
0.0000000000
10
221.7288727569
20
44.4954159557
30
0.0000000000
10
221.7583604002
20
43.4483660183
30
0.0000000000
11
226.0401022746
21
58.2317801379
31
0.0000000000
11
224.4695554656
21
55.5539174200
31
0.0000000000
11
223.2351825089
21
52.6900553604
31
0.0000000000
11
222.3614102415
21
49.6854773336
31
0.0000000000
11
221.8657456116
21
46.5889258805
31
0.0000000000
11
221.7583604002
21
43.4483660183
31
0.0000000000
0
SPLINE
5
514
100
AcDbEntity
8
0
100
AcDbSpline
62
7
6
CONTINUOUS
70
0
71
3
72
25
73
21
74
19
42
0.0000001000
43
0.0000001000
44
0.0000000001
12
2.1866630513
22
-77.6442318033
32
0.0000000000
13
2.1866630513
23
77.6442318033
33
0.0000000000
40
0.0000000000
40
0.0000000000
40
0.0000000000
40
0.0000000000
40
0.0567520482
40
0.1133408889
40
0.1696497783
40
0.2255913416
40
0.2811286647
40
0.3362665372
40
0.3910614186
40
0.4456024330
40
0.5000101518
40
0.5544172554
40
0.6089565568
40
0.6637488498
40
0.7188836096
40
0.7744175541
40
0.8303558001
40
0.8866617831
40
0.9432486902
40
1.0000000000
40
1.0000000000
40
1.0000000000
40
1.0000000000
10
221.7583604002
20
43.4483660183
30
0.0000000000
10
221.7997262692
20
41.9795429570
30
0.0000000000
10
222.1401793244
20
39.0469063035
30
0.0000000000
10
223.4043246717
20
34.8179964620
30
0.0000000000
10
225.3725427688
20
30.8896563781
30
0.0000000000
10
227.9714990608
20
27.3816442674
30
0.0000000000
10
231.1101255346
20
24.3912151467
30
0.0000000000
10
234.6862148725
20
21.9943979532
30
0.0000000000
10
238.5917235458
20
20.2463899737
30
0.0000000000
10
242.7167465731
20
19.1838720482
30
0.0000000000
10
246.9512658754
20
18.8275673386
30
0.0000000000
10
251.1857182589
20
19.1841303392
30
0.0000000000
10
255.3105542632
20
20.2468564479
30
0.0000000000
10
259.2157948762
20
21.9949864217
30
0.0000000000
10
262.7915834662
20
24.3918237919
30
0.0000000000
10
265.9299253803
20
27.3821778266
30
0.0000000000
10
268.5286528928
20
30.8900452629
30
0.0000000000
10
270.4967247791
20
34.8182185761
30
0.0000000000
10
271.7608058535
20
39.0469945566
30
0.0000000000
10
272.1012475132
20
41.9795620673
30
0.0000000000
10
272.1426128439
20
43.4483660183
30
0.0000000000
11
221.7583604002
21
43.4483660183
31
0.0000000000
11
222.2670594256
21
39.0695995038
31
0.0000000000
11
223.5257077947
21
34.8581189162
31
0.0000000000
11
225.4850713099
21
30.9477521973
31
0.0000000000
11
228.0717422326
21
27.4562719584
31
0.0000000000
11
231.1949667453
21
24.4805572017
31
0.0000000000
11
234.7526371474
21
22.0960953231
31
0.0000000000
11
238.6374736642
21
20.3573524130
31
0.0000000000
11
242.7400389510
21
19.3006255015
31
0.0000000000
11
246.9512780745
21
18.9462820750
31
0.0000000000
11
251.1624476406
21
19.3008820855
31
0.0000000000
11
255.2648224981
21
20.3578148778
31
0.0000000000
11
259.1493857543
21
22.0966761529
31
0.0000000000
11
262.7067532858
21
24.4811556318
31
0.0000000000
11
265.8296903743
21
27.4567916116
31
0.0000000000
11
268.4161297676
21
30.9481226947
31
0.0000000000
11
270.3753422755
21
34.8583125751
31
0.0000000000
11
271.6339254348
21
39.0696558939
31
0.0000000000
11
272.1426128439
21
43.4483660183
31
0.0000000000
0
SPLINE
5
515
100
AcDbEntity
8
0
100
AcDbSpline
62
7
6
CONTINUOUS
70
0
71
3
72
12
73
8
74
6
42
0.0000001000
43
0.0000001000
44
0.0000000001
12
0.4400186097
22
15.6242210751
32
0.0000000000
13
-8.7224957310
23
12.9702725030
33
0.0000000000
40
0.0000000000
40
0.0000000000
40
0.0000000000
40
0.0000000000
40
0.2010432945
40
0.4016756127
40
0.6018654896
40
0.8013840496
40
1.0000000000
40
1.0000000000
40
1.0000000000
40
1.0000000000
10
272.1426128439
20
43.4483660183
30
0.0000000000
10
272.1721004409
20
44.4954143113
30
0.0000000000
10
272.1004226602
20
46.5934004303
30
0.0000000000
10
271.6035119723
20
49.6973630965
30
0.0000000000
10
270.7277763053
20
52.7087154734
30
0.0000000000
10
269.4909452477
20
55.5784446235
30
0.0000000000
10
268.4383465627
20
57.3730791378
30
0.0000000000
10
267.8608709695
20
58.2317801379
30
0.0000000000
11
272.1426128439
21
43.4483660183
31
0.0000000000
11
272.0352281090
21
46.5889209589
31
0.0000000000
11
271.5395650660
21
49.6854681469
31
0.0000000000
11
270.6657942853
21
52.6900454847
31
0.0000000000
11
269.4314209283
21
55.5539112013
31
0.0000000000
11
267.8608709695
21
58.2317801379
31
0.0000000000
0
SPLINE
5
516
100
AcDbEntity
8
0
100
AcDbSpline
62
7
6
CONTINUOUS
70
0
71
3
72
17
73
13
74
11
42
0.0000001000
43
0.0000001000
44
0.0000000001
12
-0.2080575369
22
-0.0978084179
32
0.0000000000
13
-0.1953673036
23
-0.1211891100
33
0.0000000000
40
0.0000000000
40
0.0000000000
40
0.0000000000
40
0.0000000000
40
0.0859895054
40
0.1771416684
40
0.2731838135
40
0.3733189674
40
0.4764656401
40
0.5814034257
40
0.6875462100
40
0.7952935985
40
0.9049083414
40
1.0000000000
40
1.0000000000
40
1.0000000000
40
1.0000000000
10
14.9392627387
20
180.2490140824
30
0.0000000000
10
14.9332991504
20
180.2462105832
30
0.0000000000
10
14.9210417269
20
180.2403759192
30
0.0000000000
10
14.9022309610
20
180.2311863808
30
0.0000000000
10
14.8825514446
20
180.2213082487
30
0.0000000000
10
14.8621683645
20
180.2107859662
30
0.0000000000
10
14.8413085074
20
180.1997045903
30
0.0000000000
10
14.8201799796
20
180.1881513002
30
0.0000000000
10
14.7988874488
20
180.1761668422
30
0.0000000000
10
14.7774355014
20
180.1637387462
30
0.0000000000
10
14.7568699040
20
180.1514739601
30
0.0000000000
10
14.7434930725
20
180.1432784864
30
0.0000000000
10
14.7373004722
20
180.1394371285
30
0.0000000000
11
14.9392627387
21
180.2490140824
31
0.0000000000
11
14.9214130711
21
180.2405167125
31
0.0000000000
11
14.9025839370
21
180.2313180080
31
0.0000000000
11
14.8828503081
21
180.2214125521
31
0.0000000000
11
14.8623940829
21
180.2108524022
31
0.0000000000
11
14.8414521685
21
180.1997273436
31
0.0000000000
11
14.8202847863
21
180.1881527321
31
0.0000000000
11
14.7990195102
21
180.1761835488
31
0.0000000000
11
14.7775855735
21
180.1637658278
31
0.0000000000
11
14.7559417757
21
180.1508579755
31
0.0000000000
11
14.7373004722
21
180.1394371285
31
0.0000000000
0
SPLINE
5
517
100
AcDbEntity
8
0
100
AcDbSpline
62
7
6
CONTINUOUS
70
0
71
3
72
22
73
18
74
16
42
0.0000001000
43
0.0000001000
44
0.0000000001
12
-0.3489318593
22
-0.2164473825
32
0.0000000000
13
-0.2963661587
23
-0.2842038303
33
0.0000000000
40
0.0000000000
40
0.0000000000
40
0.0000000000
40
0.0000000000
40
0.0093235307
40
0.0732268263
40
0.1386130828
40
0.2056245947
40
0.2743180410
40
0.3446385740
40
0.4165238483
40
0.4899115461
40
0.5647393728
40
0.6409464637
40
0.7184904288
40
0.7973418876
40
0.8774717537
40
0.9588509651
40
1.0000000000
40
1.0000000000
40
1.0000000000
40
1.0000000000
10
14.7373004722
20
180.1394371285
30
0.0000000000
10
14.7362160466
20
180.1387644439
30
0.0000000000
10
14.7277041190
20
180.1334729219
30
0.0000000000
10
14.7116681719
20
180.1233336294
30
0.0000000000
10
14.6891539268
20
180.1086697998
30
0.0000000000
10
14.6662999044
20
180.0933310341
30
0.0000000000
10
14.6431100127
20
180.0772857766
30
0.0000000000
10
14.6196124810
20
180.0605179832
30
0.0000000000
10
14.5958492976
20
180.0430218394
30
0.0000000000
10
14.5718634190
20
180.0247934007
30
0.0000000000
10
14.5476977003
20
180.0058299660
30
0.0000000000
10
14.5233928675
20
179.9861285445
30
0.0000000000
10
14.4989862301
20
179.9656845925
30
0.0000000000
10
14.4745119895
20
179.9444918657
30
0.0000000000
10
14.4500032903
20
179.9225439018
30
0.0000000000
10
14.4296554027
20
179.9036912010
30
0.0000000000
10
14.4175008603
20
179.8921358168
30
0.0000000000
10
14.4134357999
20
179.8882375791
30
0.0000000000
11
14.7373004722
21
180.1394371285
31
0.0000000000
11
14.7340491569
21
180.1374159168
31
0.0000000000
11
14.7118711964
21
180.1233930677
31
0.0000000000
11
14.6893739921
21
180.1087402854
31
0.0000000000
11
14.6665271801
21
180.0934063069
31
0.0000000000
11
14.6433319352
21
180.0773572927
31
0.0000000000
11
14.6198283284
21
180.0605851106
31
0.0000000000
11
14.5960591971
21
180.0430845333
31
0.0000000000
11
14.5720674991
21
180.0248516171
31
0.0000000000
11
14.5478962419
21
180.0058837807
31
0.0000000000
11
14.5235879613
21
179.9861795084
31
0.0000000000
11
14.4991793429
21
179.9657338408
31
0.0000000000
11
14.4747032355
21
179.9445394409
31
0.0000000000
11
14.4501927552
21
179.9225898251
31
0.0000000000
11
14.4256813359
21
179.8998794771
31
0.0000000000
11
14.4134357999
21
179.8882375791
31
0.0000000000
0
SPLINE
5
518
100
AcDbEntity
8
0
100
AcDbSpline
62
7
6
CONTINUOUS
70
0
71
3
72
18
73
14
74
12
42
0.0000001000
43
0.0000001000
44
0.0000000001
12
-0.2622718854
22
-0.2515087239
32
0.0000000000
13
-0.2112069737
23
-0.2956956438
33
0.0000000000
40
0.0000000000
40
0.0000000000
40
0.0000000000
40
0.0000000000
40
0.0468388793
40
0.1415221642
40
0.2375188676
40
0.3347962798
40
0.4333217302
40
0.5330686822
40
0.6341060985
40
0.7365786128
40
0.8406328011
40
0.9464150965
40
1.0000000000
40
1.0000000000
40
1.0000000000
40
1.0000000000
10
14.4134357999
20
179.8882375791
30
0.0000000000
10
14.4093409595
20
179.8843107835
30
0.0000000000
10
14.3970201505
20
179.8723922666
30
0.0000000000
10
14.3766061339
20
179.8521184803
30
0.0000000000
10
14.3522965165
20
179.8271046604
30
0.0000000000
10
14.3281219679
20
179.8013184779
30
0.0000000000
10
14.3041163795
20
179.7747592783
30
0.0000000000
10
14.2803056581
20
179.7474182686
30
0.0000000000
10
14.2567027527
20
179.7192707014
30
0.0000000000
10
14.2333097012
20
179.6902749074
30
0.0000000000
10
14.2101263297
20
179.6603803608
30
0.0000000000
10
14.1910684855
20
179.6347879806
30
0.0000000000
10
14.1797702408
20
179.6191359376
30
0.0000000000
10
14.1759977391
20
179.6138543301
30
0.0000000000
11
14.4134357999
21
179.8882375791
31
0.0000000000
11
14.4012026898
21
179.8764038892
31
0.0000000000
11
14.3767907660
21
179.8521596022
31
0.0000000000
11
14.3524797060
21
179.8271442421
31
0.0000000000
11
14.3283037971
21
179.8013565539
31
0.0000000000
11
14.3042974248
21
179.7747964329
31
0.0000000000
11
14.2804935828
21
179.7474632700
31
0.0000000000
11
14.2569033507
21
179.7193307651
31
0.0000000000
11
14.2335228908
21
179.6903505285
31
0.0000000000
11
14.2103518634
21
179.6604718510
31
0.0000000000
11
14.1873941598
21
179.6296423843
31
0.0000000000
11
14.1759977391
21
179.6138543301
31
0.0000000000
0
SPLINE
5
519
100
AcDbEntity
8
0
100
AcDbSpline
62
7
6
CONTINUOUS
70
0
71
3
72
35
73
31
74
29
42
0.0000001000
43
0.0000001000
44
0.0000000001
12
-1.1430390132
22
0.0104295500
32
0.0000000000
13
-0.9656665585
23
-0.6116905987
33
0.0000000000
40
0.0000000000
40
0.0000000000
40
0.0000000000
40
0.0000000000
40
0.0412812788
40
0.0823921157
40
0.1233108838
40
0.1640159887
40
0.2044858553
40
0.2446989188
40
0.2846336183
40
0.3242683930
40
0.3635816799
40
0.4025519121
40
0.4411575186
40
0.4793769237
40
0.5171885476
40
0.5545708062
40
0.5915021122
40
0.6279602724
40
0.6639230660
40
0.6993699380
40
0.7342803194
40
0.7686336055
40
0.8024089221
40
0.8355859023
40
0.8681438236
40
0.9000611364
40
0.9313130629
40
0.9618637020
40
0.9916757057
40
1.0000000000
40
1.0000000000
40
1.0000000000
40
1.0000000000
10
15.8215537310
20
180.4486367919
30
0.0000000000
10
15.8058250269
20
180.4487803070
30
0.0000000000
10
15.7744278977
20
180.4486952626
30
0.0000000000
10
15.7274550428
20
180.4474581317
30
0.0000000000
10
15.6807433325
20
180.4451274673
30
0.0000000000
10
15.6343426884
20
180.4417218987
30
0.0000000000
10
15.5883016074
20
180.4372628450
30
0.0000000000
10
15.5426675924
20
180.4317744340
30
0.0000000000
10
15.4974868856
20
180.4252834198
30
0.0000000000
10
15.4528043929
20
180.4178190920
30
0.0000000000
10
15.4086635639
20
180.4094131780
30
0.0000000000
10
15.3651062927
20
180.4000997388
30
0.0000000000
10
15.3221728229
20
180.3899150582
30
0.0000000000
10
15.2799016622
20
180.3788975274
30
0.0000000000
10
15.2383295058
20
180.3670875234
30
0.0000000000
10
15.1974911695
20
180.3545272836
30
0.0000000000
10
15.1574197512
20
180.3412608494
30
0.0000000000
10
15.1181465847
20
180.3273339621
30
0.0000000000
10
15.0797005994
20
180.3127937279
30
0.0000000000
10
15.0421081025
20
180.2976883483
30
0.0000000000
10
15.0053927974
20
180.2820669178
30
0.0000000000
10
14.9695764693
20
180.2659795586
30
0.0000000000
10
14.9346788287
20
180.2494771770
30
0.0000000000
10
14.9007175648
20
180.2326115456
30
0.0000000000
10
14.8677085392
20
180.2154352901
30
0.0000000000
10
14.8356671439
20
180.1980022927
30
0.0000000000
10
14.8046118173
20
180.1803697766
30
0.0000000000
10
14.7745640258
20
180.1625987690
30
0.0000000000
10
14.7522696072
20
180.1488880619
30
0.0000000000
10
14.7399754608
20
180.1411413890
30
0.0000000000
10
14.7372959632
20
180.1394440915
30
0.0000000000
11
15.8215537310
21
180.4486367919
31
0.0000000000
11
15.7743658279
21
180.4485089278
31
0.0000000000
11
15.7273888718
21
180.4472716622
31
0.0000000000
11
15.6806732908
21
180.4449407706
31
0.0000000000
11
15.6342686516
21
180.4415348826
31
0.0000000000
11
15.5882235353
21
180.4370754133
31
0.0000000000
11
15.5425854148
21
180.4315864870
31
0.0000000000
11
15.4974005342
21
180.4250948542
31
0.0000000000
11
15.4527137938
21
180.4176298004
31
0.0000000000
11
15.4085686410
21
180.4092230489
31
0.0000000000
11
15.3650069675
21
180.3999086564
31
0.0000000000
11
15.3220690157
21
180.3897229026
31
0.0000000000
11
15.2797932921
21
180.3787041744
31
0.0000000000
11
15.2382164916
21
180.3668928446
31
0.0000000000
11
15.1973734301
21
180.3543311467
31
0.0000000000
11
15.1572969881
21
180.3410630460
31
0.0000000000
11
15.1180187108
21
180.3271343442
31
0.0000000000
11
15.0795681322
21
180.3125923720
31
0.0000000000
11
15.0419709587
21
180.2974851130
31
0.0000000000
11
15.0052508872
21
180.2818616569
31
0.0000000000
11
14.9694296274
21
180.2657720797
31
0.0000000000
11
14.9345271486
21
180.2492674363
31
0.0000000000
11
14.9005608406
21
180.2323993620
31
0.0000000000
11
14.8675464247
21
180.2152203645
31
0.0000000000
11
14.8354984942
21
180.1977838849
31
0.0000000000
11
14.8044328956
21
180.1801456213
31
0.0000000000
11
14.7743743442
21
180.1623683498
31
0.0000000000
11
14.7453465398
21
180.1445168420
31
0.0000000000
11
14.7372959632
21
180.1394440915
31
0.0000000000
0
SPLINE
5
51A
100
AcDbEntity
8
0
100
AcDbSpline
62
7
6
CONTINUOUS
70
0
71
3
72
13
73
9
74
7
42
0.0000001000
43
0.0000001000
44
0.0000000001
12
-0.1395407087
22
-0.0883904894
32
0.0000000000
13
-0.1318771384
23
-0.0994599170
33
0.0000000000
40
0.0000000000
40
0.0000000000
40
0.0000000000
40
0.0000000000
40
0.1433345052
40
0.3386260343
40
0.5274064790
40
0.7067823399
40
0.8733107166
40
1.0000000000
40
1.0000000000
40
1.0000000000
40
1.0000000000
10
14.7372959632
20
180.1394440915
30
0.0000000000
10
14.7306289638
20
180.1352209558
30
0.0000000000
10
14.7149373107
20
180.1251506313
30
0.0000000000
10
14.6907188510
20
180.1091261276
30
0.0000000000
10
14.6651193275
20
180.0915997103
30
0.0000000000
10
14.6410809458
20
180.0746027060
30
0.0000000000
10
14.6200480563
20
180.0592815514
30
0.0000000000
10
14.6071127463
20
180.0496208792
30
0.0000000000
10
14.6015436063
20
180.0454207107
30
0.0000000000
11
14.7372959632
21
180.1394440915
31
0.0000000000
11
14.7173703940
21
180.1266566482
31
0.0000000000
11
14.6904681434
21
180.1088565953
31
0.0000000000
11
14.6647380864
21
180.0912410421
31
0.0000000000
11
14.6405454678
21
180.0741356536
31
0.0000000000
11
14.6183119117
21
180.0579400782
31
0.0000000000
11
14.6015436063
21
180.0454207107
31
0.0000000000
0
SPLINE
5
51B
100
AcDbEntity
8
0
100
AcDbSpline
62
7
6
CONTINUOUS
70
0
71
3
72
13
73
9
74
7
42
0.0000001000
43
0.0000001000
44
0.0000000001
12
0.1201639228
22
-0.0901377314
32
0.0000000000
13
0.1337217472
23
-0.0848049440
33
0.0000000000
40
0.0000000000
40
0.0000000000
40
0.0000000000
40
0.0000000000
40
0.0594948593
40
0.2299258266
40
0.4156309836
40
0.6120195147
40
0.8158033311
40
1.0000000000
40
1.0000000000
40
1.0000000000
40
1.0000000000
10
14.6039115614
20
10.8495325116
30
0.0000000000
10
14.6062946066
20
10.8477449344
30
0.0000000000
10
14.6212493715
20
10.8365412191
30
0.0000000000
10
14.6347003482
20
10.8267662116
30
0.0000000000
10
14.6600608220
20
10.8086448096
30
0.0000000000
10
14.6850721709
20
10.7914281599
30
0.0000000000
10
14.7108827938
20
10.7742147439
30
0.0000000000
10
14.7280912902
20
10.7631248820
30
0.0000000000
10
14.7363016570
20
10.7579179526
30
0.0000000000
11
14.6039115614
21
10.8495325116
31
0.0000000000
11
14.6135308175
21
10.8423349460
31
0.0000000000
11
14.6353100774
21
10.8263686373
31
0.0000000000
11
14.6592808433
21
10.8093030945
31
0.0000000000
11
14.6848989080
21
10.7916387007
31
0.0000000000
11
14.7117677986
21
10.7737312040
31
0.0000000000
11
14.7363016570
21
10.7579179526
31
0.0000000000
0
SPLINE
5
51C
100
AcDbEntity
8
0
100
AcDbSpline
62
7
6
CONTINUOUS
70
0
71
3
72
18
73
14
74
12
42
0.0000001000
43
0.0000001000
44
0.0000000001
12
0.3209236999
22
-0.2035264790
32
0.0000000000
13
0.3539276268
23
-0.1390888670
33
0.0000000000
40
0.0000000000
40
0.0000000000
40
0.0000000000
40
0.0000000000
40
0.0106836695
40
0.1005074999
40
0.1926061468
40
0.2868651616
40
0.3831707549
40
0.4814412991
40
0.5816103586
40
0.6836136426
40
0.7873890323
40
0.8928722494
40
1.0000000000
40
1.0000000000
40
1.0000000000
40
1.0000000000
10
14.7363016570
20
10.7579179526
30
0.0000000000
10
14.7374445379
20
10.7571931494
30
0.0000000000
10
14.7482036673
20
10.7503850883
30
0.0000000000
10
14.7689659803
20
10.7375210228
30
0.0000000000
10
14.7990388254
20
10.7196031891
30
0.0000000000
10
14.8301420237
20
10.7018113178
30
0.0000000000
10
14.8622484115
20
10.6842120603
30
0.0000000000
10
14.8953397987
20
10.6668636182
30
0.0000000000
10
14.9293997157
20
10.6498217981
30
0.0000000000
10
14.9644123188
20
10.6331404131
30
0.0000000000
10
15.0003597893
20
10.6168725553
30
0.0000000000
10
15.0372223160
20
10.6010703403
30
0.0000000000
10
15.0622044169
20
10.5909564260
30
0.0000000000
10
15.0748429071
20
10.5859896669
30
0.0000000000
11
14.7363016570
21
10.7579179526
31
0.0000000000
11
14.7397327196
21
10.7557468691
31
0.0000000000
11
14.7687691598
21
10.7377577749
31
0.0000000000
11
14.7988558503
21
10.7198313436
31
0.0000000000
11
14.8299691348
21
10.7020339367
31
0.0000000000
11
14.8620830437
21
10.6844305879
31
0.0000000000
11
14.8951799156
21
10.6670793504
31
0.0000000000
11
14.9292450864
21
10.6500349606
31
0.0000000000
11
14.9642625923
21
10.6333512770
31
0.0000000000
11
15.0002151313
21
10.6170811215
31
0.0000000000
11
15.0370825385
21
10.6012768173
31
0.0000000000
11
15.0748429071
21
10.5859896669
31
0.0000000000
0
SPLINE
5
51D
100
AcDbEntity
8
0
100
AcDbSpline
62
7
6
CONTINUOUS
70
0
71
3
72
14
73
10
74
8
42
0.0000001000
43
0.0000001000
44
0.0000000001
12
0.2590531487
22
-0.1018044544
32
0.0000000000
13
0.2707126121
23
-0.0647134602
33
0.0000000000
40
0.0000000000
40
0.0000000000
40
0.0000000000
40
0.0000000000
40
0.1485222296
40
0.2991188101
40
0.4516975715
40
0.6061647399
40
0.7624297283
40
0.9204019642
40
1.0000000000
40
1.0000000000
40
1.0000000000
40
1.0000000000
10
15.0748429071
20
10.5859896669
30
0.0000000000
10
15.0876679575
20
10.5809495920
30
0.0000000000
10
15.1136025789
20
10.5710672275
30
0.0000000000
10
15.1530698386
20
10.5569660066
30
0.0000000000
10
15.1933503976
20
10.5435297544
30
0.0000000000
10
15.2344124945
20
10.5308053772
30
0.0000000000
10
15.2762224499
20
10.5188380741
30
0.0000000000
10
15.3115662709
20
10.5095563663
30
0.0000000000
10
15.3329755159
20
10.5043124416
30
0.0000000000
10
15.3401582467
20
10.5025954202
30
0.0000000000
11
15.0748429071
21
10.5859896669
31
0.0000000000
11
15.1134722827
21
10.5712699769
31
0.0000000000
11
15.1529446786
21
10.5571669189
31
0.0000000000
11
15.1932304348
21
10.5437289297
31
0.0000000000
11
15.2342973668
21
10.5310030494
31
0.0000000000
11
15.2761120737
21
10.5190343799
31
0.0000000000
11
15.3186391575
21
10.5078662537
31
0.0000000000
11
15.3401582467
21
10.5025954202
31
0.0000000000
0
SPLINE
5
51E
100
AcDbEntity
8
0
100
AcDbSpline
62
7
6
CONTINUOUS
70
0
71
3
72
18
73
14
74
12
42
0.0000001000
43
0.0000001000
44
0.0000000001
12
0.4550152328
22
-0.1087707363
32
0.0000000000
13
0.4678366531
23
0.0000835623
33
0.0000000000
40
0.0000000000
40
0.0000000000
40
0.0000000000
40
0.0000000000
40
0.0475908095
40
0.1434466876
40
0.2401567014
40
0.3376670075
40
0.4359237720
40
0.5348731673
40
0.6344613655
40
0.7346345295
40
0.8353387967
40
0.9365202569
40
1.0000000000
40
1.0000000000
40
1.0000000000
40
1.0000000000
10
15.3401582467
20
10.5025954202
30
0.0000000000
10
15.3473764278
20
10.5008699244
30
0.0000000000
10
15.3691623155
20
10.4957906226
30
0.0000000000
10
15.4057758535
20
10.4879023302
30
0.0000000000
10
15.4502042116
20
10.4793770106
30
0.0000000000
10
15.4951847693
20
10.4718051350
30
0.0000000000
10
15.5406732101
20
10.4652192682
30
0.0000000000
10
15.5866237129
20
10.4596494711
30
0.0000000000
10
15.6329890754
20
10.4551231994
30
0.0000000000
10
15.6797207927
20
10.4516652089
30
0.0000000000
10
15.7267693321
20
10.4492974698
30
0.0000000000
10
15.7681399928
20
10.4481971630
30
0.0000000000
10
15.7938185538
20
10.4480105156
30
0.0000000000
10
15.8037179373
20
10.4480122837
30
0.0000000000
11
15.3401582467
21
10.5025954202
31
0.0000000000
11
15.3618412801
21
10.4975400999
31
0.0000000000
11
15.4056792322
21
10.4880953140
31
0.0000000000
11
15.4501120119
21
10.4795691316
31
0.0000000000
11
15.4950969124
21
10.4719965083
31
0.0000000000
11
15.5405896199
21
10.4654100045
31
0.0000000000
11
15.5865443189
21
10.4598396770
31
0.0000000000
11
15.6329138049
21
10.4553129775
31
0.0000000000
11
15.6796496042
21
10.4518546583
31
0.0000000000
11
15.7267020977
21
10.4494866853
31
0.0000000000
11
15.7740206488
21
10.4482281595
31
0.0000000000
11
15.8037179373
21
10.4480122837
31
0.0000000000
0
SPLINE
5
51F
100
AcDbEntity
8
0
100
AcDbSpline
62
7
6
CONTINUOUS
70
0
71
3
72
9
73
5
74
3
42
0.0000001000
43
0.0000001000
44
0.0000000001
12
-0.4711624166
22
0.2501139380
32
0.0000000000
13
-0.3970459841
23
0.3563631935
33
0.0000000000
40
0.0000000000
40
0.0000000000
40
0.0000000000
40
0.0000000000
40
0.4342774151
40
1.0000000000
40
1.0000000000
40
1.0000000000
40
1.0000000000
10
14.8837359523
20
10.6779285401
30
0.0000000000
10
14.8155308869
20
10.7141348183
30
0.0000000000
10
14.6628078711
20
10.8060673301
30
0.0000000000
10
14.5210868179
20
10.9147758841
30
0.0000000000
10
14.4462141911
20
10.9819767864
30
0.0000000000
11
14.8837359523
21
10.6779285401
31
0.0000000000
11
14.6849575096
21
10.7971471546
31
0.0000000000
11
14.4462141911
21
10.9819767864
31
0.0000000000
0
SPLINE
5
520
100
AcDbEntity
8
0
100
AcDbSpline
62
7
6
CONTINUOUS
70
0
71
3
72
9
73
5
74
3
42
0.0000001000
43
0.0000001000
44
0.0000000001
12
-0.6556529008
22
0.5884722951
32
0.0000000000
13
-0.2818089892
23
0.8328306599
33
0.0000000000
40
0.0000000000
40
0.0000000000
40
0.0000000000
40
0.0000000000
40
0.3454822863
40
1.0000000000
40
1.0000000000
40
1.0000000000
40
1.0000000000
10
14.4462141911
20
10.9819767864
30
0.0000000000
10
14.3707087034
20
11.0497457044
30
0.0000000000
10
14.1677654420
20
11.2626878408
30
0.0000000000
10
14.0253025416
20
11.5270744723
30
0.0000000000
10
13.9638195499
20
11.7087752787
30
0.0000000000
11
14.4462141911
21
10.9819767864
31
0.0000000000
11
14.2377009150
21
11.2030214892
31
0.0000000000
11
13.9638195499
21
11.7087752787
31
0.0000000000
0
SPLINE
5
521
100
AcDbEntity
8
0
100
AcDbSpline
62
7
6
CONTINUOUS
70
0
71
3
72
8
73
4
74
2
42
0.0000001000
43
0.0000001000
44
0.0000000001
12
-0.0138745674
22
0.0410035364
32
0.0000000000
13
-0.0127887973
23
0.0412802857
33
0.0000000000
40
0.0000000000
40
0.0000000000
40
0.0000000000
40
0.0000000000
40
1.0000000000
40
1.0000000000
40
1.0000000000
40
1.0000000000
10
13.9638195499
20
11.7087752787
30
0.0000000000
10
13.9591946940
20
11.7224431242
30
0.0000000000
10
13.9547495545
20
11.7361599427
30
0.0000000000
10
13.9504866221
20
11.7499200380
30
0.0000000000
11
13.9638195499
21
11.7087752787
31
0.0000000000
11
13.9504866221
21
11.7499200380
31
0.0000000000
0
SPLINE
5
522
100
AcDbEntity
8
0
100
AcDbSpline
62
7
6
CONTINUOUS
70
0
71
3
72
11
73
7
74
5
42
0.0000001000
43
0.0000001000
44
0.0000000001
12
0.0572814479
22
-0.1443233320
32
0.0000000000
13
0.0685927072
23
-0.1393040438
33
0.0000000000
40
0.0000000000
40
0.0000000000
40
0.0000000000
40
0.0000000000
40
0.1683241454
40
0.4958510871
40
0.8307490111
40
1.0000000000
40
1.0000000000
40
1.0000000000
40
1.0000000000
10
13.9504866239
20
11.6965990294
30
0.0000000000
10
13.9537005742
20
11.6885013288
30
0.0000000000
10
13.9633283343
20
11.6647105520
30
0.0000000000
10
13.9802444292
20
11.6251755470
30
0.0000000000
10
13.9982184831
20
11.5860571141
30
0.0000000000
10
14.0095875619
20
11.5625693740
30
0.0000000000
10
14.0134573564
20
11.5547102582
30
0.0000000000
11
13.9504866239
21
11.6965990294
31
0.0000000000
11
13.9602911962
21
11.6723713412
31
0.0000000000
11
13.9802966654
21
11.6256160312
31
0.0000000000
11
14.0020073573
21
11.5783651927
31
0.0000000000
11
14.0134573564
21
11.5547102582
31
0.0000000000
0
SPLINE
5
523
100
AcDbEntity
8
0
100
AcDbSpline
62
7
6
CONTINUOUS
70
0
71
3
72
9
73
5
74
3
42
0.0000001000
43
0.0000001000
44
0.0000000001
12
0.0233339949
22
-0.0473887092
32
0.0000000000
13
0.0246101286
23
-0.0467387188
33
0.0000000000
40
0.0000000000
40
0.0000000000
40
0.0000000000
40
0.0000000000
40
0.4995541051
40
1.0000000000
40
1.0000000000
40
1.0000000000
40
1.0000000000
10
14.0134573564
20
11.5547102582
30
0.0000000000
10
14.0173428874
20
11.5468191835
30
0.0000000000
10
14.0252278648
20
11.5310756207
30
0.0000000000
10
14.0333255523
20
11.5154403975
30
0.0000000000
10
14.0374308982
20
11.5076436642
30
0.0000000000
11
14.0134573564
21
11.5547102582
31
0.0000000000
11
14.0252739158
21
11.5311166973
31
0.0000000000
11
14.0374308982
21
11.5076436642
31
0.0000000000
0
SPLINE
5
524
100
AcDbEntity
8
0
100
AcDbSpline
62
7
6
CONTINUOUS
70
0
71
3
72
31
73
27
74
25
42
0.0000001000
43
0.0000001000
44
0.0000000001
12
0.4820107125
22
-0.8582054187
32
0.0000000000
13
0.8361172680
23
-0.5193471096
33
0.0000000000
40
0.0000000000
40
0.0000000000
40
0.0000000000
40
0.0000000000
40
0.0266352606
40
0.0792608019
40
0.1308018647
40
0.1812782082
40
0.2307439508
40
0.2792533286
40
0.3268606642
40
0.3736203517
40
0.4195867106
40
0.4647939543
40
0.5092352902
40
0.5528989226
40
0.5957730359
40
0.6378457979
40
0.6791053634
40
0.7195398774
40
0.7591374618
40
0.7978762521
40
0.8357072319
40
0.8725767885
40
0.9084312799
40
0.9432200482
40
0.9769683708
40
1.0000000000
40
1.0000000000
40
1.0000000000
40
1.0000000000
10
14.0626466176
20
11.4612886213
30
0.0000000000
10
14.0669261112
20
11.4536691130
30
0.0000000000
10
14.0798134949
20
11.4310807705
30
0.0000000000
10
14.1018245297
20
11.3942346602
30
0.0000000000
10
14.1289840971
20
11.3513723827
30
0.0000000000
10
14.1566611000
20
11.3100852091
30
0.0000000000
10
14.1847960800
20
11.2703215671
30
0.0000000000
10
14.2133428470
20
11.2320206193
30
0.0000000000
10
14.2422620888
20
11.1951221135
30
0.0000000000
10
14.2715209730
20
11.1595667386
30
0.0000000000
10
14.3010884636
20
11.1253014106
30
0.0000000000
10
14.3309253152
20
11.0922889597
30
0.0000000000
10
14.3609808551
20
11.0605078133
30
0.0000000000
10
14.3911957562
20
11.0299457683
30
0.0000000000
10
14.4215107448
20
11.0005897862
30
0.0000000000
10
14.4518677660
20
10.9724248967
30
0.0000000000
10
14.4822100471
20
10.9454343162
30
0.0000000000
10
14.5124821496
20
10.9195995716
30
0.0000000000
10
14.5426274825
20
10.8949026989
30
0.0000000000
10
14.5725811218
20
10.8713316003
30
0.0000000000
10
14.6022678836
20
10.8488800638
30
0.0000000000
10
14.6316043176
20
10.8275449388
30
0.0000000000
10
14.6605065435
20
10.8073200137
30
0.0000000000
10
14.6889123821
20
10.7881814784
30
0.0000000000
10
14.7141129627
20
10.7718233196
30
0.0000000000
10
14.7298813452
20
10.7619028222
30
0.0000000000
10
14.7363003928
20
10.7579156855
30
0.0000000000
11
14.0626466176
21
11.4612886213
31
0.0000000000
11
14.0756384807
21
11.4385171560
31
0.0000000000
11
14.1022024329
21
11.3940494679
31
0.0000000000
11
14.1293554305
21
11.3511974835
31
0.0000000000
11
14.1570195136
21
11.3099295025
31
0.0000000000
11
14.1851412520
21
11.2701844893
31
0.0000000000
11
14.2136744736
21
11.2319016246
31
0.0000000000
11
14.2425798807
21
11.1950206762
31
0.0000000000
11
14.2718246806
21
11.1594823183
31
0.0000000000
11
14.3013821414
21
11.1252285126
31
0.0000000000
11
14.3312178545
21
11.0922172176
31
0.0000000000
11
14.3612734899
21
11.0604358642
31
0.0000000000
11
14.3914886288
21
11.0298734716
31
0.0000000000
11
14.4218039998
21
11.0005170112
31
0.0000000000
11
14.4521615499
21
10.9723515228
31
0.0000000000
11
14.4825045078
21
10.9453602323
31
0.0000000000
11
14.5127774390
21
10.9195246728
31
0.0000000000
11
14.5429262825
21
10.8948248174
31
0.0000000000
11
14.5728906217
21
10.8712451930
31
0.0000000000
11
14.6025895818
21
10.8487843265
31
0.0000000000
11
14.6319385313
21
10.8274399967
31
0.0000000000
11
14.6608527741
21
10.8072065610
31
0.0000000000
11
14.6892502546
21
10.7880735573
31
0.0000000000
11
14.7171124640
21
10.7699875876
31
0.0000000000
11
14.7363003928
21
10.7579156855
31
0.0000000000
0
SPLINE
5
525
100
AcDbEntity
8
0
100
AcDbSpline
62
7
6
CONTINUOUS
70
0
71
3
72
14
73
10
74
8
42
0.0000001000
43
0.0000001000
44
0.0000000001
12
0.1428224753
22
-0.0887129624
32
0.0000000000
13
0.1498375040
23
-0.0762679984
33
0.0000000000
40
0.0000000000
40
0.0000000000
40
0.0000000000
40
0.0000000000
40
0.0572636801
40
0.2445280948
40
0.4276069245
40
0.6071593352
40
0.7837615132
40
0.9554254463
40
1.0000000000
40
1.0000000000
40
1.0000000000
40
1.0000000000
10
14.7363003928
20
10.7579156855
30
0.0000000000
10
14.7390265730
20
10.7562223419
30
0.0000000000
10
14.7506855996
20
10.7490198343
30
0.0000000000
10
14.7712045506
20
10.7366376698
30
0.0000000000
10
14.7978393977
20
10.7211325881
30
0.0000000000
10
14.8241891792
20
10.7063328436
30
0.0000000000
10
14.8501973397
20
10.6922382604
30
0.0000000000
10
14.8697072186
20
10.6820350115
30
0.0000000000
10
14.8804970783
20
10.6765173122
30
0.0000000000
10
14.8827233916
20
10.6753841082
30
0.0000000000
11
14.7363003928
21
10.7579156855
31
0.0000000000
11
14.7444913047
21
10.7528556461
31
0.0000000000
11
14.7714480694
21
10.7365884782
31
0.0000000000
11
14.7980498634
21
10.7211025251
31
0.0000000000
11
14.8243704160
21
10.7063190766
31
0.0000000000
11
14.8504754870
21
10.6921718079
31
0.0000000000
11
14.8760508731
21
10.6787962983
31
0.0000000000
11
14.8827233916
21
10.6753841082
31
0.0000000000
0
SPLINE
5
526
100
AcDbEntity
8
0
100
AcDbSpline
62
7
6
CONTINUOUS
70
0
71
3
72
9
73
5
74
3
42
0.0000001000
43
0.0000001000
44
0.0000000001
12
-0.9547849112
22
-0.0002359330
32
0.0000000000
13
-0.8463115656
23
0.4492597691
33
0.0000000000
40
0.0000000000
40
0.0000000000
40
0.0000000000
40
0.0000000000
40
0.6223448395
40
1.0000000000
40
1.0000000000
40
1.0000000000
40
1.0000000000
10
15.8038468283
20
10.4483660183
30
0.0000000000
10
15.6057783409
20
10.4483170744
30
0.0000000000
10
15.2845297901
20
10.4956406939
30
0.0000000000
10
14.9902739291
20
10.6213734501
30
0.0000000000
10
14.8837359523
20
10.6779285401
30
0.0000000000
11
15.8038468283
21
10.4483660183
31
0.0000000000
11
15.2163782077
21
10.5375891809
31
0.0000000000
11
14.8837359523
21
10.6779285401
31
0.0000000000
0
SPLINE
5
527
100
AcDbEntity
8
0
100
AcDbSpline
62
7
6
CONTINUOUS
70
0
71
3
72
9
73
5
74
3
42
0.0000001000
43
0.0000001000
44
0.0000000001
12
0.0295243899
22
-0.0766889796
32
0.0000000000
13
-0.0176167354
23
0.0802654336
33
0.0000000000
40
0.0000000000
40
0.0000000000
40
0.0000000000
40
0.0000000000
40
0.7036744468
40
1.0000000000
40
1.0000000000
40
1.0000000000
40
1.0000000000
10
13.9504866221
20
11.7034571226
30
0.0000000000
10
13.9574118083
20
11.6854690975
30
0.0000000000
10
13.9776071782
20
11.6241026718
30
0.0000000000
10
13.9748860298
20
11.6672333582
30
0.0000000000
10
13.9731459335
20
11.6751615912
30
0.0000000000
11
13.9504866221
21
11.7034571226
31
0.0000000000
11
13.9744864487
21
11.6508476787
31
0.0000000000
11
13.9731459335
21
11.6751615912
31
0.0000000000
0
SPLINE
5
528
100
AcDbEntity
8
0
100
AcDbSpline
62
7
6
CONTINUOUS
70
0
71
3
72
9
73
5
74
3
42
0.0000001000
43
0.0000001000
44
0.0000000001
12
0.0175608818
22
0.0801610522
32
0.0000000000
13
-0.0294790150
23
-0.0765843753
33
0.0000000000
40
0.0000000000
40
0.0000000000
40
0.0000000000
40
0.0000000000
40
0.2960696937
40
1.0000000000
40
1.0000000000
40
1.0000000000
40
1.0000000000
10
13.9731459335
20
179.2215704455
30
0.0000000000
10
13.9748790152
20
179.2294815315
30
0.0000000000
10
13.9775513040
20
179.2725402612
30
0.0000000000
10
13.9574036794
20
179.2112449350
30
0.0000000000
10
13.9504866221
20
179.1932749141
30
0.0000000000
11
13.9731459335
21
179.2215704455
31
0.0000000000
11
13.9744610515
21
179.2458309103
31
0.0000000000
11
13.9504866221
21
179.1932749141
31
0.0000000000
0
SPLINE
5
529
100
AcDbEntity
8
0
100
AcDbSpline
62
7
6
CONTINUOUS
70
0
71
3
72
12
73
8
74
6
42
0.0000001000
43
0.0000001000
44
0.0000000001
12
-0.4400186097
22
15.6242210750
32
0.0000000000
13
8.7224957309
23
12.9702725030
33
0.0000000000
40
0.0000000000
40
0.0000000000
40
0.0000000000
40
0.0000000000
40
0.2010432716
40
0.4016756630
40
0.6018655927
40
0.8013841808
40
1.0000000000
40
1.0000000000
40
1.0000000000
40
1.0000000000
10
23.7583604002
20
43.4483660183
30
0.0000000000
10
23.7288728066
20
44.4954141922
30
0.0000000000
10
23.8005505812
20
46.5934005722
30
0.0000000000
10
24.2974613816
20
49.6973637726
30
0.0000000000
10
25.1731974179
20
52.7087168845
30
0.0000000000
10
26.4100285821
20
55.5784457067
30
0.0000000000
10
27.4626270631
20
57.3730797053
30
0.0000000000
10
28.0401022746
20
58.2317801379
30
0.0000000000
11
23.7583604002
21
43.4483660183
31
0.0000000000
11
23.8657451006
21
46.5889206024
31
0.0000000000
11
24.3614083508
21
49.6854689154
31
0.0000000000
11
25.2351795050
21
52.6900470039
31
0.0000000000
11
26.4695532447
21
55.5539130351
31
0.0000000000
11
28.0401022746
21
58.2317801379
31
0.0000000000
0
SPLINE
5
52A
100
AcDbEntity
8
0
100
AcDbSpline
62
7
6
CONTINUOUS
70
0
71
3
72
25
73
21
74
19
42
0.0000001000
43
0.0000001000
44
0.0000000001
12
-2.1866630513
22
-77.6442318033
32
0.0000000000
13
-2.1866630513
23
77.6442318033
33
0.0000000000
40
0.0000000000
40
0.0000000000
40
0.0000000000
40
0.0000000000
40
0.0567520482
40
0.1133408889
40
0.1696497783
40
0.2255913416
40
0.2811286647
40
0.3362665372
40
0.3910614186
40
0.4456024330
40
0.5000101518
40
0.5544172554
40
0.6089565568
40
0.6637488498
40
0.7188836096
40
0.7744175541
40
0.8303558001
40
0.8866617831
40
0.9432486902
40
1.0000000000
40
1.0000000000
40
1.0000000000
40
1.0000000000
10
74.1426128439
20
43.4483660183
30
0.0000000000
10
74.1012469750
20
41.9795429570
30
0.0000000000
10
73.7607939197
20
39.0469063035
30
0.0000000000
10
72.4966485724
20
34.8179964620
30
0.0000000000
10
70.5284304754
20
30.8896563781
30
0.0000000000
10
67.9294741834
20
27.3816442674
30
0.0000000000
10
64.7908477096
20
24.3912151467
30
0.0000000000
10
61.2147583716
20
21.9943979532
30
0.0000000000
10
57.3092496983
20
20.2463899737
30
0.0000000000
10
53.1842266710
20
19.1838720482
30
0.0000000000
10
48.9497073687
20
18.8275673386
30
0.0000000000
10
44.7152549853
20
19.1841303392
30
0.0000000000
10
40.5904189810
20
20.2468564479
30
0.0000000000
10
36.6851783679
20
21.9949864217
30
0.0000000000
10
33.1093897779
20
24.3918237919
30
0.0000000000
10
29.9710478639
20
27.3821778266
30
0.0000000000
10
27.3723203514
20
30.8900452629
30
0.0000000000
10
25.4042484650
20
34.8182185761
30
0.0000000000
10
24.1401673907
20
39.0469945566
30
0.0000000000
10
23.7997257310
20
41.9795620673
30
0.0000000000
10
23.7583604002
20
43.4483660183
30
0.0000000000
11
74.1426128439
21
43.4483660183
31
0.0000000000
11
73.6339138186
21
39.0695995038
31
0.0000000000
11
72.3752654495
21
34.8581189162
31
0.0000000000
11
70.4159019343
21
30.9477521973
31
0.0000000000
11
67.8292310115
21
27.4562719584
31
0.0000000000
11
64.7060064988
21
24.4805572017
31
0.0000000000
11
61.1483360968
21
22.0960953231
31
0.0000000000
11
57.2634995799
21
20.3573524130
31
0.0000000000
11
53.1609342932
21
19.3006255015
31
0.0000000000
11
48.9496951696
21
18.9462820750
31
0.0000000000
11
44.7385256035
21
19.3008820855
31
0.0000000000
11
40.6361507460
21
20.3578148778
31
0.0000000000
11
36.7515874899
21
22.0966761529
31
0.0000000000
11
33.1942199583
21
24.4811556318
31
0.0000000000
11
30.0712828698
21
27.4567916116
31
0.0000000000
11
27.4848434765
21
30.9481226947
31
0.0000000000
11
25.5256309686
21
34.8583125751
31
0.0000000000
11
24.2670478093
21
39.0696558939
31
0.0000000000
11
23.7583604002
21
43.4483660183
31
0.0000000000
0
SPLINE
5
52B
100
AcDbEntity
8
0
100
AcDbSpline
62
7
6
CONTINUOUS
70
0
71
3
72
12
73
8
74
6
42
0.0000001000
43
0.0000001000
44
0.0000000001
12
8.7224956905
22
-12.9702724220
32
0.0000000000
13
-0.4400186072
23
-15.6242209853
33
0.0000000000
40
0.0000000000
40
0.0000000000
40
0.0000000000
40
0.0000000000
40
0.1986153784
40
0.3981337406
40
0.5983237381
40
0.7989564138
40
1.0000000000
40
1.0000000000
40
1.0000000000
40
1.0000000000
10
69.8608710239
20
58.2317800662
30
0.0000000000
10
70.4383449514
20
57.3730815444
30
0.0000000000
10
71.4909418767
20
55.5784507195
30
0.0000000000
10
72.7277727745
20
52.7087252278
30
0.0000000000
10
73.6035101684
20
49.6973718372
30
0.0000000000
10
74.1004223980
20
46.5934053343
30
0.0000000000
10
74.1721004835
20
44.4954158247
30
0.0000000000
10
74.1426128439
20
43.4483660183
30
0.0000000000
11
69.8608710239
21
58.2317800662
31
0.0000000000
11
71.4314169133
21
55.5539191282
31
0.0000000000
11
72.6657902252
21
52.6900567794
31
0.0000000000
11
73.5395628457
21
49.6854780326
31
0.0000000000
11
74.0352276705
21
46.5889254885
31
0.0000000000
11
74.1426128439
21
43.4483660183
31
0.0000000000
0
SPLINE
5
52C
100
AcDbEntity
8
0
100
AcDbSpline
62
7
6
CONTINUOUS
70
0
71
3
72
12
73
8
74
6
42
0.0000001000
43
0.0000001000
44
0.0000000001
12
2.6812885988
22
3.9870519698
32
0.0000000000
13
2.8021083957
23
3.9030860225
33
0.0000000000
40
0.0000000000
40
0.0000000000
40
0.0000000000
40
0.0000000000
40
0.2745108432
40
0.5156079544
40
0.7184969904
40
0.8814833552
40
1.0000000000
40
1.0000000000
40
1.0000000000
40
1.0000000000
10
28.0401022746
20
58.2317801379
30
0.0000000000
10
28.2854498727
20
58.5966098039
30
0.0000000000
10
28.7581785361
20
59.2739394891
30
0.0000000000
10
29.4446279662
20
60.1976459214
30
0.0000000000
10
30.0401769688
20
60.9660431833
30
0.0000000000
10
30.5193293884
20
61.5761210376
30
0.0000000000
10
30.7932519116
20
61.9343700096
30
0.0000000000
10
30.9039507401
20
62.0885635628
30
0.0000000000
11
28.0401022746
21
58.2317801379
31
0.0000000000
11
28.7944488975
21
59.3137350049
31
0.0000000000
11
29.4845074187
21
60.2441928178
31
0.0000000000
11
30.0802291185
21
61.0158290084
31
0.0000000000
11
30.5617976725
21
61.6333710534
31
0.0000000000
11
30.9039507401
21
62.0885635628
31
0.0000000000
0
SPLINE
5
52D
100
AcDbEntity
8
0
100
AcDbSpline
62
7
6
CONTINUOUS
70
0
71
3
72
12
73
8
74
6
42
0.0000001000
43
0.0000001000
44
0.0000000001
12
2.8021085593
22
-3.9030862504
32
0.0000000000
13
2.6812887630
23
-3.9870521975
33
0.0000000000
40
0.0000000000
40
0.0000000000
40
0.0000000000
40
0.0000000000
40
0.1191776055
40
0.2825609812
40
0.4853999040
40
0.7261345967
40
1.0000000000
40
1.0000000000
40
1.0000000000
40
1.0000000000
10
66.9970225040
20
62.0885635628
30
0.0000000000
10
67.1083387002
20
61.9335100716
30
0.0000000000
10
67.3833381697
20
61.5739500507
30
0.0000000000
10
67.8634927595
20
60.9626076372
30
0.0000000000
10
68.4589693312
20
60.1941850263
30
0.0000000000
10
69.1443239503
20
59.2717764106
30
0.0000000000
10
69.6161002752
20
58.5957519521
30
0.0000000000
10
69.8608710179
20
58.2317800662
30
0.0000000000
11
66.9970225040
21
62.0885635628
31
0.0000000000
11
67.3411173464
21
61.6308576907
31
0.0000000000
11
67.8238725397
21
61.0118219587
31
0.0000000000
11
68.4193967144
21
60.2403373942
31
0.0000000000
11
69.1083394355
21
59.3112199534
31
0.0000000000
11
69.8608710179
21
58.2317800662
31
0.0000000000
0
SPLINE
5
52E
100
AcDbEntity
8
0
100
AcDbSpline
62
7
6
CONTINUOUS
70
0
71
3
72
21
73
17
74
15
42
0.0000001000
43
0.0000001000
44
0.0000000001
12
24.0924165895
22
33.5585784559
32
0.0000000000
13
24.0924165895
23
-33.5585784559
33
0.0000000000
40
0.0000000000
40
0.0000000000
40
0.0000000000
40
0.0000000000
40
0.0540480850
40
0.1161455790
40
0.1845316993
40
0.2584104407
40
0.3360302927
40
0.4174789862
40
0.5000689227
40
0.5826027907
40
0.6640623597
40
0.7416887913
40
0.8155195690
40
0.8838871680
40
0.9459520945
40
1.0000000000
40
1.0000000000
40
1.0000000000
40
1.0000000000
10
30.9039507401
20
62.0885635628
30
0.0000000000
10
31.3380004002
20
62.6931558633
30
0.0000000000
10
32.3715386968
20
63.9214493547
30
0.0000000000
10
34.2518936765
20
65.6405735928
30
0.0000000000
10
36.5643021131
20
67.2587390173
30
0.0000000000
10
39.2597133298
20
68.6578037936
30
0.0000000000
10
42.2879239919
20
69.7452496725
30
0.0000000000
10
45.5543893011
20
70.4348231665
30
0.0000000000
10
48.9525778375
20
70.6708674050
30
0.0000000000
10
52.3508530284
20
70.4341842318
30
0.0000000000
10
55.6166992352
20
69.7442355622
30
0.0000000000
10
58.6443347107
20
68.6564248770
30
0.0000000000
10
61.3388087732
20
67.2573782985
30
0.0000000000
10
63.6499640108
20
65.6398115900
30
0.0000000000
10
65.5297273807
20
63.9211017605
30
0.0000000000
10
66.5629742858
20
62.6931538550
30
0.0000000000
10
66.9970225040
20
62.0885635628
30
0.0000000000
11
30.9039507401
21
62.0885635628
31
0.0000000000
11
32.3323857886
21
63.8046497866
31
0.0000000000
11
34.2210704497
21
65.5406728331
31
0.0000000000
11
36.5331528134
21
67.1641172742
31
0.0000000000
11
39.2405592291
21
68.5729515882
31
0.0000000000
11
42.2577443725
21
69.6586426568
31
0.0000000000
11
45.5496734866
21
70.3548822541
31
0.0000000000
11
48.9533399657
21
70.5917254639
31
0.0000000000
11
52.3546518259
21
70.3544124249
31
0.0000000000
11
55.6469167794
21
69.6575896350
31
0.0000000000
11
58.6641756856
21
68.5713008944
31
0.0000000000
11
61.3696327079
21
67.1630129276
31
0.0000000000
11
63.6809579289
21
65.5398216879
31
0.0000000000
11
65.5685925768
21
63.8046443995
31
0.0000000000
11
66.9970225040
21
62.0885635628
31
0.0000000000
0
SPLINE
5
52F
100
AcDbEntity
8
0
100
AcDbSpline
62
7
6
CONTINUOUS
70
0
71
3
72
21
73
17
74
15
42
0.0000001000
43
0.0000001000
44
0.0000000001
12
-24.0924164951
22
-33.5585783244
32
0.0000000000
13
-24.0924164951
23
33.5585783244
33
0.0000000000
40
0.0000000000
40
0.0000000000
40
0.0000000000
40
0.0000000000
40
0.0540483073
40
0.1161121669
40
0.1844779003
40
0.2583055179
40
0.3359331464
40
0.4173950231
40
0.4999313104
40
0.5825236606
40
0.6639746768
40
0.7415954426
40
0.8154710128
40
0.8838552280
40
0.9459516519
40
1.0000000000
40
1.0000000000
40
1.0000000000
40
1.0000000000
10
66.9970225040
20
128.8081684739
30
0.0000000000
10
66.5629710605
20
128.2035736891
30
0.0000000000
10
65.5297293409
20
126.9756333086
30
0.0000000000
10
63.6499925878
20
125.2569466004
30
0.0000000000
10
61.3389116347
20
123.6394211599
30
0.0000000000
10
58.6444957381
20
122.2403791487
30
0.0000000000
10
55.6168650244
20
121.1525398795
30
0.0000000000
10
52.3509420766
20
120.4625556382
30
0.0000000000
10
48.9525682335
20
120.2258599871
30
0.0000000000
10
45.5542810237
20
120.4619193535
30
0.0000000000
10
42.2877432023
20
121.1515302391
30
0.0000000000
10
39.2595416441
20
122.2390051463
30
0.0000000000
10
36.5641931528
20
123.6380641567
30
0.0000000000
10
34.2518601285
20
125.2561886069
30
0.0000000000
10
32.3715341084
20
126.9752885941
30
0.0000000000
10
31.3380025114
20
128.2035732326
30
0.0000000000
10
30.9039507401
20
128.8081684739
30
0.0000000000
11
66.9970225040
21
128.8081684739
31
0.0000000000
11
65.5685811205
21
127.0920755864
31
0.0000000000
11
63.6809793754
21
125.3569276502
31
0.0000000000
11
61.3697221967
21
123.7337736470
31
0.0000000000
11
58.6643914491
21
122.3255258475
31
0.0000000000
11
55.6470957018
21
121.2391935062
31
0.0000000000
11
52.3547414719
21
120.5423321832
31
0.0000000000
11
48.9533303150
21
120.3050065717
31
0.0000000000
11
45.5495649554
21
120.5418649870
31
0.0000000000
11
42.2575465075
21
121.2381458608
31
0.0000000000
11
39.2403361491
21
122.3238783183
31
0.0000000000
11
36.5330569117
21
123.7326731961
31
0.0000000000
11
34.2210444303
21
125.3560801913
31
0.0000000000
11
32.3323932879
21
127.0920743617
31
0.0000000000
11
30.9039507401
21
128.8081684739
31
0.0000000000
0
SPLINE
5
530
100
AcDbEntity
8
0
100
AcDbSpline
62
7
6
CONTINUOUS
70
0
71
3
72
12
73
8
74
6
42
0.0000001000
43
0.0000001000
44
0.0000000001
12
-2.8021085357
22
3.9030862175
32
0.0000000000
13
-2.6812887328
23
3.9870521690
33
0.0000000000
40
0.0000000000
40
0.0000000000
40
0.0000000000
40
0.0000000000
40
0.1183804125
40
0.2815642245
40
0.4847559895
40
0.7259532252
40
1.0000000000
40
1.0000000000
40
1.0000000000
40
1.0000000000
10
30.9039507401
20
128.8081684739
30
0.0000000000
10
30.7933791520
20
128.9621847927
30
0.0000000000
10
30.5194066052
20
129.3205187714
30
0.0000000000
10
30.0398888241
20
129.9310509675
30
0.0000000000
10
29.4437602556
20
130.7002156821
30
0.0000000000
10
28.7574095027
20
131.6238737678
30
0.0000000000
10
28.2850351178
20
132.3007389695
30
0.0000000000
10
28.0401022746
20
132.6649518988
30
0.0000000000
11
30.9039507401
21
128.8081684739
31
0.0000000000
11
30.5621978495
21
129.2628429562
31
0.0000000000
11
30.0800481040
21
129.8811348750
31
0.0000000000
11
29.4834490464
21
130.6539313676
31
0.0000000000
11
28.7931438805
21
131.5848052701
31
0.0000000000
11
28.0401022746
21
132.6649518988
31
0.0000000000
0
SPLINE
5
531
100
AcDbEntity
8
0
100
AcDbSpline
62
7
6
CONTINUOUS
70
0
71
3
72
12
73
8
74
6
42
0.0000001000
43
0.0000001000
44
0.0000000001
12
-2.6812886966
22
-3.9870521152
32
0.0000000000
13
-2.8021084979
23
-3.9030861648
33
0.0000000000
40
0.0000000000
40
0.0000000000
40
0.0000000000
40
0.0000000000
40
0.2740139272
40
0.5149000435
40
0.7178135920
40
0.8811076630
40
1.0000000000
40
1.0000000000
40
1.0000000000
40
1.0000000000
10
69.8608709695
20
132.6649518988
30
0.0000000000
10
69.6159674877
20
132.3007826295
30
0.0000000000
10
69.1439097184
20
131.6243684286
30
0.0000000000
10
68.4581740656
20
130.7014953515
30
0.0000000000
10
67.8625443274
20
129.9329145763
30
0.0000000000
10
67.3826867888
20
129.3219493648
30
0.0000000000
10
67.1080722467
20
128.9628508191
30
0.0000000000
10
66.9970225040
20
128.8081684739
30
0.0000000000
11
69.8608709695
21
132.6649518988
31
0.0000000000
11
69.1079217447
21
131.5849332814
31
0.0000000000
11
68.4185244682
21
130.6552471763
31
0.0000000000
11
67.8227649308
21
129.8834913610
31
0.0000000000
11
67.3402792589
21
129.2647896076
31
0.0000000000
11
66.9970225040
21
128.8081684739
31
0.0000000000
0
SPLINE
5
532
100
AcDbEntity
8
0
100
AcDbSpline
62
7
6
CONTINUOUS
70
0
71
3
72
12
73
8
74
6
42
0.0000001000
43
0.0000001000
44
0.0000000001
12
8.7224957308
22
12.9702725027
32
0.0000000000
13
-0.4400186097
23
15.6242210747
33
0.0000000000
40
0.0000000000
40
0.0000000000
40
0.0000000000
40
0.0000000000
40
0.1986155053
40
0.3981338403
40
0.5983237861
40
0.7989563898
40
1.0000000000
40
1.0000000000
40
1.0000000000
40
1.0000000000
10
69.8608709695
20
132.6649518988
30
0.0000000000
10
70.4383452685
20
133.5236509744
30
0.0000000000
10
71.4909424150
20
135.3182822976
30
0.0000000000
10
72.7277732179
20
138.1880081200
30
0.0000000000
10
73.6035102642
20
141.1993608056
30
0.0000000000
10
74.1004223932
20
144.3033268087
30
0.0000000000
10
74.1721004872
20
146.4013160810
30
0.0000000000
10
74.1426128439
20
147.4483660183
30
0.0000000000
11
69.8608709695
21
132.6649518988
31
0.0000000000
11
71.4314177786
21
135.3428146167
31
0.0000000000
11
72.6657907353
21
138.2066766763
31
0.0000000000
11
73.5395630027
21
141.2112547031
31
0.0000000000
11
74.0352276325
21
144.3078061562
31
0.0000000000
11
74.1426128439
21
147.4483660183
31
0.0000000000
0
SPLINE
5
533
100
AcDbEntity
8
0
100
AcDbSpline
62
7
6
CONTINUOUS
70
0
71
3
72
25
73
21
74
19
42
0.0000001000
43
0.0000001000
44
0.0000000001
12
-2.1866630513
22
77.6442318033
32
0.0000000000
13
-2.1866630513
23
-77.6442318033
33
0.0000000000
40
0.0000000000
40
0.0000000000
40
0.0000000000
40
0.0000000000
40
0.0567520482
40
0.1133408889
40
0.1696497783
40
0.2255913416
40
0.2811286647
40
0.3362665372
40
0.3910614186
40
0.4456024330
40
0.5000101518
40
0.5544172554
40
0.6089565568
40
0.6637488498
40
0.7188836096
40
0.7744175541
40
0.8303558001
40
0.8866617831
40
0.9432486902
40
1.0000000000
40
1.0000000000
40
1.0000000000
40
1.0000000000
10
74.1426128439
20
147.4483660183
30
0.0000000000
10
74.1012469750
20
148.9171890797
30
0.0000000000
10
73.7607939197
20
151.8498257332
30
0.0000000000
10
72.4966485724
20
156.0787355747
30
0.0000000000
10
70.5284304754
20
160.0070756585
30
0.0000000000
10
67.9294741834
20
163.5150877692
30
0.0000000000
10
64.7908477096
20
166.5055168900
30
0.0000000000
10
61.2147583716
20
168.9023340834
30
0.0000000000
10
57.3092496983
20
170.6503420630
30
0.0000000000
10
53.1842266710
20
171.7128599885
30
0.0000000000
10
48.9497073687
20
172.0691646980
30
0.0000000000
10
44.7152549853
20
171.7126016975
30
0.0000000000
10
40.5904189810
20
170.6498755888
30
0.0000000000
10
36.6851783679
20
168.9017456150
30
0.0000000000
10
33.1093897779
20
166.5049082447
30
0.0000000000
10
29.9710478639
20
163.5145542101
30
0.0000000000
10
27.3723203514
20
160.0066867737
30
0.0000000000
10
25.4042484650
20
156.0785134605
30
0.0000000000
10
24.1401673907
20
151.8497374801
30
0.0000000000
10
23.7997257310
20
148.9171699693
30
0.0000000000
10
23.7583604002
20
147.4483660183
30
0.0000000000
11
74.1426128439
21
147.4483660183
31
0.0000000000
11
73.6339138186
21
151.8271325328
31
0.0000000000
11
72.3752654495
21
156.0386131205
31
0.0000000000
11
70.4159019343
21
159.9489798394
31
0.0000000000
11
67.8292310115
21
163.4404600782
31
0.0000000000
11
64.7060064988
21
166.4161748349
31
0.0000000000
11
61.1483360968
21
168.8006367136
31
0.0000000000
11
57.2634995799
21
170.5393796237
31
0.0000000000
11
53.1609342932
21
171.5961065351
31
0.0000000000
11
48.9496951696
21
171.9504499616
31
0.0000000000
11
44.7385256035
21
171.5958499512
31
0.0000000000
11
40.6361507460
21
170.5389171589
31
0.0000000000
11
36.7515874899
21
168.8000558838
31
0.0000000000
11
33.1942199583
21
166.4155764049
31
0.0000000000
11
30.0712828698
21
163.4399404250
31
0.0000000000
11
27.4848434765
21
159.9486093419
31
0.0000000000
11
25.5256309686
21
156.0384194615
31
0.0000000000
11
24.2670478093
21
151.8270761428
31
0.0000000000
11
23.7583604002
21
147.4483660183
31
0.0000000000
0
SPLINE
5
534
100
AcDbEntity
8
0
100
AcDbSpline
62
7
6
CONTINUOUS
70
0
71
3
72
12
73
8
74
6
42
0.0000001000
43
0.0000001000
44
0.0000000001
12
-0.4400186097
22
-15.6242210751
32
0.0000000000
13
8.7224957310
23
-12.9702725030
33
0.0000000000
40
0.0000000000
40
0.0000000000
40
0.0000000000
40
0.0000000000
40
0.2010432945
40
0.4016756127
40
0.6018654896
40
0.8013840496
40
1.0000000000
40
1.0000000000
40
1.0000000000
40
1.0000000000
10
23.7583604002
20
147.4483660183
30
0.0000000000
10
23.7288728032
20
146.4013177254
30
0.0000000000
10
23.8005505840
20
144.3033316064
30
0.0000000000
10
24.2974612718
20
141.1993689402
30
0.0000000000
10
25.1731969388
20
138.1880165632
30
0.0000000000
10
26.4100279964
20
135.3182874131
30
0.0000000000
10
27.4626266814
20
133.5236528989
30
0.0000000000
10
28.0401022746
20
132.6649518988
30
0.0000000000
11
23.7583604002
21
147.4483660183
31
0.0000000000
11
23.8657451351
21
144.3078110778
31
0.0000000000
11
24.3614081781
21
141.2112638898
31
0.0000000000
11
25.2351789589
21
138.2066865519
31
0.0000000000
11
26.4695523159
21
135.3428208354
31
0.0000000000
11
28.0401022746
21
132.6649518988
31
0.0000000000
0
ENDSEC
0
SECTION
2
OBJECTS
0
DICTIONARY
5
535
100
AcDbDictionary
3
ACAD_GROUP
350
536
3
ACAD_MLINESTYLE
350
537
0
DICTIONARY
5
536
102
{ACAD_REACTORS
330
535
102
}
100
AcDbDictionary
0
DICTIONARY
5
537
102
{ACAD_REACTORS
330
535
102
}
100
AcDbDictionary
3
STANDARD
350
538
0
MLINESTYLE
5
538
102
{ACAD_REACTORS
330
537
102
}
100
AcDbMlineStyle
2
STANDARD
70
0
3

62
256
51
90.0
52
90.0
71
2
49
0.5
62
256
6
BYLAYER
49
-0.5
62
256
6
BYLAYER
0
ENDSEC
0
EOF
