999
DXF file: 001-m35659-p-1.dxf
999
Pro/ENGINEER 2011490 by Parametric Technology Corporation
  0
SECTION
  2
HEADER
  9
$ACADVER
  1
AC1021
  9
$DWGCODEPAGE
  3
ANSI_1252
  9
$EXTMAX
 10
420.0
 20
297.0
 30
0.0
  9
$EXTMIN
 10
0.0
 20
0.0
 30
0.0
  9
$LIMMIN
 10
0.0
 20
0.0
  9
$LIMMAX
 10
420.0
 20
297.0
  9
$VIEWCTR
 10
210.0
 20
148.5
  9
$VIEWSIZE
 40
297.0
  9
$CLAYER
  8
0
  9
$LTSCALE
 40
23.1
  9
$CELTYPE
  6
BYLAYER
  9
$DIMSCALE
 40
1.0
  9
$DIMASZ
 40
3.5
  9
$DIMEXO
 40
2.625
  9
$DIMDLI
 40
15.96
  9
$DIMEXE
 40
7.56
  9
$DIMCEN
 40
3.78
  9
$DIMLFAC
 40
1.0
  9
$DIMBLK
  1
_FILLED
  9
$DIMTXT
 40
3.5
  9
$DIMTOL
 70
1
  9
$DIMLIM
 70
0
  9
$DIMTFAC
 40
1.0
  9
$DIMTP
 40
0.005
  9
$DIMTM
 40
0.005
  9
$PDMODE
 70
3
  9
$PDSIZE
 40
0.3125
  9
$HANDSEED
  5
469
  9
$TILEMODE
 70
1
  9
$MEASUREMENT
 70
1
  9
$INSUNITS
 70
4
  0
ENDSEC
  0
SECTION
  2
CLASSES
  0
CLASS
  1
ACDBDICTIONARYWDFLT
  2
AcDbDictionaryWithDefault
  3
AutoCAD 2000
 90
0
 91
1
280
0
281
0
  0
CLASS
  1
ACDBPLACEHOLDER
  2
AcDbPlaceHolder
  3
AutoCAD 2000
 90
0
 91
1
280
0
281
0
  0
CLASS
  1
LAYOUT
  2
AcDbLayout
  3
AutoCAD 2000
 90
0
 91
0
280
0
281
0
  0
ENDSEC
  0
SECTION
  2
TABLES
  0
TABLE
  2
VPORT
  5
8
100
AcDbSymbolTable
 70
2
  0
VPORT
  5
1F4
100
AcDbSymbolTableRecord
100
AcDbViewportTableRecord
  2
*ACTIVE
 70
0
 10
0.0
 20
0.0
 11
1.0
 21
1.0
 12
210.0
 22
148.5
 13
0.0
 23
0.0
 14
1.0
 24
1.0
 15
0.0
 25
0.0
 16
0.0
 26
0.0
 36
1.0
 17
0.0
 27
0.0
 37
0.0
 40
297.0
 41
1.4141414141
 42
50.0
 43
0.0
 44
0.0
 50
0.0
 51
0.0
 71
0
 72
100
 73
1
 74
1
 75
0
 76
0
 77
0
 78
0
  0
ENDTAB
  0
TABLE
  2
LTYPE
  5
5
100
AcDbSymbolTable
 70
6
  0
LTYPE
  5
14
100
AcDbSymbolTableRecord
100
AcDbLinetypeTableRecord
  2
BYBLOCK
 70
0
  3

 72
65
 73
0
 40
0.0
  0
LTYPE
  5
15
100
AcDbSymbolTableRecord
100
AcDbLinetypeTableRecord
  2
BYLAYER
 70
0
  3

 72
65
 73
0
 40
0.0
  0
LTYPE
  5
16
100
AcDbSymbolTableRecord
100
AcDbLinetypeTableRecord
  2
CONTINUOUS
 70
64
  3
Solid line
 72
65
 73
0
 40
0.0
  0
LTYPE
  5
1F5
100
AcDbSymbolTableRecord
100
AcDbLinetypeTableRecord
  2
CENTER
 70
64
  3
____ _ ____ _ ____ _ ____ _ ____ _ ____ _ ____
 72
65
 73
4
 40
0.6
 49
0.375
 74
0
 49
-0.075
 74
0
 49
0.075
 74
0
 49
-0.075
 74
0
  0
LTYPE
  5
1F6
100
AcDbSymbolTableRecord
100
AcDbLinetypeTableRecord
  2
HIDDEN
 70
64
  3
- - - - - - - - - - - - - - - - - - - -
 72
65
 73
2
 40
0.2
 49
0.1
 74
0
 49
-0.1
 74
0
  0
LTYPE
  5
1F7
100
AcDbSymbolTableRecord
100
AcDbLinetypeTableRecord
  2
PHANTOM
 70
64
  3
_____ _ _ _____ _ _ _____ _ _ _____
 72
65
 73
6
 40
0.8
 49
0.45
 74
0
 49
-0.05
 74
0
 49
0.1
 74
0
 49
-0.05
 74
0
 49
0.1
 74
0
 49
-0.05
 74
0
  0
LTYPE
  5
1F8
100
AcDbSymbolTableRecord
100
AcDbLinetypeTableRecord
  2
DOT
 70
64
  3
. . . . . . . . . . . . . . . . . . . .
 72
65
 73
2
 40
0.2
 49
0.1
 74
0
 49
-0.1
 74
0
  0
LTYPE
  5
1F9
100
AcDbSymbolTableRecord
100
AcDbLinetypeTableRecord
  2
DASHED
 70
64
  3
- - - - - - - - - - - - - - - - - - - -
 72
65
 73
2
 40
0.2
 49
0.1
 74
0
 49
-0.1
 74
0
  0
ENDTAB
  0
TABLE
  2
LAYER
  5
2
100
AcDbSymbolTable
 70
36
  0
LAYER
  5
10
100
AcDbSymbolTableRecord
100
AcDbLayerTableRecord
  2
0
 70
0
 62
7
  6
CONTINUOUS
370
-3
390
F
  0
LAYER
  5
1FA
100
AcDbSymbolTableRecord
100
AcDbLayerTableRecord
  2
DEFAULT_1
 70
0
 62
7
  6
CENTER
370
-3
390
F
  0
LAYER
  5
1FB
100
AcDbSymbolTableRecord
100
AcDbLayerTableRecord
  2
DEFAULT_2
 70
0
 62
8
  6
HIDDEN
370
-3
390
F
  0
LAYER
  5
1FC
100
AcDbSymbolTableRecord
100
AcDbLayerTableRecord
  2
DEFAULT_3
 70
0
 62
7
  6
PHANTOM
370
-3
390
F
  0
LAYER
  5
1FD
100
AcDbSymbolTableRecord
100
AcDbLayerTableRecord
  2
AUSFORMSCHRAEGEN
 70
0
 62
7
  6
CONTINUOUS
370
-3
390
F
  0
LAYER
  5
1FE
100
AcDbSymbolTableRecord
100
AcDbLayerTableRecord
  2
BEZUGSACHSEN
 70
0
 62
7
  6
CONTINUOUS
370
-3
390
F
  0
LAYER
  5
1FF
100
AcDbSymbolTableRecord
100
AcDbLayerTableRecord
  2
BEZUGSEBENEN
 70
0
 62
7
  6
CONTINUOUS
370
-3
390
F
  0
LAYER
  5
200
100
AcDbSymbolTableRecord
100
AcDbLayerTableRecord
  2
BG_STARTBEZUEGE
 70
0
 62
7
  6
CONTINUOUS
370
-3
390
F
  0
LAYER
  5
201
100
AcDbSymbolTableRecord
100
AcDbLayerTableRecord
  2
BOHRUNGEN
 70
0
 62
7
  6
CONTINUOUS
370
-3
390
F
  0
LAYER
  5
202
100
AcDbSymbolTableRecord
100
AcDbLayerTableRecord
  2
FASEN
 70
0
 62
7
  6
CONTINUOUS
370
-3
390
F
  0
LAYER
  5
203
100
AcDbSymbolTableRecord
100
AcDbLayerTableRecord
  2
FLAECHENVERBUND
 70
0
 62
7
  6
CONTINUOUS
370
-3
390
F
  0
LAYER
  5
204
100
AcDbSymbolTableRecord
100
AcDbLayerTableRecord
  2
HILFEN
 70
0
 62
7
  6
CONTINUOUS
370
-3
390
F
  0
LAYER
  5
205
100
AcDbSymbolTableRecord
100
AcDbLayerTableRecord
  2
KONSTRUKTIONSELEMENTE
 70
0
 62
7
  6
CONTINUOUS
370
-3
390
F
  0
LAYER
  5
206
100
AcDbSymbolTableRecord
100
AcDbLayerTableRecord
  2
PLATZIERUNG
 70
0
 62
7
  6
CONTINUOUS
370
-3
390
F
  0
LAYER
  5
207
100
AcDbSymbolTableRecord
100
AcDbLayerTableRecord
  2
RUNDUNGEN
 70
0
 62
7
  6
CONTINUOUS
370
-3
390
F
  0
LAYER
  5
208
100
AcDbSymbolTableRecord
100
AcDbLayerTableRecord
  2
TEIL_STARTBEZUEGE
 70
0
 62
7
  6
CONTINUOUS
370
-3
390
F
  0
ENDTAB
  0
TABLE
  2
STYLE
  5
3
100
AcDbSymbolTable
 70
1
  0
STYLE
  5
11
100
AcDbSymbolTableRecord
100
AcDbTextStyleTableRecord
  2
STANDARD
 70
0
 40
0.0
 41
0.7
 50
0.0
 71
0
 42
0.2
  3
txt
  4

  0
STYLE
  5
209
100
AcDbSymbolTableRecord
100
AcDbTextStyleTableRecord
  2
TEXTSTYLE_1
 70
0
 40
0.0
 41
0.8
 50
0.0
 71
0
 42
0.2
  3
gdt
  4

  0
ENDTAB
  0
TABLE
  2
VIEW
  5
6
100
AcDbSymbolTable
 70
0
  0
ENDTAB
  0
TABLE
  2
UCS
  5
7
100
AcDbSymbolTable
 70
0
  0
ENDTAB
  0
TABLE
  2
APPID
  5
9
100
AcDbSymbolTable
 70
1
  0
APPID
  5
20A
100
AcDbSymbolTableRecord
100
AcDbRegAppTableRecord
  2
ACAD
 70
0
  0
ENDTAB
  0
TABLE
  2
BLOCK_RECORD
  5
1
100
AcDbSymbolTable
 70
0
  0
BLOCK_RECORD
  5
20B
100
AcDbSymbolTableRecord
100
AcDbBlockTableRecord
  2
*Model_Space
  0
BLOCK_RECORD
  5
20C
100
AcDbSymbolTableRecord
100
AcDbBlockTableRecord
  2
*Paper_Space
  0
ENDTAB
  0
TABLE
  2
DIMSTYLE
  5
A
100
AcDbSymbolTable
 70
1
100
AcDbDimStyleTable
 71
0
  0
DIMSTYLE
105
20D
100
AcDbSymbolTableRecord
100
AcDbDimStyleTableRecord
  2
STANDARD
 70
0
  3

  4

 40
1.0
 41
3.5
 42
0.0625
 43
0.38
 44
0.18
 45
0.0
 46
0.0
 47
0.005
 48
0.005
140
3.5
141
0.09
142
0.0
143
25.4
144
1.0
145
0.0
146
1.0
147
0.09
 71
1.0
 72
0.0
 73
0
 74
0
 75
0
 76
0
 77
1
 78
8
170
0
171
2
172
0
173
0
174
0
175
0
176
0
177
0
178
5
270
2
271
3
272
3
273
2
274
2
275
0
280
0
281
0
282
0
283
1
284
8
285
0
286
0
287
3
288
0
340
11
  0
ENDTAB
  0
ENDSEC
  0
SECTION
  2
BLOCKS
  0
BLOCK
  5
20
100
AcDbEntity
  8
0
100
AcDbBlockBegin
  2
*Model_Space
 70
0
 10
0.0
 20
0.0
 30
0.0
  3
*Model_Space
  1

  0
ENDBLK
  5
21
100
AcDbEntity
  8
0
100
AcDbBlockEnd
  0
BLOCK
  5
1C
100
AcDbEntity
  8
0
100
AcDbBlockBegin
  2
*Paper_Space
 70
0
 10
0.0
 20
0.0
 30
0.0
  3
*Paper_Space
  1

  0
ENDBLK
  5
1D
100
AcDbEntity
  8
0
100
AcDbBlockEnd
  0
ENDSEC
  0
SECTION
  2
ENTITIES
  0
MTEXT
  5
20E
100
AcDbEntity
  8
0
100
AcDbMText
 62
5
  6
CONTINUOUS
  7
STANDARD
 71
1
 72
1
 10
60.5041397188
 20
213.2589489265
 30
0.0
 11
0.0
 21
1.0
 31
0.0
 44
0.9
  1
RUD
 40
5.0
 41
12.380952381
  0
MTEXT
  5
20F
100
AcDbEntity
  8
0
100
AcDbMText
 62
5
  6
CONTINUOUS
  7
STANDARD
 71
1
 72
1
 10
99.9227581653
 20
206.9770973812
 30
0.0
 11
0.0
 21
1.0
 31
0.0
 44
0.9
  1
IML 2-4
 40
5.0
 41
27.0238095238
  0
MTEXT
  5
210
100
AcDbEntity
  8
0
100
AcDbMText
 62
5
  6
CONTINUOUS
  7
STANDARD
 71
1
 72
1
 10
293.0464884229
 20
198.3845268928
 30
0.0
 11
0.0
 21
1.0
 31
0.0
 44
0.9
  1
RUD IML 2-4
 40
5.0
 41
43.3333333333
  0
LINE
  5
211
100
AcDbEntity
  8
0
100
AcDbLine
 62
7
  6
CONTINUOUS
 10
0.0
 20
0.0
 11
0.0
 21
297.0
  0
LINE
  5
212
100
AcDbEntity
  8
0
100
AcDbLine
 62
7
  6
CONTINUOUS
 10
0.0
 20
0.0
 11
420.0
 21
0.0
  0
LINE
  5
213
100
AcDbEntity
  8
0
100
AcDbLine
 62
7
  6
CONTINUOUS
 10
0.0
 20
297.0
 11
420.0
 21
297.0
  0
LINE
  5
214
100
AcDbEntity
  8
0
100
AcDbLine
 62
7
  6
CONTINUOUS
 10
420.0
 20
0.0
 11
420.0
 21
297.0
  0
LINE
  5
215
100
AcDbEntity
  8
KONSTRUKTIONSELEMENTE
100
AcDbLine
 62
7
  6
CONTINUOUS
 10
76.9449579959
 20
183.9820087028
 11
76.4500161688
 21
188.6910656294
  0
LINE
  5
216
100
AcDbEntity
  8
AUSFORMSCHRAEGEN
100
AcDbLine
 62
7
  6
CONTINUOUS
 10
76.9449579959
 20
183.9820087028
 11
76.4500161688
 21
188.6910656294
  0
LINE
  5
217
100
AcDbEntity
  8
KONSTRUKTIONSELEMENTE
100
AcDbLine
 62
7
  6
CONTINUOUS
 10
126.3841615652
 20
179.6910656294
 11
118.5158707724
 21
179.6910656294
  0
LINE
  5
218
100
AcDbEntity
  8
KONSTRUKTIONSELEMENTE
100
AcDbLine
 62
7
  6
CONTINUOUS
 10
91.3841615652
 20
179.6910656294
 11
83.5158707724
 21
179.6910656294
  0
LINE
  5
219
100
AcDbEntity
  8
KONSTRUKTIONSELEMENTE
100
AcDbLine
 62
7
  6
CONTINUOUS
 10
93.9132147896
 20
182.1704498702
 11
94.1235967619
 21
182.1315030029
  0
LINE
  5
21A
100
AcDbEntity
  8
KONSTRUKTIONSELEMENTE
100
AcDbLine
 62
7
  6
CONTINUOUS
 10
94.1235967619
 20
182.1315030029
 11
94.3249626418
 21
182.0741068852
  0
LWPOLYLINE
  5
21B
100
AcDbEntity
  8
KONSTRUKTIONSELEMENTE
100
AcDbPolyline
 62
7
  6
CONTINUOUS
 90
11
 70
0
 10
94.6074016335
 20
181.9584848193
 10
95.1145671506
 20
181.7321099907
 10
95.7987387685
 20
181.4936289844
 10
96.5023750545
 20
181.321571643
 10
97.2191650757
 20
181.2174127407
 10
97.942619834
 20
181.1821257949
 10
98.6661754119
 20
181.2160145063
 10
99.3832870654
 20
181.3187896124
 10
100.0874450011
 20
181.4895669336
 10
100.7723368646
 20
181.7268445689
 10
101.2926286332
 20
181.9584890532
  0
LINE
  5
21C
100
AcDbEntity
  8
KONSTRUKTIONSELEMENTE
100
AcDbLine
 62
7
  6
CONTINUOUS
 10
83.9449579959
 20
183.9820087028
 11
83.4500161688
 21
188.6910656294
  0
LINE
  5
21D
100
AcDbEntity
  8
KONSTRUKTIONSELEMENTE
100
AcDbLine
 62
7
  6
CONTINUOUS
 10
80.3247297328
 20
231.6910656294
 11
80.3247297328
 21
206.1910656294
  0
LINE
  5
21E
100
AcDbEntity
  8
KONSTRUKTIONSELEMENTE
100
AcDbLine
 62
7
  6
CONTINUOUS
 10
76.4500161688
 20
188.6910656294
 11
76.9449579959
 21
193.4001225559
  0
LINE
  5
21F
100
AcDbEntity
  8
0
100
AcDbLine
 62
7
  6
CONTINUOUS
 10
83.3405988636
 20
227.9171007761
 11
83.3326266317
 21
227.8554268965
  0
LINE
  5
220
100
AcDbEntity
  8
0
100
AcDbLine
 62
7
  6
CONTINUOUS
 10
83.3866882925
 20
228.0551332125
 11
83.354148575
 21
227.8613005766
  0
LINE
  5
221
100
AcDbEntity
  8
0
100
AcDbLine
 62
7
  6
CONTINUOUS
 10
85.0815650802
 20
229.2210656294
 11
85.0416860915
 21
229.112401832
  0
LWPOLYLINE
  5
222
100
AcDbEntity
  8
KONSTRUKTIONSELEMENTE
100
AcDbPolyline
 62
7
  6
CONTINUOUS
 90
3
 70
0
 10
116.0988222543
 20
182.1803452373
 10
116.2101527045
 20
182.1896240992
 10
116.286642616
 20
182.1910369335
  0
LINE
  5
223
100
AcDbEntity
  8
KONSTRUKTIONSELEMENTE
100
AcDbLine
 62
7
  6
CONTINUOUS
 10
116.2866983678
 20
182.1910378983
 11
116.2893898534
 21
182.1910396616
  0
LINE
  5
224
100
AcDbEntity
  8
KONSTRUKTIONSELEMENTE
100
AcDbLine
 62
7
  6
CONTINUOUS
 10
130.966030551
 20
182.1910656294
 11
120.4340017866
 21
182.1910656294
  0
LINE
  5
225
100
AcDbEntity
  8
RUNDUNGEN
100
AcDbLine
 62
7
  6
CONTINUOUS
 10
89.466030551
 20
182.1910656294
 11
93.6106437395
 21
182.1910656294
  0
LINE
  5
226
100
AcDbEntity
  8
KONSTRUKTIONSELEMENTE
100
AcDbLine
 62
7
  6
CONTINUOUS
 10
102.2867071359
 20
182.1910370622
 11
107.6106346853
 21
182.1910656294
  0
LINE
  5
227
100
AcDbEntity
  8
RUNDUNGEN
100
AcDbLine
 62
7
  6
CONTINUOUS
 10
116.2893882989
 20
182.1910656294
 11
120.4340017866
 21
182.1910656294
  0
LINE
  5
228
100
AcDbEntity
  8
KONSTRUKTIONSELEMENTE
100
AcDbLine
 62
7
  6
CONTINUOUS
 10
78.9340017866
 20
182.1910656294
 11
93.613305087
 21
182.1910370928
  0
LINE
  5
229
100
AcDbEntity
  8
KONSTRUKTIONSELEMENTE
100
AcDbLine
 62
7
  6
CONTINUOUS
 10
107.6106343256
 20
182.1910398739
 11
107.613318958
 21
182.1910381264
  0
LWPOLYLINE
  5
22A
100
AcDbEntity
  8
KONSTRUKTIONSELEMENTE
100
AcDbPolyline
 62
7
  6
CONTINUOUS
 90
7
 70
0
 10
93.613389699
 20
182.1910369291
 10
93.6898796486
 20
182.1896240958
 10
93.9021388029
 20
182.1719333102
 10
94.1126729772
 20
182.1340364993
 10
94.319738041
 20
182.0761185699
 10
94.5215571623
 20
181.9984099631
 10
94.6073814744
 20
181.958459714
  0
LWPOLYLINE
  5
22B
100
AcDbEntity
  8
KONSTRUKTIONSELEMENTE
100
AcDbPolyline
 62
7
  6
CONTINUOUS
 90
5
 70
0
 10
107.6134037523
 20
182.1910379613
 10
107.6898735265
 20
182.1896249897
 10
107.9021356845
 20
182.1719336361
 10
108.1126719423
 20
182.1340363251
 10
108.3197383005
 20
182.0761181005
  0
LWPOLYLINE
  5
22C
100
AcDbEntity
  8
KONSTRUKTIONSELEMENTE
100
AcDbPolyline
 62
7
  6
CONTINUOUS
 90
3
 70
0
 10
107.6929298432
 20
182.1893702558
 10
107.7009561564
 20
182.1892020351
 10
107.8011290036
 20
182.1803522112
  0
LINE
  5
22D
100
AcDbEntity
  8
KONSTRUKTIONSELEMENTE
100
AcDbLine
 62
7
  6
CONTINUOUS
 10
93.9076474952
 20
182.1709417283
 11
93.9132147896
 21
182.1704498702
  0
LWPOLYLINE
  5
22E
100
AcDbEntity
  8
KONSTRUKTIONSELEMENTE
100
AcDbPolyline
 62
7
  6
CONTINUOUS
 90
3
 70
0
 10
108.3197383005
 20
182.0761181005
 10
108.5215580735
 20
181.9984094629
 10
108.6073821301
 20
181.9584594472
  0
LWPOLYLINE
  5
22F
100
AcDbEntity
  8
KONSTRUKTIONSELEMENTE
100
AcDbPolyline
 62
7
  6
CONTINUOUS
 90
11
 70
0
 10
108.6074041982
 20
181.9584887992
 10
109.1147292271
 20
181.7320562705
 10
109.7992126382
 20
181.4935098251
 10
110.5030601975
 20
181.3214357151
 10
111.2199709401
 20
181.2173452226
 10
111.9434415429
 20
181.1821245708
 10
112.6669352143
 20
181.2160773544
 10
113.3838953403
 20
181.3189084878
 10
114.0878375374
 20
181.4896619682
 10
114.7724518433
 20
181.7268784513
 10
115.2926296728
 20
181.9584843009
  0
LINE
  5
230
100
AcDbEntity
  8
KONSTRUKTIONSELEMENTE
100
AcDbLine
 62
7
  6
CONTINUOUS
 10
91.3841615652
 20
179.6910656294
 11
94.0944421189
 21
171.5173641928
  0
LINE
  5
231
100
AcDbEntity
  8
KONSTRUKTIONSELEMENTE
100
AcDbLine
 62
7
  6
CONTINUOUS
 10
82.6500161688
 20
182.1910656294
 11
82.6500161688
 21
177.0798093859
  0
LINE
  5
232
100
AcDbEntity
  8
0
100
AcDbLine
 62
7
  6
CONTINUOUS
 10
84.0600161688
 20
219.6956526498
 11
84.0600161688
 21
219.379056832
  0
LINE
  5
233
100
AcDbEntity
  8
0
100
AcDbLine
 62
7
  6
CONTINUOUS
 10
84.2925161688
 20
219.6560781864
 11
84.2925161688
 21
218.1126738933
  0
LINE
  5
234
100
AcDbEntity
  8
0
100
AcDbLine
 62
7
  6
CONTINUOUS
 10
84.5250161688
 20
219.9726738933
 11
84.5250161688
 21
218.1126738933
  0
LINE
  5
235
100
AcDbEntity
  8
0
100
AcDbLine
 62
7
  6
CONTINUOUS
 10
84.7000161688
 20
224.3487252482
 11
84.7000161688
 21
223.923193235
  0
LINE
  5
236
100
AcDbEntity
  8
0
100
AcDbLine
 62
7
  6
CONTINUOUS
 10
84.8350161503
 20
219.2207589785
 11
84.8350161503
 21
218.8645888082
  0
LINE
  5
237
100
AcDbEntity
  8
0
100
AcDbLine
 62
7
  6
CONTINUOUS
 10
85.0125161688
 20
224.2955337652
 11
85.0125161688
 21
222.2210656294
  0
LINE
  5
238
100
AcDbEntity
  8
0
100
AcDbLine
 62
7
  6
CONTINUOUS
 10
85.0287661318
 20
219.1811845151
 11
85.0287661318
 21
218.9041632716
  0
LINE
  5
239
100
AcDbEntity
  8
0
100
AcDbLine
 62
7
  6
CONTINUOUS
 10
85.3250161688
 20
224.7210656294
 11
85.3250161688
 21
222.2210656294
  0
LINE
  5
23A
100
AcDbEntity
  8
0
100
AcDbLine
 62
7
  6
CONTINUOUS
 10
84.9754950864
 20
227.8084372171
 11
84.9711294776
 21
227.1564547905
  0
LINE
  5
23B
100
AcDbEntity
  8
0
100
AcDbLine
 62
7
  6
CONTINUOUS
 10
84.7586271597
 20
227.0066749939
 11
84.750284508
 21
226.6395678409
  0
LINE
  5
23C
100
AcDbEntity
  8
0
100
AcDbLine
 62
7
  6
CONTINUOUS
 10
85.0675162057
 20
219.4186312953
 11
85.0287661318
 21
219.1811845151
  0
LINE
  5
23D
100
AcDbEntity
  8
0
100
AcDbLine
 62
7
  6
CONTINUOUS
 10
86.0362661688
 20
218.9041632716
 11
85.9975160949
 21
218.6667164359
  0
LINE
  5
23E
100
AcDbEntity
  8
0
100
AcDbLine
 62
7
  6
CONTINUOUS
 10
84.8737661688
 20
219.4186312953
 11
84.8350161503
 21
219.2207589785
  0
LINE
  5
23F
100
AcDbEntity
  8
0
100
AcDbLine
 62
7
  6
CONTINUOUS
 10
86.2300160949
 20
218.8645888082
 11
86.1912662427
 21
218.6667164359
  0
LINE
  5
240
100
AcDbEntity
  8
0
100
AcDbLine
 62
7
  6
CONTINUOUS
 10
86.1996702311
 20
225.8055002579
 11
86.1662047766
 21
225.6792154201
  0
LINE
  5
241
100
AcDbEntity
  8
0
100
AcDbLine
 62
7
  6
CONTINUOUS
 10
84.9125161873
 20
219.5373547963
 11
84.8737661688
 21
219.4186312953
  0
LINE
  5
242
100
AcDbEntity
  8
0
100
AcDbLine
 62
7
  6
CONTINUOUS
 10
84.9900161688
 20
219.6956526498
 11
84.9125161873
 21
219.5373547963
  0
LINE
  5
243
100
AcDbEntity
  8
0
100
AcDbLine
 62
7
  6
CONTINUOUS
 10
85.0125161688
 20
224.7210656294
 11
84.7000161688
 21
224.3487252482
  0
LINE
  5
244
100
AcDbEntity
  8
0
100
AcDbLine
 62
7
  6
CONTINUOUS
 10
85.0125161688
 20
224.2955337652
 11
84.7000161688
 21
223.923193235
  0
LINE
  5
245
100
AcDbEntity
  8
0
100
AcDbLine
 62
7
  6
CONTINUOUS
 10
84.7586271597
 20
227.0066749939
 11
84.5267408804
 21
226.845147837
  0
LINE
  5
246
100
AcDbEntity
  8
0
100
AcDbLine
 62
7
  6
CONTINUOUS
 10
84.7619774298
 20
227.0624753126
 11
84.5420940217
 21
226.9097586759
  0
LINE
  5
247
100
AcDbEntity
  8
KONSTRUKTIONSELEMENTE
100
AcDbLine
 62
7
  6
CONTINUOUS
 10
101.5802940371
 20
182.0761181005
 11
101.7873603953
 21
182.1340363251
  0
LINE
  5
248
100
AcDbEntity
  8
KONSTRUKTIONSELEMENTE
100
AcDbLine
 62
7
  6
CONTINUOUS
 10
101.7873603953
 20
182.1340363251
 11
101.9923879552
 21
182.17094205
  0
LINE
  5
249
100
AcDbEntity
  8
0
100
AcDbLine
 62
7
  6
CONTINUOUS
 10
86.2190841035
 20
225.7614474186
 11
86.2187078264
 21
225.7996265777
  0
LINE
  5
24A
100
AcDbEntity
  8
0
100
AcDbLine
 62
7
  6
CONTINUOUS
 10
86.0362661688
 20
219.1811845151
 11
86.0362661688
 21
218.9041632716
  0
LINE
  5
24B
100
AcDbEntity
  8
0
100
AcDbLine
 62
7
  6
CONTINUOUS
 10
86.2300160949
 20
219.2207589785
 11
86.2300160949
 21
218.8645888082
  0
LINE
  5
24C
100
AcDbEntity
  8
KONSTRUKTIONSELEMENTE
100
AcDbLine
 62
7
  6
CONTINUOUS
 10
83.4500161688
 20
188.6910656294
 11
83.9449579959
 21
193.4001225559
  0
LINE
  5
24D
100
AcDbEntity
  8
0
100
AcDbLine
 62
7
  6
CONTINUOUS
 10
86.1912662427
 20
218.6667164359
 11
86.1525161688
 21
218.5479930458
  0
LINE
  5
24E
100
AcDbEntity
  8
0
100
AcDbLine
 62
7
  6
CONTINUOUS
 10
86.1525161688
 20
218.5479930458
 11
86.0750162427
 21
218.3896951646
  0
LINE
  5
24F
100
AcDbEntity
  8
0
100
AcDbLine
 62
7
  6
CONTINUOUS
 10
85.0675162057
 20
219.4186312953
 11
85.2225161688
 21
219.6560781864
  0
LINE
  5
250
100
AcDbEntity
  8
0
100
AcDbLine
 62
7
  6
CONTINUOUS
 10
85.9975160949
 20
218.6667164359
 11
85.8425161318
 21
218.429269628
  0
LINE
  5
251
100
AcDbEntity
  8
0
100
AcDbLine
 62
7
  6
CONTINUOUS
 10
84.2925161688
 20
219.9726738933
 11
84.0600161688
 21
219.6956526498
  0
LINE
  5
252
100
AcDbEntity
  8
0
100
AcDbLine
 62
7
  6
CONTINUOUS
 10
84.2925161688
 20
219.6560781864
 11
84.0600161688
 21
219.379056832
  0
LINE
  5
253
100
AcDbEntity
  8
0
100
AcDbLine
 62
7
  6
CONTINUOUS
 10
85.1062661688
 20
219.8143760399
 11
84.9900161688
 21
219.6956526498
  0
LINE
  5
254
100
AcDbEntity
  8
0
100
AcDbLine
 62
7
  6
CONTINUOUS
 10
86.2076722151
 20
225.8113739976
 11
86.1996702311
 21
225.8055002579
  0
LINE
  5
255
100
AcDbEntity
  8
AUSFORMSCHRAEGEN
100
AcDbLine
 62
7
  6
CONTINUOUS
 10
76.4500161688
 20
188.6910656294
 11
91.9500161688
 21
188.6910656294
  0
LINE
  5
256
100
AcDbEntity
  8
KONSTRUKTIONSELEMENTE
100
AcDbLine
 62
7
  6
CONTINUOUS
 10
102.5500161688
 20
188.6910656294
 11
107.3500161688
 21
188.6910656294
  0
LINE
  5
257
100
AcDbEntity
  8
AUSFORMSCHRAEGEN
100
AcDbLine
 62
7
  6
CONTINUOUS
 10
117.9500161688
 20
188.6910656294
 11
133.4500161688
 21
188.6910656294
  0
LINE
  5
258
100
AcDbEntity
  8
0
100
AcDbLine
 62
7
  6
CONTINUOUS
 10
84.9125161873
 20
218.5479930458
 11
84.8737661688
 21
218.6667164359
  0
LINE
  5
259
100
AcDbEntity
  8
0
100
AcDbLine
 62
7
  6
CONTINUOUS
 10
84.8737661688
 20
218.6667164359
 11
84.8350161503
 21
218.8645888082
  0
LINE
  5
25A
100
AcDbEntity
  8
0
100
AcDbLine
 62
7
  6
CONTINUOUS
 10
86.2300160949
 20
219.2207589785
 11
86.1912662427
 21
219.4186312953
  0
LINE
  5
25B
100
AcDbEntity
  8
0
100
AcDbLine
 62
7
  6
CONTINUOUS
 10
85.0675162057
 20
218.6667164359
 11
85.0287661318
 21
218.9041632716
  0
LINE
  5
25C
100
AcDbEntity
  8
0
100
AcDbLine
 62
7
  6
CONTINUOUS
 10
86.0362661688
 20
219.1811845151
 11
85.9975160949
 21
219.4186312953
  0
LINE
  5
25D
100
AcDbEntity
  8
KONSTRUKTIONSELEMENTE
100
AcDbLine
 62
7
  6
CONTINUOUS
 10
91.9500161688
 20
188.6910656294
 11
91.4550743417
 21
193.4001225559
  0
LINE
  5
25E
100
AcDbEntity
  8
KONSTRUKTIONSELEMENTE
100
AcDbLine
 62
7
  6
CONTINUOUS
 10
89.9247297328
 20
231.6910656294
 11
89.9247297328
 21
206.1910656294
  0
LINE
  5
25F
100
AcDbEntity
  8
KONSTRUKTIONSELEMENTE
100
AcDbLine
 62
7
  6
CONTINUOUS
 10
92.2500161688
 20
182.1910656294
 11
92.2500161688
 21
177.0798093859
  0
LINE
  5
260
100
AcDbEntity
  8
0
100
AcDbLine
 62
7
  6
CONTINUOUS
 10
86.0750162427
 20
218.3896951646
 11
85.9587662427
 21
218.2709717607
  0
LINE
  5
261
100
AcDbEntity
  8
0
100
AcDbLine
 62
7
  6
CONTINUOUS
 10
85.3387661688
 20
219.7352271131
 11
85.2225161688
 21
219.6560781864
  0
LINE
  5
262
100
AcDbEntity
  8
0
100
AcDbLine
 62
7
  6
CONTINUOUS
 10
85.8425161318
 20
218.429269628
 11
85.7262661318
 21
218.3501207013
  0
LINE
  5
263
100
AcDbEntity
  8
0
100
AcDbLine
 62
7
  6
CONTINUOUS
 10
85.3000162057
 20
219.93309943
 11
85.1062661688
 21
219.8143760399
  0
LINE
  5
264
100
AcDbEntity
  8
KONSTRUKTIONSELEMENTE
100
AcDbLine
 62
7
  6
CONTINUOUS
 10
101.9923860577
 20
195.2111893097
 11
101.9868199948
 21
195.211681051
  0
LINE
  5
265
100
AcDbEntity
  8
KONSTRUKTIONSELEMENTE
100
AcDbLine
 62
7
  6
CONTINUOUS
 10
101.9868199948
 20
195.211681051
 11
101.776437361
 21
195.250627803
  0
LWPOLYLINE
  5
266
100
AcDbEntity
  8
KONSTRUKTIONSELEMENTE
100
AcDbPolyline
 62
7
  6
CONTINUOUS
 90
4
 70
0
 10
101.7873592665
 20
195.2480947783
 10
101.5802941791
 20
195.3060127112
 10
101.3784750499
 20
195.383721312
 10
101.2926507389
 20
195.4236715567
  0
LINE
  5
267
100
AcDbEntity
  8
KONSTRUKTIONSELEMENTE
100
AcDbLine
 62
7
  6
CONTINUOUS
 10
101.776437361
 20
195.250627803
 11
101.575070545
 21
195.3080240235
  0
LINE
  5
268
100
AcDbEntity
  8
KONSTRUKTIONSELEMENTE
100
AcDbLine
 62
7
  6
CONTINUOUS
 10
100.2740318378
 20
195.8279290476
 11
100.1410585512
 21
195.8740011078
  0
LWPOLYLINE
  5
269
100
AcDbEntity
  8
KONSTRUKTIONSELEMENTE
100
AcDbPolyline
 62
7
  6
CONTINUOUS
 90
11
 70
0
 10
101.2926296249
 20
195.4236440986
 10
100.7854259666
 20
195.6500235948
 10
100.1010149474
 20
195.8885662257
 10
99.3971672364
 20
196.0606557092
 10
98.6802116782
 20
196.1647740238
 10
97.956667047
 20
196.2000051541
 10
97.2330938506
 20
196.1660554749
 10
96.51607342
 20
196.0632105243
 10
95.8121060209
 20
195.8924425647
 10
95.1275133622
 20
195.6552267308
 10
94.6074018542
 20
195.4236465328
  0
LINE
  5
26A
100
AcDbEntity
  8
0
100
AcDbLine
 62
7
  6
CONTINUOUS
 10
85.2225161688
 20
218.429269628
 11
85.0675162057
 21
218.6667164359
  0
LINE
  5
26B
100
AcDbEntity
  8
0
100
AcDbLine
 62
7
  6
CONTINUOUS
 10
84.9900161688
 20
218.3896951646
 11
84.9125161873
 21
218.5479930458
  0
LINE
  5
26C
100
AcDbEntity
  8
0
100
AcDbLine
 62
7
  6
CONTINUOUS
 10
86.1525161688
 20
219.5373547963
 11
86.0750162427
 21
219.6956526498
  0
LINE
  5
26D
100
AcDbEntity
  8
0
100
AcDbLine
 62
7
  6
CONTINUOUS
 10
86.1912662427
 20
219.4186312953
 11
86.1525161688
 21
219.5373547963
  0
LINE
  5
26E
100
AcDbEntity
  8
KONSTRUKTIONSELEMENTE
100
AcDbLine
 62
7
  6
CONTINUOUS
 10
91.4550743417
 20
183.9820087028
 11
91.9500161688
 21
188.6910656294
  0
LINE
  5
26F
100
AcDbEntity
  8
KONSTRUKTIONSELEMENTE
100
AcDbLine
 62
7
  6
CONTINUOUS
 10
80.8055902187
 20
171.5173641928
 11
83.5158707724
 21
179.6910656294
  0
LINE
  5
270
100
AcDbEntity
  8
0
100
AcDbLine
 62
7
  6
CONTINUOUS
 10
85.9587662427
 20
218.2709717607
 11
85.7650162057
 21
218.1522483602
  0
LWPOLYLINE
  5
271
100
AcDbEntity
  8
KONSTRUKTIONSELEMENTE
100
AcDbPolyline
 62
7
  6
CONTINUOUS
 90
4
 70
0
 10
108.1235949766
 20
195.250627803
 10
107.9132123428
 20
195.211681051
 10
107.7009509482
 20
195.1929285322
 10
107.6134183776
 20
195.1910935759
  0
LINE
  5
272
100
AcDbEntity
  8
KONSTRUKTIONSELEMENTE
100
AcDbLine
 62
7
  6
CONTINUOUS
 10
94.1126714983
 20
195.2480948755
 11
93.9076441212
 21
195.2111891883
  0
LINE
  5
273
100
AcDbEntity
  8
KONSTRUKTIONSELEMENTE
100
AcDbLine
 62
7
  6
CONTINUOUS
 10
107.8012018827
 20
195.201785336
 11
107.6929140031
 21
195.1927600527
  0
LINE
  5
274
100
AcDbEntity
  8
KONSTRUKTIONSELEMENTE
100
AcDbLine
 62
7
  6
CONTINUOUS
 10
93.6133248211
 20
195.1910941906
 11
93.6106434905
 21
195.1910924504
  0
LINE
  5
275
100
AcDbEntity
  8
RUNDUNGEN
100
AcDbLine
 62
7
  6
CONTINUOUS
 10
120.4340017866
 20
195.1910656294
 11
116.2893981552
 21
195.1910656294
  0
LINE
  5
276
100
AcDbEntity
  8
KONSTRUKTIONSELEMENTE
100
AcDbLine
 62
7
  6
CONTINUOUS
 10
107.6133340205
 20
195.1910934098
 11
102.2893887194
 21
195.1910656294
  0
LINE
  5
277
100
AcDbEntity
  8
RUNDUNGEN
100
AcDbLine
 62
7
  6
CONTINUOUS
 10
93.6106435199
 20
195.1910656294
 11
89.466030551
 21
195.1910656294
  0
LINE
  5
278
100
AcDbEntity
  8
KONSTRUKTIONSELEMENTE
100
AcDbLine
 62
7
  6
CONTINUOUS
 10
78.9340017866
 20
195.1910656294
 11
89.466030551
 21
195.1910656294
  0
LINE
  5
279
100
AcDbEntity
  8
KONSTRUKTIONSELEMENTE
100
AcDbLine
 62
7
  6
CONTINUOUS
 10
120.4340017866
 20
195.1910656294
 11
125.9163329704
 21
195.1910656294
  0
LINE
  5
27A
100
AcDbEntity
  8
KONSTRUKTIONSELEMENTE
100
AcDbLine
 62
7
  6
CONTINUOUS
 10
102.2893886862
 20
195.1910924364
 11
102.2867270562
 21
195.1910941524
  0
LINE
  5
27B
100
AcDbEntity
  8
KONSTRUKTIONSELEMENTE
100
AcDbLine
 62
7
  6
CONTINUOUS
 10
116.2893985241
 20
195.1910913209
 11
116.2867137683
 21
195.1910930686
  0
LWPOLYLINE
  5
27C
100
AcDbEntity
  8
KONSTRUKTIONSELEMENTE
100
AcDbPolyline
 62
7
  6
CONTINUOUS
 90
4
 70
0
 10
102.2866424413
 20
195.1910943161
 10
102.2101527164
 20
195.1925071534
 10
101.9978934866
 20
195.2101979551
 10
101.7873592665
 20
195.2480947783
  0
LWPOLYLINE
  5
27D
100
AcDbEntity
  8
KONSTRUKTIONSELEMENTE
100
AcDbPolyline
 62
7
  6
CONTINUOUS
 90
7
 70
0
 10
116.2866289732
 20
195.1910932338
 10
116.2101593289
 20
195.1925062051
 10
115.9978971582
 20
195.2101975584
 10
115.7873608393
 20
195.2480948755
 10
115.580294372
 20
195.3060131201
 10
115.3784744451
 20
195.3837217982
 10
115.2926503166
 20
195.4236718356
  0
LWPOLYLINE
  5
27E
100
AcDbEntity
  8
KONSTRUKTIONSELEMENTE
100
AcDbPolyline
 62
7
  6
CONTINUOUS
 90
3
 70
0
 10
116.2071022184
 20
195.1927610052
 10
116.1990761412
 20
195.1929292205
 10
116.0989073228
 20
195.2017786936
  0
LWPOLYLINE
  5
27F
100
AcDbEntity
  8
KONSTRUKTIONSELEMENTE
100
AcDbPolyline
 62
7
  6
CONTINUOUS
 90
9
 70
0
 10
114.7797180898
 20
195.6520213187
 10
114.7725190075
 20
195.6552267178
 10
114.087926343
 20
195.8924425571
 10
113.3839589507
 20
196.0632105179
 10
112.6669385357
 20
196.1660554698
 10
111.9433653588
 20
196.2000051546
 10
111.2198207448
 20
196.1647740314
 10
110.5028651945
 20
196.060655728
 10
109.7990174782
 20
195.8885662509
  0
LWPOLYLINE
  5
280
100
AcDbEntity
  8
KONSTRUKTIONSELEMENTE
100
AcDbPolyline
 62
7
  6
CONTINUOUS
 90
11
 70
0
 10
115.2926301295
 20
195.4236467286
 10
114.7855390654
 20
195.64999224
 10
114.1013939311
 20
195.8884719008
 10
113.3977360754
 20
196.0605444029
 10
112.6808870204
 20
196.1647183951
 10
111.9573515413
 20
196.2000041154
 10
111.2337191819
 20
196.1661062417
 10
110.5165592787
 20
196.0633039434
 10
109.8123975947
 20
195.8925111784
 10
109.1275754634
 20
195.6552367053
 10
108.6074036174
 20
195.4236445504
  0
LINE
  5
281
100
AcDbEntity
  8
0
100
AcDbLine
 62
7
  6
CONTINUOUS
 10
85.1062661688
 20
218.2709717607
 11
84.9900161688
 21
218.3896951646
  0
LINE
  5
282
100
AcDbEntity
  8
0
100
AcDbLine
 62
7
  6
CONTINUOUS
 10
85.9975160949
 20
219.4186312953
 11
85.8425161318
 21
219.6560781864
  0
LINE
  5
283
100
AcDbEntity
  8
KONSTRUKTIONSELEMENTE
100
AcDbLine
 62
7
  6
CONTINUOUS
 10
94.3197379656
 20
195.3060131201
 11
94.1126714983
 21
195.2480948755
  0
LINE
  5
284
100
AcDbEntity
  8
KONSTRUKTIONSELEMENTE
100
AcDbLine
 62
7
  6
CONTINUOUS
 10
116.0887926249
 20
199.3347100239
 11
142.8106403734
 21
188.067818132
  0
LINE
  5
285
100
AcDbEntity
  8
0
100
AcDbLine
 62
7
  6
CONTINUOUS
 10
86.0750162427
 20
219.6956526498
 11
85.9587662427
 21
219.8143760399
  0
LINE
  5
286
100
AcDbEntity
  8
0
100
AcDbLine
 62
7
  6
CONTINUOUS
 10
85.1062661688
 20
218.2709717607
 11
85.3000162057
 21
218.1522483602
  0
LINE
  5
287
100
AcDbEntity
  8
0
100
AcDbLine
 62
7
  6
CONTINUOUS
 10
85.9587662427
 20
219.8143760399
 11
85.7650162057
 21
219.93309943
  0
LINE
  5
288
100
AcDbEntity
  8
0
100
AcDbLine
 62
7
  6
CONTINUOUS
 10
85.3387661688
 20
218.3501207013
 11
85.2225161688
 21
218.429269628
  0
LINE
  5
289
100
AcDbEntity
  8
0
100
AcDbLine
 62
7
  6
CONTINUOUS
 10
85.8425161318
 20
219.6560781864
 11
85.7262661318
 21
219.7352271131
  0
LINE
  5
28A
100
AcDbEntity
  8
0
100
AcDbLine
 62
7
  6
CONTINUOUS
 10
86.2187078264
 20
225.7996265777
 11
86.2076722151
 21
225.8113739976
  0
LINE
  5
28B
100
AcDbEntity
  8
BEZUGSACHSEN
100
AcDbLine
 62
2
  6
CENTER
 10
104.9500161688
 20
166.6910656294
 11
104.9500161688
 21
259.3163520653
  0
LINE
  5
28C
100
AcDbEntity
  8
KONSTRUKTIONSELEMENTE
100
AcDbLine
 62
7
  6
CONTINUOUS
 10
117.6428466789
 20
203.0204821272
 11
144.3646944275
 21
191.7535902353
  0
LINE
  5
28D
100
AcDbEntity
  8
0
100
AcDbLine
 62
7
  6
CONTINUOUS
 10
125.3926713394
 20
216.0442996973
 11
125.7236415003
 21
216.1294060701
  0
LINE
  5
28E
100
AcDbEntity
  8
0
100
AcDbLine
 62
7
  6
CONTINUOUS
 10
85.5325162057
 20
218.3105462379
 11
85.3387661688
 21
218.3501207013
  0
LINE
  5
28F
100
AcDbEntity
  8
0
100
AcDbLine
 62
7
  6
CONTINUOUS
 10
125.4588652958
 20
216.5549379343
 11
125.6574473545
 21
216.6400443071
  0
LINE
  5
290
100
AcDbEntity
  8
0
100
AcDbLine
 62
7
  6
CONTINUOUS
 10
123.8040148699
 20
214.2570656294
 11
124.2011789873
 21
214.2570656294
  0
LINE
  5
291
100
AcDbEntity
  8
0
100
AcDbLine
 62
7
  6
CONTINUOUS
 10
124.2011789873
 20
216.0442996973
 11
125.3926713394
 21
216.0442996973
  0
LINE
  5
292
100
AcDbEntity
  8
0
100
AcDbLine
 62
7
  6
CONTINUOUS
 10
125.4588652958
 20
216.5549379343
 11
124.2011789873
 21
216.5549379343
  0
LINE
  5
293
100
AcDbEntity
  8
0
100
AcDbLine
 62
7
  6
CONTINUOUS
 10
85.5325162057
 20
218.1126738933
 11
85.3000162057
 21
218.1522483602
  0
LINE
  5
294
100
AcDbEntity
  8
0
100
AcDbLine
 62
7
  6
CONTINUOUS
 10
85.7650162057
 20
219.93309943
 11
85.5325162057
 21
219.9726738933
  0
LINE
  5
295
100
AcDbEntity
  8
0
100
AcDbLine
 62
7
  6
CONTINUOUS
 10
85.7262661318
 20
219.7352271131
 11
85.5325162057
 21
219.7748015765
  0
LINE
  5
296
100
AcDbEntity
  8
KONSTRUKTIONSELEMENTE
100
AcDbLine
 62
7
  6
CONTINUOUS
 10
126.3841615652
 20
179.6910656294
 11
129.0944421189
 21
171.5173641928
  0
LINE
  5
297
100
AcDbEntity
  8
KONSTRUKTIONSELEMENTE
100
AcDbLine
 62
7
  6
CONTINUOUS
 10
118.4449579959
 20
183.9820087028
 11
117.9500161688
 21
188.6910656294
  0
LINE
  5
298
100
AcDbEntity
  8
AUSFORMSCHRAEGEN
100
AcDbLine
 62
7
  6
CONTINUOUS
 10
118.4449579959
 20
183.9820087028
 11
117.9500161688
 21
188.6910656294
  0
LINE
  5
299
100
AcDbEntity
  8
KONSTRUKTIONSELEMENTE
100
AcDbLine
 62
7
  6
CONTINUOUS
 10
117.6500161688
 20
177.0798093859
 11
117.6500161688
 21
182.1910656294
  0
LINE
  5
29A
100
AcDbEntity
  8
0
100
AcDbLine
 62
7
  6
CONTINUOUS
 10
124.2011789873
 20
217.8315337652
 11
125.4588652958
 21
217.8315337652
  0
LINE
  5
29B
100
AcDbEntity
  8
0
100
AcDbLine
 62
7
  6
CONTINUOUS
 10
84.5250161688
 20
218.1126738933
 11
84.2925161688
 21
218.1126738933
  0
LINE
  5
29C
100
AcDbEntity
  8
0
100
AcDbLine
 62
7
  6
CONTINUOUS
 10
125.3926713394
 20
218.2570656294
 11
123.8040148699
 21
218.2570656294
  0
LINE
  5
29D
100
AcDbEntity
  8
0
100
AcDbLine
 62
7
  6
CONTINUOUS
 10
124.6340148699
 20
219.1870656294
 11
125.1340148699
 21
219.1870656294
  0
LINE
  5
29E
100
AcDbEntity
  8
0
100
AcDbLine
 62
7
  6
CONTINUOUS
 10
84.5250161688
 20
219.9726738933
 11
84.2925161688
 21
219.9726738933
  0
LINE
  5
29F
100
AcDbEntity
  8
KONSTRUKTIONSELEMENTE
100
AcDbLine
 62
7
  6
CONTINUOUS
 10
119.9753026048
 20
206.1910656294
 11
119.9753026048
 21
231.6910656294
  0
LINE
  5
2A0
100
AcDbEntity
  8
KONSTRUKTIONSELEMENTE
100
AcDbLine
 62
7
  6
CONTINUOUS
 10
117.9500161688
 20
188.6910656294
 11
118.4449579959
 21
193.4001225559
  0
LINE
  5
2A1
100
AcDbEntity
  8
0
100
AcDbLine
 62
7
  6
CONTINUOUS
 10
125.2040148699
 20
223.9710656294
 11
126.5373481238
 21
227.9710656294
  0
LINE
  5
2A2
100
AcDbEntity
  8
0
100
AcDbLine
 62
7
  6
CONTINUOUS
 10
124.8706814969
 20
224.481703926
 11
126.0373481238
 21
227.9710656294
  0
LINE
  5
2A3
100
AcDbEntity
  8
0
100
AcDbLine
 62
7
  6
CONTINUOUS
 10
125.9884175154
 20
216.3847251886
 11
126.1869995741
 21
216.72515068
  0
LINE
  5
2A4
100
AcDbEntity
  8
0
100
AcDbLine
 62
7
  6
CONTINUOUS
 10
125.6574473545
 20
216.6400443071
 11
125.7898354568
 21
216.8102570528
  0
LINE
  5
2A5
100
AcDbEntity
  8
0
100
AcDbLine
 62
7
  6
CONTINUOUS
 10
125.7236415003
 20
216.1294060701
 11
125.9884175154
 21
216.3847251886
  0
LWPOLYLINE
  5
2A6
100
AcDbEntity
  8
KONSTRUKTIONSELEMENTE
100
AcDbPolyline
 62
7
  6
CONTINUOUS
 90
7
 70
0
 10
94.6073816184
 20
195.4236712227
 10
94.5317479123
 20
195.3882398697
 10
94.3303673315
 20
195.3095644188
 10
94.1235971777
 20
195.2506279213
 10
93.9132159109
 20
195.2116814315
 10
93.7009562107
 20
195.1929292179
 10
93.6134090669
 20
195.1910943558
  0
LINE
  5
2A7
100
AcDbEntity
  8
KONSTRUKTIONSELEMENTE
100
AcDbLine
 62
7
  6
CONTINUOUS
 10
94.607382021
 20
195.4236718356
 11
94.5215578925
 21
195.3837217982
  0
LINE
  5
2A8
100
AcDbEntity
  8
KONSTRUKTIONSELEMENTE
100
AcDbLine
 62
7
  6
CONTINUOUS
 10
94.5215578925
 20
195.3837217982
 11
94.3197379656
 21
195.3060131201
  0
LINE
  5
2A9
100
AcDbEntity
  8
0
100
AcDbLine
 62
7
  6
CONTINUOUS
 10
85.7262661318
 20
218.3501207013
 11
85.5325162057
 21
218.3105462379
  0
LINE
  5
2AA
100
AcDbEntity
  8
0
100
AcDbLine
 62
7
  6
CONTINUOUS
 10
85.7650162057
 20
218.1522483602
 11
85.5325162057
 21
218.1126738933
  0
LINE
  5
2AB
100
AcDbEntity
  8
0
100
AcDbLine
 62
7
  6
CONTINUOUS
 10
85.5325162057
 20
219.9726738933
 11
85.3000162057
 21
219.93309943
  0
LINE
  5
2AC
100
AcDbEntity
  8
0
100
AcDbLine
 62
7
  6
CONTINUOUS
 10
85.0125161688
 20
222.2210656294
 11
85.3250161688
 21
222.2210656294
  0
LINE
  5
2AD
100
AcDbEntity
  8
0
100
AcDbLine
 62
7
  6
CONTINUOUS
 10
125.1340148699
 20
223.1870656294
 11
124.6340148699
 21
223.1870656294
  0
LINE
  5
2AE
100
AcDbEntity
  8
0
100
AcDbLine
 62
7
  6
CONTINUOUS
 10
124.537348243
 20
223.9710656294
 11
125.2040148699
 21
223.9710656294
  0
LINE
  5
2AF
100
AcDbEntity
  8
0
100
AcDbLine
 62
7
  6
CONTINUOUS
 10
125.3926713394
 20
218.2570656294
 11
125.7236415003
 21
218.1719592565
  0
LINE
  5
2B0
100
AcDbEntity
  8
0
100
AcDbLine
 62
7
  6
CONTINUOUS
 10
125.4588652958
 20
217.8315337652
 11
125.6574473545
 21
217.7464273924
  0
LINE
  5
2B1
100
AcDbEntity
  8
KONSTRUKTIONSELEMENTE
100
AcDbLine
 62
7
  6
CONTINUOUS
 10
126.4500161688
 20
188.6910656294
 11
125.9550743417
 21
193.4001225559
  0
LINE
  5
2B2
100
AcDbEntity
  8
0
100
AcDbLine
 62
7
  6
CONTINUOUS
 10
123.8040148699
 20
214.2570656294
 11
123.8040148699
 21
218.2570656294
  0
LINE
  5
2B3
100
AcDbEntity
  8
0
100
AcDbLine
 62
7
  6
CONTINUOUS
 10
124.2011789873
 20
214.2570656294
 11
124.2011789873
 21
216.0442996973
  0
LINE
  5
2B4
100
AcDbEntity
  8
0
100
AcDbLine
 62
7
  6
CONTINUOUS
 10
124.2011789873
 20
216.5549379343
 11
124.2011789873
 21
217.8315337652
  0
LINE
  5
2B5
100
AcDbEntity
  8
0
100
AcDbLine
 62
7
  6
CONTINUOUS
 10
124.6340148699
 20
219.1870656294
 11
124.6340148699
 21
223.1870656294
  0
LINE
  5
2B6
100
AcDbEntity
  8
0
100
AcDbLine
 62
7
  6
CONTINUOUS
 10
125.1340148699
 20
219.1870656294
 11
125.1340148699
 21
223.1870656294
  0
LINE
  5
2B7
100
AcDbEntity
  8
0
100
AcDbLine
 62
7
  6
CONTINUOUS
 10
125.8560294132
 20
217.0655761713
 11
125.8560294132
 21
217.3208955282
  0
LINE
  5
2B8
100
AcDbEntity
  8
0
100
AcDbLine
 62
7
  6
CONTINUOUS
 10
126.2531935306
 20
216.9804697985
 11
126.2531935306
 21
217.3208955282
  0
LINE
  5
2B9
100
AcDbEntity
  8
0
100
AcDbLine
 62
7
  6
CONTINUOUS
 10
125.7898354568
 20
216.8102570528
 11
125.8560294132
 21
217.0655761713
  0
LINE
  5
2BA
100
AcDbEntity
  8
0
100
AcDbLine
 62
7
  6
CONTINUOUS
 10
126.1869995741
 20
216.72515068
 11
126.2531935306
 21
216.9804697985
  0
LWPOLYLINE
  5
2BB
100
AcDbEntity
  8
KONSTRUKTIONSELEMENTE
100
AcDbPolyline
 62
7
  6
CONTINUOUS
 90
4
 70
0
 10
108.6073823821
 20
195.4236716534
 10
108.531748027
 20
195.3882401016
 10
108.330366325
 20
195.3095644944
 10
108.1235949766
 20
195.250627803
  0
LINE
  5
2BC
100
AcDbEntity
  8
KONSTRUKTIONSELEMENTE
100
AcDbLine
 62
7
  6
CONTINUOUS
 10
108.6073816246
 20
195.4236715583
 11
108.5287420693
 21
195.387065737
  0
LINE
  5
2BD
100
AcDbEntity
  8
0
100
AcDbLine
 62
7
  6
CONTINUOUS
 10
85.5325162057
 20
219.7748015765
 11
85.3387661688
 21
219.7352271131
  0
LINE
  5
2BE
100
AcDbEntity
  8
0
100
AcDbLine
 62
7
  6
CONTINUOUS
 10
85.3250161688
 20
224.7210656294
 11
85.0125161688
 21
224.7210656294
  0
LINE
  5
2BF
100
AcDbEntity
  8
0
100
AcDbLine
 62
7
  6
CONTINUOUS
 10
123.2040148699
 20
227.9710656294
 11
123.7040148699
 21
227.9710656294
  0
LINE
  5
2C0
100
AcDbEntity
  8
0
100
AcDbLine
 62
7
  6
CONTINUOUS
 10
126.0373481238
 20
227.9710656294
 11
126.5373481238
 21
227.9710656294
  0
LINE
  5
2C1
100
AcDbEntity
  8
0
100
AcDbLine
 62
7
  6
CONTINUOUS
 10
125.7236415003
 20
218.1719592565
 11
125.9884175154
 21
217.916640138
  0
LINE
  5
2C2
100
AcDbEntity
  8
0
100
AcDbLine
 62
7
  6
CONTINUOUS
 10
125.6574473545
 20
217.7464273924
 11
125.7898354568
 21
217.5762146467
  0
LINE
  5
2C3
100
AcDbEntity
  8
KONSTRUKTIONSELEMENTE
100
AcDbLine
 62
7
  6
CONTINUOUS
 10
127.2500161688
 20
177.0798093859
 11
127.2500161688
 21
182.1910656294
  0
LINE
  5
2C4
100
AcDbEntity
  8
KONSTRUKTIONSELEMENTE
100
AcDbLine
 62
7
  6
CONTINUOUS
 10
129.5753026048
 20
206.1910656294
 11
129.5753026048
 21
231.6910656294
  0
LINE
  5
2C5
100
AcDbEntity
  8
KONSTRUKTIONSELEMENTE
100
AcDbLine
 62
7
  6
CONTINUOUS
 10
125.9550743417
 20
183.9820087028
 11
126.4500161688
 21
188.6910656294
  0
LINE
  5
2C6
100
AcDbEntity
  8
KONSTRUKTIONSELEMENTE
100
AcDbLine
 62
7
  6
CONTINUOUS
 10
115.8055902187
 20
171.5173641928
 11
118.5158707724
 21
179.6910656294
  0
LWPOLYLINE
  5
2C7
100
AcDbEntity
  8
KONSTRUKTIONSELEMENTE
100
AcDbPolyline
 62
7
  6
CONTINUOUS
 90
3
 70
0
 10
109.7990174782
 20
195.8885662509
 10
109.1146064328
 20
195.6500236204
 10
108.6074027347
 20
195.4236441086
  0
LINE
  5
2C8
100
AcDbEntity
  8
0
100
AcDbLine
 62
7
  6
CONTINUOUS
 10
125.9884175154
 20
217.916640138
 11
126.1869995741
 21
217.5762146467
  0
LINE
  5
2C9
100
AcDbEntity
  8
0
100
AcDbLine
 62
7
  6
CONTINUOUS
 10
124.8706814969
 20
224.481703926
 11
123.7040148699
 21
227.9710656294
  0
LINE
  5
2CA
100
AcDbEntity
  8
0
100
AcDbLine
 62
7
  6
CONTINUOUS
 10
123.2040148699
 20
227.9710656294
 11
124.537348243
 21
223.9710656294
  0
LINE
  5
2CB
100
AcDbEntity
  8
0
100
AcDbLine
 62
7
  6
CONTINUOUS
 10
125.7898354568
 20
217.5762146467
 11
125.8560294132
 21
217.3208955282
  0
LINE
  5
2CC
100
AcDbEntity
  8
0
100
AcDbLine
 62
7
  6
CONTINUOUS
 10
126.1869995741
 20
217.5762146467
 11
126.2531935306
 21
217.3208955282
  0
LINE
  5
2CD
100
AcDbEntity
  8
KONSTRUKTIONSELEMENTE
100
AcDbLine
 62
7
  6
CONTINUOUS
 10
133.4500161688
 20
188.6910656294
 11
133.0845012121
 21
192.1687081411
  0
LINE
  5
2CE
100
AcDbEntity
  8
KONSTRUKTIONSELEMENTE
100
AcDbLine
 62
7
  6
CONTINUOUS
 10
132.9550743417
 20
183.9820087028
 11
133.4500161688
 21
188.6910656294
  0
LWPOLYLINE
  5
2CF
100
AcDbEntity
  8
KONSTRUKTIONSELEMENTE
100
AcDbPolyline
 62
7
  6
CONTINUOUS
 90
3
 70
0
 10
101.2926507803
 20
181.9584600571
 10
101.3682845046
 20
181.9938914224
 10
101.5696650829
 20
182.0725668744
  0
LINE
  5
2D0
100
AcDbEntity
  8
KONSTRUKTIONSELEMENTE
100
AcDbLine
 62
7
  6
CONTINUOUS
 10
101.2926502075
 20
181.9584594472
 11
101.378474264
 21
181.9984094629
  0
LINE
  5
2D1
100
AcDbEntity
  8
KONSTRUKTIONSELEMENTE
100
AcDbLine
 62
7
  6
CONTINUOUS
 10
101.378474264
 20
181.9984094629
 11
101.5802940371
 21
182.0761181005
  0
LWPOLYLINE
  5
2D2
100
AcDbEntity
  8
KONSTRUKTIONSELEMENTE
100
AcDbPolyline
 62
7
  6
CONTINUOUS
 90
3
 70
0
 10
100.7795011403
 20
181.7300342502
 10
100.7853031104
 20
181.7320562705
 10
101.2926281394
 20
181.9584887992
  0
LWPOLYLINE
  5
2D3
100
AcDbEntity
  8
KONSTRUKTIONSELEMENTE
100
AcDbPolyline
 62
7
  6
CONTINUOUS
 90
7
 70
0
 10
115.2926499465
 20
181.9584595581
 10
115.3682837233
 20
181.9938908445
 10
115.5696648518
 20
182.072566321
 10
115.7764355756
 20
182.1315030029
 10
115.9868175479
 20
182.1704498702
 10
116.1990782634
 20
182.1892026331
 10
116.2866141834
 20
182.1910377327
  0
LINE
  5
2D4
100
AcDbEntity
  8
KONSTRUKTIONSELEMENTE
100
AcDbLine
 62
7
  6
CONTINUOUS
 10
115.2926508375
 20
181.9584597117
 11
115.3712897544
 21
181.9950652392
  0
LWPOLYLINE
  5
2D5
100
AcDbEntity
  8
KONSTRUKTIONSELEMENTE
100
AcDbPolyline
 62
7
  6
CONTINUOUS
 90
5
 70
0
 10
101.5696650829
 20
182.0725668744
 10
101.7764352292
 20
182.1315033606
 10
101.986816481
 20
182.1704498349
 10
102.1990761501
 20
182.1892020372
 10
102.2866228847
 20
182.191036897
  0
LINE
  5
2D6
100
AcDbEntity
  8
KONSTRUKTIONSELEMENTE
100
AcDbLine
 62
7
  6
CONTINUOUS
 10
292.6271299929
 20
169.6910656294
 11
298.1271299929
 21
169.6910656294
  0
LINE
  5
2D7
100
AcDbEntity
  8
AUSFORMSCHRAEGEN
100
AcDbLine
 62
7
  6
CONTINUOUS
 10
255.8720718492
 20
183.9820084246
 11
255.3771299929
 21
188.6910656294
  0
LINE
  5
2D8
100
AcDbEntity
  8
KONSTRUKTIONSELEMENTE
100
AcDbLine
 62
7
  6
CONTINUOUS
 10
292.6271299929
 20
171.5173641928
 11
298.1271299929
 21
171.5173641928
  0
LINE
  5
2D9
100
AcDbEntity
  8
AUSFORMSCHRAEGEN
100
AcDbLine
 62
7
  6
CONTINUOUS
 10
255.3771299929
 20
188.6910656294
 11
255.8720718492
 21
193.4001228342
  0
LINE
  5
2DA
100
AcDbEntity
  8
KONSTRUKTIONSELEMENTE
100
AcDbLine
 62
7
  6
CONTINUOUS
 10
262.7604319679
 20
183.9820087028
 11
262.6952716402
 21
188.6910656294
  0
LINE
  5
2DB
100
AcDbEntity
  8
KONSTRUKTIONSELEMENTE
100
AcDbLine
 62
7
  6
CONTINUOUS
 10
262.6952716402
 20
188.6910656294
 11
262.7604319679
 21
193.4001225559
  0
LINE
  5
2DC
100
AcDbEntity
  8
KONSTRUKTIONSELEMENTE
100
AcDbLine
 62
7
  6
CONTINUOUS
 10
300.3937963814
 20
181.6910656294
 11
300.1771299929
 21
181.6910656294
  0
LINE
  5
2DD
100
AcDbEntity
  8
KONSTRUKTIONSELEMENTE
100
AcDbLine
 62
7
  6
CONTINUOUS
 10
290.5771299929
 20
181.6910656294
 11
290.4771299929
 21
181.6910656294
  0
LINE
  5
2DE
100
AcDbEntity
  8
KONSTRUKTIONSELEMENTE
100
AcDbLine
 62
7
  6
CONTINUOUS
 10
273.8160330507
 20
181.7293308102
 11
273.9393955564
 21
181.7513090899
  0
LINE
  5
2DF
100
AcDbEntity
  8
KONSTRUKTIONSELEMENTE
100
AcDbLine
 62
7
  6
CONTINUOUS
 10
273.9289688758
 20
181.749467101
 11
274.0608008857
 21
181.7725378528
  0
LINE
  5
2E0
100
AcDbEntity
  8
KONSTRUKTIONSELEMENTE
100
AcDbLine
 62
7
  6
CONTINUOUS
 10
274.0462782279
 20
181.77001868
 11
274.1870332937
 21
181.7941909231
  0
LINE
  5
2E1
100
AcDbEntity
  8
KONSTRUKTIONSELEMENTE
100
AcDbLine
 62
7
  6
CONTINUOUS
 10
274.1681454138
 20
181.790978749
 11
274.2946451811
 21
181.8123201097
  0
LINE
  5
2E2
100
AcDbEntity
  8
KONSTRUKTIONSELEMENTE
100
AcDbLine
 62
7
  6
CONTINUOUS
 10
274.2519924424
 20
181.8051707035
 11
274.3855267441
 21
181.8273968737
  0
LINE
  5
2E3
100
AcDbEntity
  8
KONSTRUKTIONSELEMENTE
100
AcDbLine
 62
7
  6
CONTINUOUS
 10
274.3596154283
 20
181.8231195047
 11
274.4928833145
 21
181.8449284148
  0
LINE
  5
2E4
100
AcDbEntity
  8
KONSTRUKTIONSELEMENTE
100
AcDbLine
 62
7
  6
CONTINUOUS
 10
274.4540626353
 20
181.8386231453
 11
274.5945471487
 21
181.861253082
  0
LINE
  5
2E5
100
AcDbEntity
  8
KONSTRUKTIONSELEMENTE
100
AcDbLine
 62
7
  6
CONTINUOUS
 10
274.5611337312
 20
181.8559178119
 11
274.7007524806
 21
181.8780229719
  0
LINE
  5
2E6
100
AcDbEntity
  8
KONSTRUKTIONSELEMENTE
100
AcDbLine
 62
7
  6
CONTINUOUS
 10
274.6664466506
 20
181.8726380985
 11
274.8134347151
 21
181.8954965963
  0
LINE
  5
2E7
100
AcDbEntity
  8
KONSTRUKTIONSELEMENTE
100
AcDbLine
 62
7
  6
CONTINUOUS
 10
274.7720740587
 20
181.889120736
 11
274.9176224026
 21
181.911357124
  0
LINE
  5
2E8
100
AcDbEntity
  8
KONSTRUKTIONSELEMENTE
100
AcDbLine
 62
7
  6
CONTINUOUS
 10
274.8884727676
 20
181.9069478454
 11
275.041511347
 21
181.9298451616
  0
LINE
  5
2E9
100
AcDbEntity
  8
KONSTRUKTIONSELEMENTE
100
AcDbLine
 62
7
  6
CONTINUOUS
 10
274.9918015592
 20
181.9224757279
 11
275.1428499633
 21
181.9446688305
  0
LINE
  5
2EA
100
AcDbEntity
  8
KONSTRUKTIONSELEMENTE
100
AcDbLine
 62
7
  6
CONTINUOUS
 10
275.1194607774
 20
181.9412716297
 11
275.2196705986
 21
181.9557245362
  0
LINE
  5
2EB
100
AcDbEntity
  8
KONSTRUKTIONSELEMENTE
100
AcDbLine
 62
7
  6
CONTINUOUS
 10
275.1983290992
 20
181.9526692737
 11
275.2973227053
 21
181.9667395937
  0
LINE
  5
2EC
100
AcDbEntity
  8
KONSTRUKTIONSELEMENTE
100
AcDbLine
 62
7
  6
CONTINUOUS
 10
275.2780901776
 20
181.9640267707
 11
275.3757812163
 21
181.9777033324
  0
LINE
  5
2ED
100
AcDbEntity
  8
KONSTRUKTIONSELEMENTE
100
AcDbLine
 62
7
  6
CONTINUOUS
 10
275.3587174715
 20
181.9753327036
 11
275.4550209877
 21
181.9886061631
  0
LINE
  5
2EE
100
AcDbEntity
  8
KONSTRUKTIONSELEMENTE
100
AcDbLine
 62
7
  6
CONTINUOUS
 10
275.4401844397
 20
181.9865772223
 11
275.5350166821
 21
181.999439041
  0
LINE
  5
2EF
100
AcDbEntity
  8
KONSTRUKTIONSELEMENTE
100
AcDbLine
 62
7
  6
CONTINUOUS
 10
275.5224641482
 20
181.9977504205
 11
275.6157428155
 21
182.0101924989
  0
LINE
  5
2F0
100
AcDbEntity
  8
KONSTRUKTIONSELEMENTE
100
AcDbLine
 62
7
  6
CONTINUOUS
 10
272.2594761194
 20
181.3904135482
 11
272.2774213698
 21
181.3927912596
  0
LINE
  5
2F1
100
AcDbEntity
  8
KONSTRUKTIONSELEMENTE
100
AcDbLine
 62
7
  6
CONTINUOUS
 10
275.6055295261
 20
182.0088418855
 11
275.6971735726
 21
182.0208565613
  0
LWPOLYLINE
  5
2F2
100
AcDbEntity
  8
KONSTRUKTIONSELEMENTE
100
AcDbPolyline
 62
7
  6
CONTINUOUS
 90
4
 70
0
 10
275.6893531821
 20
182.0198406164
 10
275.7792829701
 20
182.0314207195
 10
275.8620447277
 20
182.0418742006
 10
275.9454319298
 20
182.0522076052
  0
LWPOLYLINE
  5
2F3
100
AcDbEntity
  8
KONSTRUKTIONSELEMENTE
100
AcDbPolyline
 62
7
  6
CONTINUOUS
 90
4
 70
0
 10
275.7739075164
 20
182.0307349853
 10
275.8591645261
 20
182.0415134189
 10
275.9450955208
 20
182.0521659684
 10
276.031671324
 20
182.062682547
  0
LINE
  5
2F4
100
AcDbEntity
  8
KONSTRUKTIONSELEMENTE
100
AcDbLine
 62
7
  6
CONTINUOUS
 10
272.2587284068
 20
181.3903248753
 11
272.2588690776
 21
181.3903418058
  0
LINE
  5
2F5
100
AcDbEntity
  8
KONSTRUKTIONSELEMENTE
100
AcDbLine
 62
7
  6
CONTINUOUS
 10
276.0294171581
 20
182.0624117573
 11
276.1188625609
 21
182.0730524741
  0
LINE
  5
2F6
100
AcDbEntity
  8
KONSTRUKTIONSELEMENTE
100
AcDbLine
 62
7
  6
CONTINUOUS
 10
272.265893966
 20
181.3911540522
 11
270.5351550329
 21
181.190837046
  0
LINE
  5
2F7
100
AcDbEntity
  8
KONSTRUKTIONSELEMENTE
100
AcDbLine
 62
7
  6
CONTINUOUS
 10
276.1139728159
 20
182.0724769709
 11
276.2250222856
 21
182.08537373
  0
LINE
  5
2F8
100
AcDbEntity
  8
KONSTRUKTIONSELEMENTE
100
AcDbLine
 62
7
  6
CONTINUOUS
 10
276.2250231593
 20
182.0853671136
 11
276.3183368892
 21
182.09569666
  0
LWPOLYLINE
  5
2F9
100
AcDbEntity
  8
KONSTRUKTIONSELEMENTE
100
AcDbPolyline
 62
7
  6
CONTINUOUS
 90
3
 70
0
 10
276.3183368892
 20
182.09569666
 10
276.4426599619
 20
182.1084118609
 10
276.5646121038
 20
182.1197715398
  0
LINE
  5
2FA
100
AcDbEntity
  8
KONSTRUKTIONSELEMENTE
100
AcDbLine
 62
7
  6
CONTINUOUS
 10
276.5646121038
 20
182.1197715398
 11
276.6509235024
 21
182.1271734641
  0
LINE
  5
2FB
100
AcDbEntity
  8
KONSTRUKTIONSELEMENTE
100
AcDbLine
 62
7
  6
CONTINUOUS
 10
276.650924223
 20
182.1271814296
 11
276.7997130346
 21
182.1390291696
  0
LWPOLYLINE
  5
2FC
100
AcDbEntity
  8
KONSTRUKTIONSELEMENTE
100
AcDbPolyline
 62
7
  6
CONTINUOUS
 90
6
 70
0
 10
276.7997130346
 20
182.1390291696
 10
277.0954234183
 20
182.1596438297
 10
277.3784131317
 20
182.1751909803
 10
277.6486696831
 20
182.1855599392
 10
277.9061847869
 20
182.1905329493
 10
278.0074695769
 20
182.1909796318
  0
LINE
  5
2FD
100
AcDbEntity
  8
KONSTRUKTIONSELEMENTE
100
AcDbLine
 62
7
  6
CONTINUOUS
 10
332.8930513414
 20
182.1910656294
 11
257.8612087528
 21
182.1910656294
  0
LINE
  5
2FE
100
AcDbEntity
  8
KONSTRUKTIONSELEMENTE
100
AcDbLine
 62
7
  6
CONTINUOUS
 10
312.7461649208
 20
182.1910667715
 11
312.8344807386
 21
182.1907153942
  0
LINE
  5
2FF
100
AcDbEntity
  8
KONSTRUKTIONSELEMENTE
100
AcDbLine
 62
7
  6
CONTINUOUS
 10
312.8344807386
 20
182.1907153942
 11
313.1055903027
 21
182.1855599392
  0
LINE
  5
300
100
AcDbEntity
  8
KONSTRUKTIONSELEMENTE
100
AcDbLine
 62
7
  6
CONTINUOUS
 10
313.092095815
 20
182.1859669067
 11
313.3758468541
 21
182.1751909803
  0
LINE
  5
301
100
AcDbEntity
  8
KONSTRUKTIONSELEMENTE
100
AcDbLine
 62
7
  6
CONTINUOUS
 10
313.3624308815
 20
182.1758276184
 11
313.6588365675
 21
182.1596438297
  0
LINE
  5
302
100
AcDbEntity
  8
KONSTRUKTIONSELEMENTE
100
AcDbLine
 62
7
  6
CONTINUOUS
 10
313.6454758522
 20
182.1604752857
 11
313.950826864
 21
182.1392885055
  0
LINE
  5
303
100
AcDbEntity
  8
KONSTRUKTIONSELEMENTE
100
AcDbLine
 62
7
  6
CONTINUOUS
 10
313.9412553978
 20
182.1400480187
 11
314.1033276784
 21
182.1271872895
  0
LINE
  5
304
100
AcDbEntity
  8
KONSTRUKTIONSELEMENTE
100
AcDbLine
 62
7
  6
CONTINUOUS
 10
314.1033289228
 20
182.1271855405
 11
314.1834038905
 21
182.1203070143
  0
LINE
  5
305
100
AcDbEntity
  8
KONSTRUKTIONSELEMENTE
100
AcDbLine
 62
7
  6
CONTINUOUS
 10
314.1760306877
 20
182.1209866056
 11
314.3116000239
 21
182.1084118609
  0
LINE
  5
306
100
AcDbEntity
  8
KONSTRUKTIONSELEMENTE
100
AcDbLine
 62
7
  6
CONTINUOUS
 10
314.2980124473
 20
182.1097434925
 11
314.4308663314
 21
182.096213843
  0
LINE
  5
307
100
AcDbEntity
  8
KONSTRUKTIONSELEMENTE
100
AcDbLine
 62
7
  6
CONTINUOUS
 10
314.4223967351
 20
182.0971472249
 11
314.5293140475
 21
182.0853645281
  0
LINE
  5
308
100
AcDbEntity
  8
KONSTRUKTIONSELEMENTE
100
AcDbLine
 62
7
  6
CONTINUOUS
 10
320.2191049676
 20
181.1908370443
 11
318.4883659432
 21
181.3911540611
  0
LINE
  5
309
100
AcDbEntity
  8
KONSTRUKTIONSELEMENTE
100
AcDbLine
 62
7
  6
CONTINUOUS
 10
314.5293142057
 20
182.0853649799
 11
314.6743487141
 21
182.0684475193
  0
LWPOLYLINE
  5
30A
100
AcDbEntity
  8
KONSTRUKTIONSELEMENTE
100
AcDbPolyline
 62
7
  6
CONTINUOUS
 90
19
 70
0
 10
314.6743487141
 20
182.0684475193
 10
314.7741357825
 20
182.0564472078
 10
314.8730880359
 20
182.0442618356
 10
314.9711612321
 20
182.0319069686
 10
315.0683116035
 20
182.0193976931
 10
315.1644966412
 20
182.0067513172
 10
315.2596744982
 20
181.9939853552
 10
315.3538038172
 20
181.9811162347
 10
315.4468435235
 20
181.9681594307
 10
315.5387532086
 20
181.9551297229
 10
315.6294925168
 20
181.9420437034
 10
315.7190217614
 20
181.928918649
 10
315.8073014424
 20
181.9157707551
 10
315.8942929324
 20
181.9026151174
 10
315.9799577067
 20
181.8894660343
 10
316.0642576156
 20
181.8763390647
 10
316.1471545051
 20
181.8632512452
 10
316.2286102465
 20
181.8502184827
 10
316.3085868137
 20
181.8372555444
  0
LINE
  5
30B
100
AcDbEntity
  8
KONSTRUKTIONSELEMENTE
100
AcDbLine
 62
7
  6
CONTINUOUS
 10
318.4953908876
 20
181.3903418082
 11
318.4955185271
 21
181.3903264258
  0
LINE
  5
30C
100
AcDbEntity
  8
KONSTRUKTIONSELEMENTE
100
AcDbLine
 62
7
  6
CONTINUOUS
 10
318.4768386085
 20
181.3927912607
 11
318.4947838668
 21
181.3904135482
  0
LINE
  5
30D
100
AcDbEntity
  8
KONSTRUKTIONSELEMENTE
100
AcDbLine
 62
7
  6
CONTINUOUS
 10
316.3085868137
 20
181.8372555444
 11
316.4639530916
 21
181.8115954388
  0
LINE
  5
30E
100
AcDbEntity
  8
KONSTRUKTIONSELEMENTE
100
AcDbLine
 62
7
  6
CONTINUOUS
 10
316.4639530916
 20
181.8115954388
 11
316.6129727182
 21
181.7863925862
  0
LINE
  5
30F
100
AcDbEntity
  8
KONSTRUKTIONSELEMENTE
100
AcDbLine
 62
7
  6
CONTINUOUS
 10
316.6129727182
 20
181.7863925862
 11
316.7555582583
 21
181.7617291369
  0
LINE
  5
310
100
AcDbEntity
  8
KONSTRUKTIONSELEMENTE
100
AcDbLine
 62
7
  6
CONTINUOUS
 10
316.7555582583
 20
181.7617291369
 11
316.8918788362
 21
181.7376360752
  0
LINE
  5
311
100
AcDbEntity
  8
KONSTRUKTIONSELEMENTE
100
AcDbLine
 62
7
  6
CONTINUOUS
 10
272.4823638814
 20
181.4535679268
 11
272.5024773257
 21
181.4591234088
  0
LINE
  5
312
100
AcDbEntity
  8
KONSTRUKTIONSELEMENTE
100
AcDbLine
 62
7
  6
CONTINUOUS
 10
272.4985028624
 20
181.4580523193
 11
272.5235140598
 21
181.4646837402
  0
LINE
  5
313
100
AcDbEntity
  8
KONSTRUKTIONSELEMENTE
100
AcDbLine
 62
7
  6
CONTINUOUS
 10
272.5182138664
 20
181.4633045699
 11
272.5476254633
 21
181.4708613457
  0
LINE
  5
314
100
AcDbEntity
  8
KONSTRUKTIONSELEMENTE
100
AcDbLine
 62
7
  6
CONTINUOUS
 10
272.5410372536
 20
181.4691895629
 11
272.5743833249
 21
181.4775409358
  0
LINE
  5
315
100
AcDbEntity
  8
KONSTRUKTIONSELEMENTE
100
AcDbLine
 62
7
  6
CONTINUOUS
 10
272.3169672985
 20
181.4000897844
 11
272.3544803257
 21
181.4095098831
  0
LINE
  5
316
100
AcDbEntity
  8
KONSTRUKTIONSELEMENTE
100
AcDbLine
 62
7
  6
CONTINUOUS
 10
272.566533492
 20
181.4755919725
 11
272.5941553
 21
181.4823706334
  0
LINE
  5
317
100
AcDbEntity
  8
KONSTRUKTIONSELEMENTE
100
AcDbLine
 62
7
  6
CONTINUOUS
 10
272.5941553
 20
181.4823706334
 11
272.6339843377
 21
181.491891499
  0
LINE
  5
318
100
AcDbEntity
  8
KONSTRUKTIONSELEMENTE
100
AcDbLine
 62
7
  6
CONTINUOUS
 10
272.6237468163
 20
181.4894721024
 11
272.6881176703
 21
181.504462993
  0
LINE
  5
319
100
AcDbEntity
  8
KONSTRUKTIONSELEMENTE
100
AcDbLine
 62
7
  6
CONTINUOUS
 10
272.6667478054
 20
181.4995405979
 11
272.7370872762
 21
181.5155696075
  0
LINE
  5
31A
100
AcDbEntity
  8
KONSTRUKTIONSELEMENTE
100
AcDbLine
 62
7
  6
CONTINUOUS
 10
272.7225646455
 20
181.512296685
 11
272.7951899034
 21
181.5284707132
  0
LINE
  5
31B
100
AcDbEntity
  8
KONSTRUKTIONSELEMENTE
100
AcDbLine
 62
7
  6
CONTINUOUS
 10
272.7743133028
 20
181.5238664919
 11
272.8524119425
 21
181.5409240264
  0
LINE
  5
31C
100
AcDbEntity
  8
KONSTRUKTIONSELEMENTE
100
AcDbLine
 62
7
  6
CONTINUOUS
 10
272.8331516233
 20
181.5367574921
 11
272.9121552375
 21
181.5537131929
  0
LINE
  5
31D
100
AcDbEntity
  8
KONSTRUKTIONSELEMENTE
100
AcDbLine
 62
7
  6
CONTINUOUS
 10
272.8931235818
 20
181.5496634553
 11
272.9947039848
 21
181.5710665601
  0
LINE
  5
31E
100
AcDbEntity
  8
KONSTRUKTIONSELEMENTE
100
AcDbLine
 62
7
  6
CONTINUOUS
 10
272.9774454144
 20
181.5674686555
 11
273.0804257164
 21
181.5887245066
  0
LINE
  5
31F
100
AcDbEntity
  8
KONSTRUKTIONSELEMENTE
100
AcDbLine
 62
7
  6
CONTINUOUS
 10
273.0652667598
 20
181.5856247753
 11
273.1690447483
 21
181.6066517459
  0
LINE
  5
320
100
AcDbEntity
  8
KONSTRUKTIONSELEMENTE
100
AcDbLine
 62
7
  6
CONTINUOUS
 10
273.156229751
 20
181.6040805262
 11
273.2602752245
 21
181.6247857331
  0
LINE
  5
321
100
AcDbEntity
  8
KONSTRUKTIONSELEMENTE
100
AcDbLine
 62
7
  6
CONTINUOUS
 10
273.2500136908
 20
181.6227602356
 11
273.354199172
 21
181.6431380914
  0
LINE
  5
322
100
AcDbEntity
  8
KONSTRUKTIONSELEMENTE
100
AcDbLine
 62
7
  6
CONTINUOUS
 10
273.3466202635
 20
181.6416689574
 11
273.4510073334
 21
181.6617489197
  0
LINE
  5
323
100
AcDbEntity
  8
KONSTRUKTIONSELEMENTE
100
AcDbLine
 62
7
  6
CONTINUOUS
 10
273.4462480029
 20
181.6608420471
 11
273.550915421
 21
181.6806398651
  0
LINE
  5
324
100
AcDbEntity
  8
KONSTRUKTIONSELEMENTE
100
AcDbLine
 62
7
  6
CONTINUOUS
 10
273.5491498304
 20
181.6803075085
 11
273.6556169342
 21
181.7001120544
  0
LINE
  5
325
100
AcDbEntity
  8
KONSTRUKTIONSELEMENTE
100
AcDbLine
 62
7
  6
CONTINUOUS
 10
272.2749268543
 20
181.392425388
 11
272.3194330076
 21
181.4006364113
  0
LINE
  5
326
100
AcDbEntity
  8
KONSTRUKTIONSELEMENTE
100
AcDbLine
 62
7
  6
CONTINUOUS
 10
273.6541954522
 20
181.6998488249
 11
273.7659459028
 21
181.7202862787
  0
LINE
  5
327
100
AcDbEntity
  8
KONSTRUKTIONSELEMENTE
100
AcDbLine
 62
7
  6
CONTINUOUS
 10
273.7071836529
 20
181.7095841725
 11
273.8226589272
 21
181.7305208035
  0
LINE
  5
328
100
AcDbEntity
  8
AUSFORMSCHRAEGEN
100
AcDbLine
 62
7
  6
CONTINUOUS
 10
255.3771299929
 20
188.6910656294
 11
335.3771299929
 21
188.6910656294
  0
LINE
  5
329
100
AcDbEntity
  8
KONSTRUKTIONSELEMENTE
100
AcDbLine
 62
7
  6
CONTINUOUS
 10
316.8918788362
 20
181.7376360752
 11
317.0223075053
 21
181.7141081446
  0
LINE
  5
32A
100
AcDbEntity
  8
KONSTRUKTIONSELEMENTE
100
AcDbLine
 62
7
  6
CONTINUOUS
 10
317.0223075053
 20
181.7141081446
 11
317.1473441604
 21
181.6910940687
  0
LINE
  5
32B
100
AcDbEntity
  8
KONSTRUKTIONSELEMENTE
100
AcDbLine
 62
7
  6
CONTINUOUS
 10
317.1473441604
 20
181.6910940687
 11
317.267456747
 21
181.6685531962
  0
LINE
  5
32C
100
AcDbEntity
  8
KONSTRUKTIONSELEMENTE
100
AcDbLine
 62
7
  6
CONTINUOUS
 10
317.267456747
 20
181.6685531962
 11
317.3830827168
 21
181.6464254224
  0
LINE
  5
32D
100
AcDbEntity
  8
KONSTRUKTIONSELEMENTE
100
AcDbLine
 62
7
  6
CONTINUOUS
 10
317.3830827168
 20
181.6464254224
 11
317.4946181884
 21
181.624659225
  0
LINE
  5
32E
100
AcDbEntity
  8
KONSTRUKTIONSELEMENTE
100
AcDbLine
 62
7
  6
CONTINUOUS
 10
317.4946181884
 20
181.624659225
 11
317.6023832026
 21
181.6032050171
  0
LINE
  5
32F
100
AcDbEntity
  8
KONSTRUKTIONSELEMENTE
100
AcDbLine
 62
7
  6
CONTINUOUS
 10
317.6023832026
 20
181.6032050171
 11
317.7063353848
 21
181.5820671865
  0
LINE
  5
330
100
AcDbEntity
  8
KONSTRUKTIONSELEMENTE
100
AcDbLine
 62
7
  6
CONTINUOUS
 10
317.7063353848
 20
181.5820671865
 11
317.8058566209
 21
181.5613809789
  0
LINE
  5
331
100
AcDbEntity
  8
KONSTRUKTIONSELEMENTE
100
AcDbLine
 62
7
  6
CONTINUOUS
 10
317.8058566209
 20
181.5613809789
 11
317.9001845846
 21
181.5412830022
  0
LINE
  5
332
100
AcDbEntity
  8
KONSTRUKTIONSELEMENTE
100
AcDbLine
 62
7
  6
CONTINUOUS
 10
317.9001845846
 20
181.5412830022
 11
317.9883111871
 21
181.5220128803
  0
LINE
  5
333
100
AcDbEntity
  8
KONSTRUKTIONSELEMENTE
100
AcDbLine
 62
7
  6
CONTINUOUS
 10
317.9883111871
 20
181.5220128803
 11
318.0691912315
 21
181.5037627795
  0
LINE
  5
334
100
AcDbEntity
  8
KONSTRUKTIONSELEMENTE
100
AcDbLine
 62
7
  6
CONTINUOUS
 10
318.0591434498
 20
181.5060638194
 11
318.1064706255
 21
181.4951312234
  0
LINE
  5
335
100
AcDbEntity
  8
KONSTRUKTIONSELEMENTE
100
AcDbLine
 62
7
  6
CONTINUOUS
 10
318.0982343093
 20
181.4970551932
 11
318.1412526513
 21
181.4869147906
  0
LINE
  5
336
100
AcDbEntity
  8
KONSTRUKTIONSELEMENTE
100
AcDbLine
 62
7
  6
CONTINUOUS
 10
318.1347266662
 20
181.4884705586
 11
318.1734945296
 21
181.4791108121
  0
LINE
  5
337
100
AcDbEntity
  8
KONSTRUKTIONSELEMENTE
100
AcDbLine
 62
7
  6
CONTINUOUS
 10
318.1685666254
 20
181.4803098169
 11
318.2031524929
 21
181.4717400858
  0
LINE
  5
338
100
AcDbEntity
  8
KONSTRUKTIONSELEMENTE
100
AcDbLine
 62
7
  6
CONTINUOUS
 10
318.1996806006
 20
181.4726094212
 11
318.2294978505
 21
181.4650079836
  0
LINE
  5
339
100
AcDbEntity
  8
KONSTRUKTIONSELEMENTE
100
AcDbLine
 62
7
  6
CONTINUOUS
 10
318.2272891174
 20
181.465583153
 11
318.2520590924
 21
181.4590489461
  0
LWPOLYLINE
  5
33A
100
AcDbEntity
  8
KONSTRUKTIONSELEMENTE
100
AcDbPolyline
 62
7
  6
CONTINUOUS
 90
3
 70
0
 10
318.2508561204
 20
181.459377184
 10
318.2701987577
 20
181.4540510944
 10
318.2729645564
 20
181.4532650035
  0
LINE
  5
33B
100
AcDbEntity
  8
KONSTRUKTIONSELEMENTE
100
AcDbLine
 62
7
  6
CONTINUOUS
 10
318.2697815916
 20
181.4541680641
 11
318.2727595569
 21
181.4533215759
  0
LINE
  5
33C
100
AcDbEntity
  8
KONSTRUKTIONSELEMENTE
100
AcDbLine
 62
7
  6
CONTINUOUS
 10
318.2727595569
 20
181.4533215759
 11
318.2838683836
 21
181.4500708365
  0
LWPOLYLINE
  5
33D
100
AcDbEntity
  8
KONSTRUKTIONSELEMENTE
100
AcDbPolyline
 62
7
  6
CONTINUOUS
 90
5
 70
0
 10
318.2836610737
 20
181.4501376047
 10
318.2909307067
 20
181.4478875495
 10
318.2912126404
 20
181.4478172589
 10
318.283850118
 20
181.4506044898
 10
318.279757572
 20
181.4522590775
  0
LINE
  5
33E
100
AcDbEntity
  8
KONSTRUKTIONSELEMENTE
100
AcDbLine
 62
7
  6
CONTINUOUS
 10
292.6271299929
 20
179.6910656294
 11
290.5771299929
 21
181.6910656294
  0
LWPOLYLINE
  5
33F
100
AcDbEntity
  8
KONSTRUKTIONSELEMENTE
100
AcDbPolyline
 62
7
  6
CONTINUOUS
 90
3
 70
0
 10
313.718486031
 20
195.3490971652
 10
313.4796301572
 20
195.2815902967
 10
313.3489386402
 20
195.2442012886
  0
LWPOLYLINE
  5
340
100
AcDbEntity
  8
KONSTRUKTIONSELEMENTE
100
AcDbPolyline
 62
7
  6
CONTINUOUS
 90
4
 70
0
 10
313.349605352
 20
195.244390987
 10
313.2776367032
 20
195.226538025
 10
313.1676432384
 20
195.207819988
 10
313.0374706461
 20
195.1954769928
  0
LINE
  5
341
100
AcDbEntity
  8
KONSTRUKTIONSELEMENTE
100
AcDbLine
 62
7
  6
CONTINUOUS
 10
313.3495906055
 20
195.244394849
 11
313.2680610905
 21
195.2245509357
  0
LINE
  5
342
100
AcDbEntity
  8
KONSTRUKTIONSELEMENTE
100
AcDbLine
 62
7
  6
CONTINUOUS
 10
314.3332722697
 20
195.4999146615
 11
314.139845165
 21
195.4584409899
  0
LINE
  5
343
100
AcDbEntity
  8
KONSTRUKTIONSELEMENTE
100
AcDbLine
 62
7
  6
CONTINUOUS
 10
314.4174516425
 20
195.5139759236
 11
314.3332722697
 21
195.4999146615
  0
LWPOLYLINE
  5
344
100
AcDbEntity
  8
KONSTRUKTIONSELEMENTE
100
AcDbPolyline
 62
7
  6
CONTINUOUS
 90
5
 70
0
 10
314.5291347822
 20
195.532278494
 10
314.3430892631
 20
195.5017894585
 10
314.1476372555
 20
195.4602292542
 10
313.9404322735
 20
195.409023453
 10
313.718486031
 20
195.3490971652
  0
LINE
  5
345
100
AcDbEntity
  8
KONSTRUKTIONSELEMENTE
100
AcDbLine
 62
7
  6
CONTINUOUS
 10
313.2680610905
 20
195.2245509357
 11
313.1564825276
 21
195.2064098472
  0
LINE
  5
346
100
AcDbEntity
  8
KONSTRUKTIONSELEMENTE
100
AcDbLine
 62
7
  6
CONTINUOUS
 10
314.5754142118
 20
195.5380780215
 11
314.5291347822
 21
195.532278494
  0
LINE
  5
347
100
AcDbEntity
  8
KONSTRUKTIONSELEMENTE
100
AcDbLine
 62
7
  6
CONTINUOUS
 10
320.2191273139
 20
196.1912968008
 11
314.5648345352
 21
195.5368647662
  0
LWPOLYLINE
  5
348
100
AcDbEntity
  8
KONSTRUKTIONSELEMENTE
100
AcDbPolyline
 62
7
  6
CONTINUOUS
 90
3
 70
0
 10
313.1564825276
 20
195.2064098472
 10
313.0248940987
 20
195.1947638527
 10
312.9132808279
 20
195.1917936349
  0
LINE
  5
349
100
AcDbEntity
  8
KONSTRUKTIONSELEMENTE
100
AcDbLine
 62
7
  6
CONTINUOUS
 10
276.1858002495
 20
195.5372843497
 11
270.5351326777
 21
196.1912968001
  0
LINE
  5
34A
100
AcDbEntity
  8
KONSTRUKTIONSELEMENTE
100
AcDbLine
 62
7
  6
CONTINUOUS
 10
276.3368134089
 20
195.5139750775
 11
276.2278862486
 21
195.5318260715
  0
LWPOLYLINE
  5
34B
100
AcDbEntity
  8
KONSTRUKTIONSELEMENTE
100
AcDbPolyline
 62
7
  6
CONTINUOUS
 90
5
 70
0
 10
276.8199499794
 20
195.4074192799
 10
276.6144148208
 20
195.4584409899
 10
276.4209877162
 20
195.4999146615
 10
276.2365558564
 20
195.5307220272
 10
276.1781788425
 20
195.5381561361
  0
LINE
  5
34C
100
AcDbEntity
  8
KONSTRUKTIONSELEMENTE
100
AcDbLine
 62
7
  6
CONTINUOUS
 10
277.0412816332
 20
195.3475424029
 11
276.817706705
 21
195.4079761466
  0
LINE
  5
34D
100
AcDbEntity
  8
KONSTRUKTIONSELEMENTE
100
AcDbLine
 62
7
  6
CONTINUOUS
 10
277.2819001144
 20
195.2795152717
 11
277.0357787029
 21
195.3490958469
  0
LINE
  5
34E
100
AcDbEntity
  8
KONSTRUKTIONSELEMENTE
100
AcDbLine
 62
7
  6
CONTINUOUS
 10
277.405348115
 20
195.2441901214
 11
277.2819001144
 21
195.2795152717
  0
LWPOLYLINE
  5
34F
100
AcDbEntity
  8
KONSTRUKTIONSELEMENTE
100
AcDbPolyline
 62
7
  6
CONTINUOUS
 90
7
 70
0
 10
318.2891433511
 20
181.4484407615
 10
318.315065878
 20
181.4381649561
 10
318.342312441
 20
181.428021852
 10
318.3696986442
 20
181.4186499445
 10
318.3997796567
 20
181.409509884
 10
318.4348269729
 20
181.4006364125
 10
318.4768386085
 20
181.3927912607
  0
LINE
  5
350
100
AcDbEntity
  8
KONSTRUKTIONSELEMENTE
100
AcDbLine
 62
7
  6
CONTINUOUS
 10
318.2797592261
 20
181.4522630871
 11
318.2796758147
 21
181.4522974681
  0
LINE
  5
351
100
AcDbEntity
  8
KONSTRUKTIONSELEMENTE
100
AcDbLine
 62
7
  6
CONTINUOUS
 10
313.0374706461
 20
195.1954769928
 11
312.8880985229
 21
195.1911234912
  0
LINE
  5
352
100
AcDbEntity
  8
KONSTRUKTIONSELEMENTE
100
AcDbLine
 62
7
  6
CONTINUOUS
 10
257.8612087528
 20
195.1910656294
 11
332.8930513414
 21
195.1910656294
  0
LINE
  5
353
100
AcDbEntity
  8
KONSTRUKTIONSELEMENTE
100
AcDbLine
 62
7
  6
CONTINUOUS
 10
288.2771299929
 20
195.6910656294
 11
290.5771299929
 21
195.6910656294
  0
LINE
  5
354
100
AcDbEntity
  8
KONSTRUKTIONSELEMENTE
100
AcDbLine
 62
7
  6
CONTINUOUS
 10
300.1771299929
 20
195.6910656294
 11
301.4750463814
 21
195.6910656294
  0
LWPOLYLINE
  5
355
100
AcDbEntity
  8
KONSTRUKTIONSELEMENTE
100
AcDbPolyline
 62
7
  6
CONTINUOUS
 90
5
 70
0
 10
277.8661614629
 20
195.1911234912
 10
277.7293658871
 20
195.1947638527
 10
277.5977774582
 20
195.2064098472
 10
277.4861988953
 20
195.2245509357
 10
277.4046693803
 20
195.244394849
  0
LINE
  5
356
100
AcDbEntity
  8
KONSTRUKTIONSELEMENTE
100
AcDbLine
 62
7
  6
CONTINUOUS
 10
288.2771299929
 20
195.1910656294
 11
288.2771299929
 21
195.6910656294
  0
LINE
  5
357
100
AcDbEntity
  8
KONSTRUKTIONSELEMENTE
100
AcDbLine
 62
7
  6
CONTINUOUS
 10
290.4771299929
 20
182.1910656294
 11
290.4771299929
 21
181.6910656294
  0
LINE
  5
358
100
AcDbEntity
  8
KONSTRUKTIONSELEMENTE
100
AcDbLine
 62
7
  6
CONTINUOUS
 10
290.5771299929
 20
182.1910656294
 11
290.5771299929
 21
181.6910656293
  0
LINE
  5
359
100
AcDbEntity
  8
KONSTRUKTIONSELEMENTE
100
AcDbLine
 62
7
  6
CONTINUOUS
 10
290.5771299929
 20
195.1910656294
 11
290.5771299929
 21
251.5133985743
  0
LINE
  5
35A
100
AcDbEntity
  8
KONSTRUKTIONSELEMENTE
100
AcDbLine
 62
7
  6
CONTINUOUS
 10
292.6271299929
 20
169.6910656294
 11
292.6271299929
 21
179.6910656294
  0
LINE
  5
35B
100
AcDbEntity
  8
BEZUGSACHSEN
100
AcDbLine
 62
2
  6
CENTER
 10
295.3771299929
 20
166.6910656294
 11
295.3771299929
 21
259.3163520653
  0
LINE
  5
35C
100
AcDbEntity
  8
KONSTRUKTIONSELEMENTE
100
AcDbLine
 62
7
  6
CONTINUOUS
 10
298.1271299929
 20
169.6910656294
 11
298.1271299929
 21
179.6910656294
  0
LINE
  5
35D
100
AcDbEntity
  8
0
100
AcDbLine
 62
7
  6
CONTINUOUS
 10
300.1770944827
 20
218.2709717607
 11
300.1771299794
 21
218.2596572616
  0
LINE
  5
35E
100
AcDbEntity
  8
0
100
AcDbLine
 62
7
  6
CONTINUOUS
 10
300.0575557242
 20
219.6956526498
 11
300.0575557242
 21
219.379056832
  0
LINE
  5
35F
100
AcDbEntity
  8
0
100
AcDbLine
 62
7
  6
CONTINUOUS
 10
300.1044358413
 20
219.6560781864
 11
300.1044358413
 21
218.1126738933
  0
LINE
  5
360
100
AcDbEntity
  8
0
100
AcDbLine
 62
7
  6
CONTINUOUS
 10
300.1395184316
 20
219.9726738933
 11
300.1395184316
 21
218.1126738933
  0
LINE
  5
361
100
AcDbEntity
  8
0
100
AcDbLine
 62
7
  6
CONTINUOUS
 10
300.1583033205
 20
224.3487252482
 11
300.1583033205
 21
223.923193235
  0
LINE
  5
362
100
AcDbEntity
  8
0
100
AcDbLine
 62
7
  6
CONTINUOUS
 10
300.1683788948
 20
219.2207589785
 11
300.1683788948
 21
218.8645888082
  0
LINE
  5
363
100
AcDbEntity
  8
0
100
AcDbLine
 62
7
  6
CONTINUOUS
 10
300.1729495624
 20
224.617961337
 11
300.1729495624
 21
224.2955337652
  0
LINE
  5
364
100
AcDbEntity
  8
0
100
AcDbLine
 62
7
  6
CONTINUOUS
 10
300.175050144
 20
220.9993003763
 11
300.175050144
 21
221.2710656294
  0
LINE
  5
365
100
AcDbEntity
  8
0
100
AcDbLine
 62
7
  6
CONTINUOUS
 10
300.1758181591
 20
224.2955337652
 11
300.1758181591
 21
222.2210656294
  0
LINE
  5
366
100
AcDbEntity
  8
0
100
AcDbLine
 62
7
  6
CONTINUOUS
 10
300.1761706249
 20
219.1811845151
 11
300.1761706249
 21
218.9041632716
  0
LINE
  5
367
100
AcDbEntity
  8
KONSTRUKTIONSELEMENTE
100
AcDbLine
 62
7
  6
CONTINUOUS
 10
300.1771299929
 20
251.5133985743
 11
300.1771299929
 21
230.9710679057
  0
LINE
  5
368
100
AcDbEntity
  8
KONSTRUKTIONSELEMENTE
100
AcDbLine
 62
7
  6
CONTINUOUS
 10
300.1771299929
 20
230.66302682
 11
300.1771299929
 21
229.2210656294
  0
LINE
  5
369
100
AcDbEntity
  8
KONSTRUKTIONSELEMENTE
100
AcDbLine
 62
7
  6
CONTINUOUS
 10
300.1771299929
 20
229.112401832
 11
300.1771299929
 21
227.2327085248
  0
LINE
  5
36A
100
AcDbEntity
  8
KONSTRUKTIONSELEMENTE
100
AcDbLine
 62
7
  6
CONTINUOUS
 10
300.1771299929
 20
227.1564547905
 11
300.1771299929
 21
224.7210656294
  0
LINE
  5
36B
100
AcDbEntity
  8
KONSTRUKTIONSELEMENTE
100
AcDbLine
 62
7
  6
CONTINUOUS
 10
300.1771299929
 20
222.2210656294
 11
300.1771299929
 21
221.2791044395
  0
LINE
  5
36C
100
AcDbEntity
  8
KONSTRUKTIONSELEMENTE
100
AcDbLine
 62
7
  6
CONTINUOUS
 10
300.1771299929
 20
220.971063353
 11
300.1771299929
 21
219.8256897754
  0
LINE
  5
36D
100
AcDbEntity
  8
KONSTRUKTIONSELEMENTE
100
AcDbLine
 62
7
  6
CONTINUOUS
 10
300.1771299929
 20
219.4186312953
 11
300.1771299929
 21
218.6667164359
  0
LINE
  5
36E
100
AcDbEntity
  8
KONSTRUKTIONSELEMENTE
100
AcDbLine
 62
7
  6
CONTINUOUS
 10
300.1771299929
 20
182.1910656294
 11
300.1771299929
 21
181.6910656293
  0
LINE
  5
36F
100
AcDbEntity
  8
KONSTRUKTIONSELEMENTE
100
AcDbLine
 62
7
  6
CONTINUOUS
 10
300.1771299929
 20
195.1910656294
 11
300.1771299929
 21
218.429269628
  0
LINE
  5
370
100
AcDbEntity
  8
KONSTRUKTIONSELEMENTE
100
AcDbLine
 62
7
  6
CONTINUOUS
 10
300.1771299929
 20
223.1870656294
 11
300.1771299929
 21
223.9710656294
  0
LINE
  5
371
100
AcDbEntity
  8
KONSTRUKTIONSELEMENTE
100
AcDbLine
 62
7
  6
CONTINUOUS
 10
300.1771299929
 20
230.6710680259
 11
300.1771299929
 21
230.9648404791
  0
LINE
  5
372
100
AcDbEntity
  8
KONSTRUKTIONSELEMENTE
100
AcDbLine
 62
7
  6
CONTINUOUS
 10
300.3937963814
 20
182.1910656294
 11
300.3937963814
 21
181.6910656294
  0
LINE
  5
373
100
AcDbEntity
  8
KONSTRUKTIONSELEMENTE
100
AcDbLine
 62
7
  6
CONTINUOUS
 10
300.5271299929
 20
195.1910656294
 11
300.5271299929
 21
195.6910656294
  0
LINE
  5
374
100
AcDbEntity
  8
KONSTRUKTIONSELEMENTE
100
AcDbLine
 62
7
  6
CONTINUOUS
 10
300.7458799929
 20
195.1910656294
 11
300.7458799929
 21
195.6910656294
  0
LINE
  5
375
100
AcDbEntity
  8
KONSTRUKTIONSELEMENTE
100
AcDbLine
 62
7
  6
CONTINUOUS
 10
301.0375463814
 20
195.1910656294
 11
301.0375463814
 21
195.6910656294
  0
LINE
  5
376
100
AcDbEntity
  8
KONSTRUKTIONSELEMENTE
100
AcDbLine
 62
7
  6
CONTINUOUS
 10
301.4750463814
 20
195.1910656294
 11
301.4750463814
 21
195.6910656294
  0
LINE
  5
377
100
AcDbEntity
  8
0
100
AcDbLine
 62
7
  6
CONTINUOUS
 10
300.1771299794
 20
219.8256905379
 11
300.1770944827
 21
219.8143760399
  0
LINE
  5
378
100
AcDbEntity
  8
0
100
AcDbLine
 62
7
  6
CONTINUOUS
 10
300.1767151544
 20
229.1667306124
 11
300.1767110615
 21
229.1658844816
  0
LINE
  5
379
100
AcDbEntity
  8
0
100
AcDbLine
 62
7
  6
CONTINUOUS
 10
300.1395184316
 20
218.1126738933
 11
300.1044358413
 21
218.1126738933
  0
LINE
  5
37A
100
AcDbEntity
  8
0
100
AcDbLine
 62
7
  6
CONTINUOUS
 10
300.1761338284
 20
218.429269628
 11
300.1746560617
 21
218.429269628
  0
LINE
  5
37B
100
AcDbEntity
  8
0
100
AcDbLine
 62
7
  6
CONTINUOUS
 10
300.1767890029
 20
218.6667164359
 11
300.1705648041
 21
218.6667164359
  0
LINE
  5
37C
100
AcDbEntity
  8
0
100
AcDbLine
 62
7
  6
CONTINUOUS
 10
300.1761706249
 20
218.9041632716
 11
300.1683788948
 21
218.9041632716
  0
LINE
  5
37D
100
AcDbEntity
  8
0
100
AcDbLine
 62
7
  6
CONTINUOUS
 10
300.1761706249
 20
219.1811845151
 11
300.1683788948
 21
219.1811845151
  0
LINE
  5
37E
100
AcDbEntity
  8
0
100
AcDbLine
 62
7
  6
CONTINUOUS
 10
300.1767890095
 20
219.4186312953
 11
300.1705648041
 21
219.4186312953
  0
LINE
  5
37F
100
AcDbEntity
  8
0
100
AcDbLine
 62
7
  6
CONTINUOUS
 10
300.1044358413
 20
219.6560781864
 11
300.0575557242
 21
219.6560781864
  0
LINE
  5
380
100
AcDbEntity
  8
0
100
AcDbLine
 62
7
  6
CONTINUOUS
 10
300.1761338284
 20
219.6560781864
 11
300.1746560616
 21
219.6560781864
  0
LINE
  5
381
100
AcDbEntity
  8
0
100
AcDbLine
 62
7
  6
CONTINUOUS
 10
300.1395184316
 20
219.9726738933
 11
300.1044358413
 21
219.9726738933
  0
LINE
  5
382
100
AcDbEntity
  8
0
100
AcDbLine
 62
7
  6
CONTINUOUS
 10
300.0765188829
 20
221.2710656294
 11
300.1755095659
 21
221.2710656294
  0
LINE
  5
383
100
AcDbEntity
  8
0
100
AcDbLine
 62
7
  6
CONTINUOUS
 10
300.1758181591
 20
222.2210656294
 11
300.17712999
 21
222.2210656294
  0
LINE
  5
384
100
AcDbEntity
  8
0
100
AcDbLine
 62
7
  6
CONTINUOUS
 10
300.1771299942
 20
223.1870656294
 11
300.1758181591
 21
223.1870656294
  0
LINE
  5
385
100
AcDbEntity
  8
0
100
AcDbLine
 62
7
  6
CONTINUOUS
 10
300.1758181591
 20
223.9710656294
 11
300.1771299552
 21
223.9710656294
  0
LINE
  5
386
100
AcDbEntity
  8
0
100
AcDbLine
 62
7
  6
CONTINUOUS
 10
300.1758181591
 20
224.2955337652
 11
300.1583033205
 21
224.2955337652
  0
LINE
  5
387
100
AcDbEntity
  8
0
100
AcDbLine
 62
7
  6
CONTINUOUS
 10
300.1761822813
 20
224.481703926
 11
300.1729495624
 21
224.481703926
  0
LINE
  5
388
100
AcDbEntity
  8
0
100
AcDbLine
 62
7
  6
CONTINUOUS
 10
300.17712999
 20
224.7210656294
 11
300.1758181591
 21
224.7210656294
  0
LINE
  5
389
100
AcDbEntity
  8
0
100
AcDbLine
 62
7
  6
CONTINUOUS
 10
300.1002868583
 20
225.2680553497
 11
300.0698770084
 21
225.2680553497
  0
LINE
  5
38A
100
AcDbEntity
  8
0
100
AcDbLine
 62
7
  6
CONTINUOUS
 10
300.1631480566
 20
227.0066749939
 11
300.1566132391
 21
227.0066749939
  0
LINE
  5
38B
100
AcDbEntity
  8
0
100
AcDbLine
 62
7
  6
CONTINUOUS
 10
300.1746239214
 20
227.1094649919
 11
300.1635541326
 21
227.1094649919
  0
LINE
  5
38C
100
AcDbEntity
  8
0
100
AcDbLine
 62
7
  6
CONTINUOUS
 10
300.1746717553
 20
227.1564547905
 11
300.1637060718
 21
227.1564547905
  0
LINE
  5
38D
100
AcDbEntity
  8
0
100
AcDbLine
 62
7
  6
CONTINUOUS
 10
300.1206019326
 20
227.7820054182
 11
300.0989752894
 21
227.7820054182
  0
LINE
  5
38E
100
AcDbEntity
  8
0
100
AcDbLine
 62
7
  6
CONTINUOUS
 10
300.1676497625
 20
228.342945207
 11
300.164631979
 21
228.342945207
  0
LINE
  5
38F
100
AcDbEntity
  8
0
100
AcDbLine
 62
7
  6
CONTINUOUS
 10
300.0124662302
 20
228.9332536348
 11
299.9731512228
 21
228.9332536348
  0
LINE
  5
390
100
AcDbEntity
  8
0
100
AcDbLine
 62
7
  6
CONTINUOUS
 10
300.1755095659
 20
230.6710656294
 11
300.0765188829
 21
230.6710656294
  0
LINE
  5
391
100
AcDbEntity
  8
KONSTRUKTIONSELEMENTE
100
AcDbLine
 62
7
  6
CONTINUOUS
 10
272.4745113716
 20
181.4522674601
 11
272.4745841712
 21
181.4522974681
  0
LINE
  5
392
100
AcDbEntity
  8
KONSTRUKTIONSELEMENTE
100
AcDbLine
 62
7
  6
CONTINUOUS
 10
272.4363199829
 20
181.4370615546
 11
272.4666358819
 21
181.4490429979
  0
LINE
  5
393
100
AcDbEntity
  8
KONSTRUKTIONSELEMENTE
100
AcDbLine
 62
7
  6
CONTINUOUS
 10
272.4093535827
 20
181.4270961762
 11
272.4391941064
 21
181.4381649556
  0
LINE
  5
394
100
AcDbEntity
  8
KONSTRUKTIONSELEMENTE
100
AcDbLine
 62
7
  6
CONTINUOUS
 10
272.3821268148
 20
181.4178626409
 11
272.411947543
 21
181.4280218514
  0
LINE
  5
395
100
AcDbEntity
  8
KONSTRUKTIONSELEMENTE
100
AcDbLine
 62
7
  6
CONTINUOUS
 10
272.4628554674
 20
181.4477309183
 11
272.4715754151
 21
181.4504302104
  0
LINE
  5
396
100
AcDbEntity
  8
KONSTRUKTIONSELEMENTE
100
AcDbLine
 62
7
  6
CONTINUOUS
 10
272.3521058017
 20
181.4088457874
 11
272.3845613391
 21
181.4186499437
  0
LINE
  5
397
100
AcDbEntity
  8
KONSTRUKTIONSELEMENTE
100
AcDbLine
 62
7
  6
CONTINUOUS
 10
272.469921379
 20
181.4499291046
 11
272.4850951176
 21
181.4543430026
  0
LINE
  5
398
100
AcDbEntity
  8
KONSTRUKTIONSELEMENTE
100
AcDbLine
 62
7
  6
CONTINUOUS
 10
300.1771299929
 20
181.6910656294
 11
298.1271299929
 21
179.6910656294
  0
LINE
  5
399
100
AcDbEntity
  8
KONSTRUKTIONSELEMENTE
100
AcDbLine
 62
7
  6
CONTINUOUS
 10
328.0589883457
 20
188.6910656294
 11
327.993828018
 21
193.4001225559
  0
LINE
  5
39A
100
AcDbEntity
  8
KONSTRUKTIONSELEMENTE
100
AcDbLine
 62
7
  6
CONTINUOUS
 10
327.993828018
 20
183.9820087028
 11
328.0589883457
 21
188.6910656294
  0
LINE
  5
39B
100
AcDbEntity
  8
AUSFORMSCHRAEGEN
100
AcDbLine
 62
7
  6
CONTINUOUS
 10
335.3771299929
 20
188.6910656294
 11
334.88218816
 21
193.4001226112
  0
LINE
  5
39C
100
AcDbEntity
  8
AUSFORMSCHRAEGEN
100
AcDbLine
 62
7
  6
CONTINUOUS
 10
334.88218816
 20
183.9820086476
 11
335.3771299929
 21
188.6910656294
  0
ARC
  5
39D
100
AcDbEntity
  8
KONSTRUKTIONSELEMENTE
100
AcDbCircle
 62
7
  6
CONTINUOUS
 10
87.4500161688
 20
182.6910656294
 40
13.0
100
AcDbArc
 50
239.2622261621
 51
300.7377738379
  0
CIRCLE
  5
39E
100
AcDbEntity
  8
RUNDUNGEN
100
AcDbCircle
 62
7
  6
CONTINUOUS
 10
97.9500161688
 20
188.6910656294
 40
4.6
  0
ARC
  5
39F
100
AcDbEntity
  8
KONSTRUKTIONSELEMENTE
100
AcDbCircle
 62
7
  6
CONTINUOUS
 10
89.466030551
 20
184.1910656294
 40
2.0
100
AcDbArc
 50
270.0
 51
354.0
  0
ARC
  5
3A0
100
AcDbEntity
  8
KONSTRUKTIONSELEMENTE
100
AcDbCircle
 62
7
  6
CONTINUOUS
 10
78.9340017866
 20
184.1910656294
 40
2.0
100
AcDbArc
 50
186.0
 51
270.0
  0
ARC
  5
3A1
100
AcDbEntity
  8
KONSTRUKTIONSELEMENTE
100
AcDbCircle
 62
7
  6
CONTINUOUS
 10
89.466030551
 20
193.1910656294
 40
2.0
100
AcDbArc
 50
6.0
 51
90.0
  0
ARC
  5
3A2
100
AcDbEntity
  8
KONSTRUKTIONSELEMENTE
100
AcDbCircle
 62
7
  6
CONTINUOUS
 10
85.9340017866
 20
193.1910656294
 40
2.0
100
AcDbArc
 50
90.0
 51
174.0
  0
ARC
  5
3A3
100
AcDbEntity
  8
KONSTRUKTIONSELEMENTE
100
AcDbCircle
 62
7
  6
CONTINUOUS
 10
78.9340017866
 20
193.1910656294
 40
2.0
100
AcDbArc
 50
90.0
 51
173.9999999998
  0
ARC
  5
3A4
100
AcDbEntity
  8
KONSTRUKTIONSELEMENTE
100
AcDbCircle
 62
7
  6
CONTINUOUS
 10
85.9340017866
 20
184.1910656294
 40
2.0
100
AcDbArc
 50
186.0
 51
270.0
  0
ARC
  5
3A5
100
AcDbEntity
  8
KONSTRUKTIONSELEMENTE
100
AcDbCircle
 62
7
  6
CONTINUOUS
 10
104.9247297328
 20
206.1910656294
 40
24.6
100
AcDbArc
 50
180.0
 51
202.8620374455
  0
ARC
  5
3A6
100
AcDbEntity
  8
KONSTRUKTIONSELEMENTE
100
AcDbCircle
 62
7
  6
CONTINUOUS
 10
104.9753026048
 20
206.1910656294
 40
24.6
100
AcDbArc
 50
341.8014221974
 51
360.0
  0
ARC
  5
3A7
100
AcDbEntity
  8
KONSTRUKTIONSELEMENTE
100
AcDbCircle
 62
7
  6
CONTINUOUS
 10
104.9247297328
 20
206.1910656294
 40
15.0
100
AcDbArc
 50
180.0
 51
202.8620374455
  0
ARC
  5
3A8
100
AcDbEntity
  8
KONSTRUKTIONSELEMENTE
100
AcDbCircle
 62
7
  6
CONTINUOUS
 10
104.9753026048
 20
206.1910656294
 40
15.0
100
AcDbArc
 50
344.8005183089
 51
360.0
  0
ARC
  5
3A9
100
AcDbEntity
  8
KONSTRUKTIONSELEMENTE
100
AcDbCircle
 62
7
  6
CONTINUOUS
 10
77.6500161688
 20
194.6910656294
 40
14.6
100
AcDbArc
 50
1.9625955677
 51
22.8620374455
  0
ARC
  5
3AA
100
AcDbEntity
  8
KONSTRUKTIONSELEMENTE
100
AcDbCircle
 62
7
  6
CONTINUOUS
 10
77.6500161688
 20
194.6910656294
 40
5.0
100
AcDbArc
 50
5.7395227236
 51
22.8620374455
  0
ARC
  5
3AB
100
AcDbEntity
  8
KONSTRUKTIONSELEMENTE
100
AcDbCircle
 62
7
  6
CONTINUOUS
 10
122.4500161688
 20
182.6910656294
 40
13.0
100
AcDbArc
 50
239.2622261621
 51
300.7377738379
  0
CIRCLE
  5
3AC
100
AcDbEntity
  8
RUNDUNGEN
100
AcDbCircle
 62
7
  6
CONTINUOUS
 10
111.9500161688
 20
188.6910656294
 40
4.6
  0
ARC
  5
3AD
100
AcDbEntity
  8
KONSTRUKTIONSELEMENTE
100
AcDbCircle
 62
7
  6
CONTINUOUS
 10
143.5876674004
 20
189.9107041837
 40
2.0
100
AcDbArc
 50
247.1379625545
 51
67.1379625545
  0
ARC
  5
3AE
100
AcDbEntity
  8
KONSTRUKTIONSELEMENTE
100
AcDbCircle
 62
7
  6
CONTINUOUS
 10
130.966030551
 20
184.1910656294
 40
2.0
100
AcDbArc
 50
270.0
 51
353.9999999994
  0
ARC
  5
3AF
100
AcDbEntity
  8
KONSTRUKTIONSELEMENTE
100
AcDbCircle
 62
7
  6
CONTINUOUS
 10
123.966030551
 20
184.1910656294
 40
2.0
100
AcDbArc
 50
270.0
 51
354.0
  0
ARC
  5
3B0
100
AcDbEntity
  8
KONSTRUKTIONSELEMENTE
100
AcDbCircle
 62
7
  6
CONTINUOUS
 10
123.966030551
 20
193.1910656294
 40
2.0
100
AcDbArc
 50
6.0
 51
90.0
  0
ARC
  5
3B1
100
AcDbEntity
  8
KONSTRUKTIONSELEMENTE
100
AcDbCircle
 62
7
  6
CONTINUOUS
 10
120.4340017866
 20
193.1910656294
 40
2.0
100
AcDbArc
 50
90.0
 51
174.0
  0
ARC
  5
3B2
100
AcDbEntity
  8
KONSTRUKTIONSELEMENTE
100
AcDbCircle
 62
7
  6
CONTINUOUS
 10
120.4340017866
 20
184.1910656294
 40
2.0
100
AcDbArc
 50
186.0
 51
270.0
  0
ARC
  5
3B3
100
AcDbEntity
  8
KONSTRUKTIONSELEMENTE
100
AcDbCircle
 62
7
  6
CONTINUOUS
 10
132.2500161688
 20
194.6910656294
 40
14.6
100
AcDbArc
 50
165.0117723218
 51
178.0374044323
  0
ARC
  5
3B4
100
AcDbEntity
  8
KONSTRUKTIONSELEMENTE
100
AcDbCircle
 62
7
  6
CONTINUOUS
 10
116.8658196519
 20
201.1775960756
 40
2.0
100
AcDbArc
 50
67.1379625545
 51
247.1379625545
  0
ARC
  5
3B5
100
AcDbEntity
  8
KONSTRUKTIONSELEMENTE
100
AcDbCircle
 62
7
  6
CONTINUOUS
 10
104.9500161688
 20
231.6910656294
 40
24.625286436
100
AcDbArc
 50
0.0
 51
180.0
  0
ARC
  5
3B6
100
AcDbEntity
  8
KONSTRUKTIONSELEMENTE
100
AcDbCircle
 62
7
  6
CONTINUOUS
 10
104.9500161688
 20
231.6910656294
 40
15.025286436
100
AcDbArc
 50
0.0
 51
180.0
  0
ARC
  5
3B7
100
AcDbEntity
  8
0
100
AcDbCircle
 62
7
  6
CONTINUOUS
 10
88.9577600768
 20
219.3463157419
 40
8.7687795897
100
AcDbArc
 50
113.6333148752
 51
117.041719644
  0
ARC
  5
3B8
100
AcDbEntity
  8
0
100
AcDbCircle
 62
7
  6
CONTINUOUS
 10
213.7260405886
 20
221.5380954635
 40
129.0823317079
100
AcDbArc
 50
176.9781303029
 51
177.5471441361
  0
ARC
  5
3B9
100
AcDbEntity
  8
0
100
AcDbCircle
 62
7
  6
CONTINUOUS
 10
536.5471290029
 20
228.0880061472
 40
236.3724351902
100
AcDbArc
 50
179.7516796113
 51
179.8822191648
  0
ARC
  5
3BA
100
AcDbEntity
  8
0
100
AcDbCircle
 62
7
  6
CONTINUOUS
 10
256.2437667922
 20
229.4002715822
 40
43.9335951249
100
AcDbArc
 50
358.6210557514
 51
358.9223784295
  0
ARC
  5
3BB
100
AcDbEntity
  8
0
100
AcDbCircle
 62
7
  6
CONTINUOUS
 10
256.4032835802
 20
229.3976625294
 40
43.7740574834
100
AcDbArc
 50
358.9218660867
 51
359.62662018
  0
ARC
  5
3BC
100
AcDbEntity
  8
0
100
AcDbCircle
 62
7
  6
CONTINUOUS
 10
275.6163565385
 20
228.9001219997
 40
24.4899982628
100
AcDbArc
 50
358.1533275575
 51
358.6463268351
  0
ARC
  5
3BD
100
AcDbEntity
  8
0
100
AcDbCircle
 62
7
  6
CONTINUOUS
 10
288.913113221
 20
219.5062758154
 40
11.2640167716
100
AcDbArc
 50
359.554181082
 51
0.0000090351
  0
ARC
  5
3BE
100
AcDbEntity
  8
0
100
AcDbCircle
 62
7
  6
CONTINUOUS
 10
288.9131211097
 20
218.5790719465
 40
11.2640088828
100
AcDbArc
 50
359.9999909649
 51
0.4458190741
  0
ARC
  5
3BF
100
AcDbEntity
  8
0
100
AcDbCircle
 62
7
  6
CONTINUOUS
 10
288.914265888
 20
219.5062849713
 40
11.2628640902
100
AcDbArc
 50
0.1580894342
 51
0.7620416969
  0
ARC
  5
3C0
100
AcDbEntity
  8
0
100
AcDbCircle
 62
7
  6
CONTINUOUS
 10
288.9142739853
 20
218.5790627886
 40
11.2628559929
100
AcDbArc
 50
359.2379580325
 51
359.841836673
  0
ARC
  5
3C1
100
AcDbEntity
  8
0
100
AcDbCircle
 62
7
  6
CONTINUOUS
 10
289.1882446831
 20
229.1900179879
 40
10.988837294
100
AcDbArc
 50
359.874158486
 51
0.0700058375
  0
ARC
  5
3C2
100
AcDbEntity
  8
KONSTRUKTIONSELEMENTE
100
AcDbCircle
 62
8
  6
HIDDEN
 10
295.3771299929
 20
251.5163520653
 40
4.8
100
AcDbArc
 50
180.0
 51
360.0
  0
ARC
  5
3C3
100
AcDbEntity
  8
KONSTRUKTIONSELEMENTE
100
AcDbCircle
 62
7
  6
CONTINUOUS
 10
295.3771299929
 20
251.5163520653
 40
4.8
100
AcDbArc
 50
0.0
 51
180.0
  0
ARC
  5
3C4
100
AcDbEntity
  8
0
100
AcDbCircle
 62
7
  6
CONTINUOUS
 10
295.4320262025
 20
227.7630009907
 40
4.7862788072
100
AcDbArc
 50
348.9703715139
 51
349.7310841707
  0
ARC
  5
3C5
100
AcDbEntity
  8
KONSTRUKTIONSELEMENTE
100
AcDbCircle
 62
7
  6
CONTINUOUS
 10
307.7210586961
 20
195.5479592454
 40
4.1560484408
100
AcDbArc
 50
355.0558140095
 51
359.9190558277
  0
ARC
  5
3C6
100
AcDbEntity
  8
KONSTRUKTIONSELEMENTE
100
AcDbCircle
 62
7
  6
CONTINUOUS
 10
282.9818709635
 20
195.5426595975
 40
4.1047155048
100
AcDbArc
 50
179.9504075844
 51
184.9325335138
  0
ARC
  5
3C7
100
AcDbEntity
  8
KONSTRUKTIONSELEMENTE
100
AcDbCircle
 62
7
  6
CONTINUOUS
 10
332.8931443751
 20
184.1910656294
 40
2.0
100
AcDbArc
 50
269.9999965565
 51
353.9999984079
  0
ARC
  5
3C8
100
AcDbEntity
  8
KONSTRUKTIONSELEMENTE
100
AcDbCircle
 62
7
  6
CONTINUOUS
 10
257.8611156107
 20
184.1910656294
 40
2.0
100
AcDbArc
 50
186.0000080159
 51
270.0000172539
  0
ARC
  5
3C9
100
AcDbEntity
  8
KONSTRUKTIONSELEMENTE
100
AcDbCircle
 62
7
  6
CONTINUOUS
 10
257.8611156107
 20
193.1910656294
 40
2.0
100
AcDbArc
 50
89.9999827461
 51
173.9999919841
  0
ARC
  5
3CA
100
AcDbEntity
  8
KONSTRUKTIONSELEMENTE
100
AcDbCircle
 62
7
  6
CONTINUOUS
 10
332.8931443751
 20
193.1910656294
 40
2.0
100
AcDbArc
 50
6.0000015921
 51
90.0000034435
  0
ARC
  5
3CB
100
AcDbEntity
  8
KONSTRUKTIONSELEMENTE
100
AcDbCircle
 62
7
  6
CONTINUOUS
 10
270.3818974546
 20
182.5321198679
 40
1.35
100
AcDbArc
 50
194.6437644483
 51
276.6020821172
  0
ARC
  5
3CC
100
AcDbEntity
  8
KONSTRUKTIONSELEMENTE
100
AcDbCircle
 62
7
  6
CONTINUOUS
 10
270.3818973326
 20
194.8500102301
 40
1.35
100
AcDbArc
 50
83.3979176321
 51
165.3561834611
  0
ARC
  5
3CD
100
AcDbEntity
  8
KONSTRUKTIONSELEMENTE
100
AcDbCircle
 62
7
  6
CONTINUOUS
 10
320.3723625312
 20
182.5321198679
 40
1.35
100
AcDbArc
 50
263.3979178828
 51
345.3562355517
  0
ARC
  5
3CE
100
AcDbEntity
  8
KONSTRUKTIONSELEMENTE
100
AcDbCircle
 62
7
  6
CONTINUOUS
 10
320.3723626532
 20
194.8500102297
 40
1.35
100
AcDbArc
 50
14.6438165552
 51
96.602082368
  0
ARC
  5
3CF
100
AcDbEntity
  8
0
100
AcDbCircle
 62
7
  6
CONTINUOUS
 10
298.9038010538
 20
227.236492808
 40
1.2733885598
100
AcDbArc
 50
356.3963352174
 51
357.5091526906
  0
ARC
  5
3D0
100
AcDbEntity
  8
0
100
AcDbCircle
 62
7
  6
CONTINUOUS
 10
298.9279694264
 20
227.1894436358
 40
1.2492173603
100
AcDbArc
 50
356.329241645
 51
358.488829367
  0
ARC
  5
3D1
100
AcDbEntity
  8
0
100
AcDbCircle
 62
7
  6
CONTINUOUS
 10
298.9566067292
 20
227.2343001725
 40
1.2205371417
100
AcDbArc
 50
357.7071006447
 51
358.6118027916
  0
ARC
  5
3D2
100
AcDbEntity
  8
0
100
AcDbCircle
 62
7
  6
CONTINUOUS
 10
299.0143793296
 20
227.2330289244
 40
1.1627507071
100
AcDbArc
 50
358.6054590905
 51
359.9616465015
  0
ARC
  5
3D3
100
AcDbEntity
  8
0
100
AcDbCircle
 62
7
  6
CONTINUOUS
 10
299.0499181673
 20
227.1856773943
 40
1.1272118438
100
AcDbArc
 50
358.5167306936
 51
359.988122914
  0
ARC
  5
3D4
100
AcDbEntity
  8
0
100
AcDbCircle
 62
7
  6
CONTINUOUS
 10
299.1260886312
 20
227.1854363117
 40
1.0510413557
100
AcDbArc
 50
0.0004043791
 51
1.0601106845
  0
LINE
  5
3D5
100
AcDbEntity
  8
RUNDUNGEN
100
AcDbLine
 62
7
  6
CONTINUOUS
 10
116.5500161688
 20
188.6910656294
 11
117.9500161688
 21
188.6910656294
  0
LINE
  5
3D6
100
AcDbEntity
  8
RUNDUNGEN
100
AcDbLine
 62
7
  6
CONTINUOUS
 10
93.3500161688
 20
188.6910656294
 11
91.9500161688
 21
188.6910656294
  0
SPLINE
  5
3D7
100
AcDbEntity
  8
0
100
AcDbSpline
 62
7
  6
CONTINUOUS
 70
0
 71
3
 72
23
 73
19
 74
0
 42
0.0000001
 43
0.0000001
 44
0.0000000001
 40
0.0
 40
0.0
 40
0.0
 40
0.0
 40
0.0625
 40
0.125
 40
0.1875
 40
0.25
 40
0.3125
 40
0.375
 40
0.4375
 40
0.5
 40
0.5625
 40
0.625
 40
0.6875
 40
0.75
 40
0.8125
 40
0.875
 40
0.9375
 40
1.0
 40
1.0
 40
1.0
 40
1.0
 10
87.5000161688
 20
225.9710656294
 30
0.0
 10
87.5000161688
 20
226.2983121494
 30
0.0
 10
87.4677851998
 20
226.9528051896
 30
0.0
 10
87.3246037664
 20
227.896817049
 30
0.0
 10
87.0920897352
 20
228.7668233614
 30
0.0
 10
86.7791784901
 20
229.529390272
 30
0.0
 10
86.3978950348
 20
230.1552127622
 30
0.0
 10
85.9628918786
 20
230.6202408245
 30
0.0
 10
85.4908859489
 20
230.9066036914
 30
0.0
 10
85.0000161688
 20
231.0032965984
 30
0.0
 10
84.5091463887
 20
230.9066036914
 30
0.0
 10
84.037140459
 20
230.6202408245
 30
0.0
 10
83.6021373028
 20
230.1552127622
 30
0.0
 10
83.2208538475
 20
229.529390272
 30
0.0
 10
82.9079426024
 20
228.7668233614
 30
0.0
 10
82.6754285712
 20
227.896817049
 30
0.0
 10
82.5322471378
 20
226.9528051896
 30
0.0
 10
82.5000161688
 20
226.2983121494
 30
0.0
 10
82.5000161688
 20
225.9710656294
 30
0.0
  0
SPLINE
  5
3D8
100
AcDbEntity
  8
0
100
AcDbSpline
 62
7
  6
CONTINUOUS
 70
0
 71
3
 72
23
 73
19
 74
0
 42
0.0000001
 43
0.0000001
 44
0.0000000001
 40
0.0
 40
0.0
 40
0.0
 40
0.0
 40
0.0625
 40
0.125
 40
0.1875
 40
0.25
 40
0.3125
 40
0.375
 40
0.4375
 40
0.5
 40
0.5625
 40
0.625
 40
0.6875
 40
0.75
 40
0.8125
 40
0.875
 40
0.9375
 40
1.0
 40
1.0
 40
1.0
 40
1.0
 10
82.5000161688
 20
225.9710656294
 30
0.0
 10
82.5000161688
 20
225.6438191093
 30
0.0
 10
82.5322471378
 20
224.9893260692
 30
0.0
 10
82.6754285712
 20
224.0453142097
 30
0.0
 10
82.9079426024
 20
223.1753078973
 30
0.0
 10
83.2208538475
 20
222.4127409867
 30
0.0
 10
83.6021373028
 20
221.7869184966
 30
0.0
 10
84.037140459
 20
221.3218904342
 30
0.0
 10
84.5091463887
 20
221.0355275674
 30
0.0
 10
85.0000161688
 20
220.9388346604
 30
0.0
 10
85.4908859489
 20
221.0355275674
 30
0.0
 10
85.9628918786
 20
221.3218904342
 30
0.0
 10
86.3978950348
 20
221.7869184966
 30
0.0
 10
86.7791784901
 20
222.4127409867
 30
0.0
 10
87.0920897352
 20
223.1753078973
 30
0.0
 10
87.3246037664
 20
224.0453142097
 30
0.0
 10
87.4677851998
 20
224.9893260692
 30
0.0
 10
87.5000161688
 20
225.6438191093
 30
0.0
 10
87.5000161688
 20
225.9710656294
 30
0.0
  0
SPLINE
  5
3D9
100
AcDbEntity
  8
0
100
AcDbSpline
 62
7
  6
CONTINUOUS
 70
0
 71
3
 72
23
 73
19
 74
0
 42
0.0000001
 43
0.0000001
 44
0.0000000001
 40
0.0
 40
0.0
 40
0.0
 40
0.0
 40
0.0625
 40
0.125
 40
0.1875
 40
0.25
 40
0.3125
 40
0.375
 40
0.4375
 40
0.5
 40
0.5625
 40
0.625
 40
0.6875
 40
0.75
 40
0.8125
 40
0.875
 40
0.9375
 40
1.0
 40
1.0
 40
1.0
 40
1.0
 10
87.2000161688
 20
225.9710656294
 30
0.0
 10
87.2000161688
 20
225.6634539005
 30
0.0
 10
87.1716529161
 20
225.0482304428
 30
0.0
 10
87.0456532547
 20
224.1608592949
 30
0.0
 10
86.8410409072
 20
223.3430533612
 30
0.0
 10
86.5656790116
 20
222.6262404652
 30
0.0
 10
86.2301495709
 20
222.0379673245
 30
0.0
 10
85.8473467934
 20
221.6008409459
 30
0.0
 10
85.4319815753
 20
221.3316598511
 30
0.0
 10
85.0000161688
 20
221.2407685185
 30
0.0
 10
84.5680507623
 20
221.3316598511
 30
0.0
 10
84.1526855441
 20
221.6008409459
 30
0.0
 10
83.7698827667
 20
222.0379673245
 30
0.0
 10
83.434353326
 20
222.6262404652
 30
0.0
 10
83.1589914304
 20
223.3430533612
 30
0.0
 10
82.9543790829
 20
224.1608592949
 30
0.0
 10
82.8283794215
 20
225.0482304428
 30
0.0
 10
82.8000161688
 20
225.6634539005
 30
0.0
 10
82.8000161688
 20
225.9710656294
 30
0.0
  0
SPLINE
  5
3DA
100
AcDbEntity
  8
0
100
AcDbSpline
 62
7
  6
CONTINUOUS
 70
0
 71
3
 72
23
 73
19
 74
0
 42
0.0000001
 43
0.0000001
 44
0.0000000001
 40
0.0
 40
0.0
 40
0.0
 40
0.0
 40
0.0625
 40
0.125
 40
0.1875
 40
0.25
 40
0.3125
 40
0.375
 40
0.4375
 40
0.5
 40
0.5625
 40
0.625
 40
0.6875
 40
0.75
 40
0.8125
 40
0.875
 40
0.9375
 40
1.0
 40
1.0
 40
1.0
 40
1.0
 10
82.8000161688
 20
225.9710656294
 30
0.0
 10
82.8000161688
 20
226.2786773582
 30
0.0
 10
82.8283794215
 20
226.893900816
 30
0.0
 10
82.9543790829
 20
227.7812719639
 30
0.0
 10
83.1589914304
 20
228.5990778975
 30
0.0
 10
83.434353326
 20
229.3158907935
 30
0.0
 10
83.7698827667
 20
229.9041639342
 30
0.0
 10
84.1526855441
 20
230.3412903128
 30
0.0
 10
84.5680507623
 20
230.6104714076
 30
0.0
 10
85.0000161688
 20
230.7013627402
 30
0.0
 10
85.4319815753
 20
230.6104714076
 30
0.0
 10
85.8473467934
 20
230.3412903128
 30
0.0
 10
86.2301495709
 20
229.9041639342
 30
0.0
 10
86.5656790116
 20
229.3158907935
 30
0.0
 10
86.8410409072
 20
228.5990778975
 30
0.0
 10
87.0456532547
 20
227.7812719639
 30
0.0
 10
87.1716529161
 20
226.893900816
 30
0.0
 10
87.2000161688
 20
226.2786773582
 30
0.0
 10
87.2000161688
 20
225.9710656294
 30
0.0
  0
SPLINE
  5
3DB
100
AcDbEntity
  8
0
100
AcDbSpline
 62
7
  6
CONTINUOUS
 70
0
 71
3
 72
8
 73
4
 74
0
 42
0.0000001
 43
0.0000001
 44
0.0000000001
 40
0.0
 40
0.0
 40
0.0
 40
0.0
 40
1.0
 40
1.0
 40
1.0
 40
1.0
 10
84.2692829346
 20
225.2680553497
 30
0.0
 10
84.5684103035
 20
225.2680553497
 30
0.0
 10
84.7288934611
 20
225.7232682594
 30
0.0
 10
84.750284508
 20
226.6395678409
 30
0.0
  0
SPLINE
  5
3DC
100
AcDbEntity
  8
0
100
AcDbSpline
 62
7
  6
CONTINUOUS
 70
0
 71
3
 72
8
 73
4
 74
0
 42
0.0000001
 43
0.0000001
 44
0.0000000001
 40
0.0
 40
0.0
 40
0.0
 40
0.0
 40
1.0
 40
1.0
 40
1.0
 40
1.0
 10
83.9805941895
 20
225.541183103
 30
0.0
 10
84.046867772
 20
225.3590979316
 30
0.0
 10
84.142533982
 20
225.2680553497
 30
0.0
 10
84.2692829346
 20
225.2680553497
 30
0.0
  0
SPLINE
  5
3DD
100
AcDbEntity
  8
0
100
AcDbSpline
 62
7
  6
CONTINUOUS
 70
0
 71
3
 72
8
 73
4
 74
0
 42
0.0000001
 43
0.0000001
 44
0.0000000001
 40
0.0
 40
0.0
 40
0.0
 40
0.0
 40
1.0
 40
1.0
 40
1.0
 40
1.0
 10
84.0547191793
 20
226.3040489167
 30
0.0
 10
83.9165541903
 20
226.0375120529
 30
0.0
 10
83.892942035
 20
225.7820054182
 30
0.0
 10
83.9805941895
 20
225.541183103
 30
0.0
  0
SPLINE
  5
3DE
100
AcDbEntity
  8
0
100
AcDbSpline
 62
7
  6
CONTINUOUS
 70
0
 71
3
 72
8
 73
4
 74
0
 42
0.0000001
 43
0.0000001
 44
0.0000000001
 40
0.0
 40
0.0
 40
0.0
 40
0.0
 40
1.0
 40
1.0
 40
1.0
 40
1.0
 10
84.5267408804
 20
226.845147837
 30
0.0
 10
84.3245007727
 20
226.7042715865
 30
0.0
 10
84.167747187
 20
226.5220935234
 30
0.0
 10
84.0547191793
 20
226.3040489167
 30
0.0
  0
SPLINE
  5
3DF
100
AcDbEntity
  8
0
100
AcDbSpline
 62
7
  6
CONTINUOUS
 70
0
 71
3
 72
8
 73
4
 74
0
 42
0.0000001
 43
0.0000001
 44
0.0000000001
 40
0.0
 40
0.0
 40
0.0
 40
0.0
 40
1.0
 40
1.0
 40
1.0
 40
1.0
 10
86.3828424174
 20
228.3071279758
 30
0.0
 10
86.4695740118
 20
228.5602725633
 30
0.0
 10
86.476387552
 20
228.7922843584
 30
0.0
 10
86.3994246211
 20
229.003738273
 30
0.0
  0
SPLINE
  5
3E0
100
AcDbEntity
  8
0
100
AcDbSpline
 62
7
  6
CONTINUOUS
 70
0
 71
3
 72
8
 73
4
 74
0
 42
0.0000001
 43
0.0000001
 44
0.0000000001
 40
0.0
 40
0.0
 40
0.0
 40
0.0
 40
1.0
 40
1.0
 40
1.0
 40
1.0
 10
85.6632234551
 20
227.4883197435
 30
0.0
 10
86.012960942
 20
227.6557205805
 30
0.0
 10
86.2532374623
 20
227.9288483747
 30
0.0
 10
86.3828424174
 20
228.3071279758
 30
0.0
  0
SPLINE
  5
3E1
100
AcDbEntity
  8
0
100
AcDbSpline
 62
7
  6
CONTINUOUS
 70
0
 71
3
 72
8
 73
4
 74
0
 42
0.0000001
 43
0.0000001
 44
0.0000000001
 40
0.0
 40
0.0
 40
0.0
 40
0.0
 40
1.0
 40
1.0
 40
1.0
 40
1.0
 10
86.1927810184
 20
229.2093182691
 30
0.0
 10
85.9815327642
 20
229.2093182691
 30
0.0
 10
85.8057263406
 20
228.6336940416
 30
0.0
 10
85.6632234551
 20
227.4883197435
 30
0.0
  0
SPLINE
  5
3E2
100
AcDbEntity
  8
0
100
AcDbSpline
 62
7
  6
CONTINUOUS
 70
0
 71
3
 72
8
 73
4
 74
0
 42
0.0000001
 43
0.0000001
 44
0.0000000001
 40
0.0
 40
0.0
 40
0.0
 40
0.0
 40
1.0
 40
1.0
 40
1.0
 40
1.0
 10
86.3994246211
 20
229.003738273
 30
0.0
 10
86.3502539321
 20
229.1388336309
 30
0.0
 10
86.2806602703
 20
229.2093182691
 30
0.0
 10
86.1927810184
 20
229.2093182691
 30
0.0
  0
SPLINE
  5
3E3
100
AcDbEntity
  8
0
100
AcDbSpline
 62
7
  6
CONTINUOUS
 70
0
 71
3
 72
8
 73
4
 74
0
 42
0.0000001
 43
0.0000001
 44
0.0000000001
 40
0.0
 40
0.0
 40
0.0
 40
0.0
 40
1.0
 40
1.0
 40
1.0
 40
1.0
 10
86.1477424724
 20
229.2680555471
 30
0.0
 10
86.2694214998
 20
229.2680555471
 30
0.0
 10
86.3623290819
 20
229.1799496301
 30
0.0
 10
86.4264647709
 20
229.003738273
 30
0.0
  0
SPLINE
  5
3E4
100
AcDbEntity
  8
0
100
AcDbSpline
 62
7
  6
CONTINUOUS
 70
0
 71
3
 72
8
 73
4
 74
0
 42
0.0000001
 43
0.0000001
 44
0.0000000001
 40
0.0
 40
0.0
 40
0.0
 40
0.0
 40
1.0
 40
1.0
 40
1.0
 40
1.0
 10
85.659393627
 20
228.4836184602
 30
0.0
 10
85.8051711605
 20
229.0066751131
 30
0.0
 10
85.9686040186
 20
229.2680555471
 30
0.0
 10
86.1477424724
 20
229.2680555471
 30
0.0
  0
SPLINE
  5
3E5
100
AcDbEntity
  8
0
100
AcDbSpline
 62
7
  6
CONTINUOUS
 70
0
 71
3
 72
8
 73
4
 74
0
 42
0.0000001
 43
0.0000001
 44
0.0000000001
 40
0.0
 40
0.0
 40
0.0
 40
0.0
 40
1.0
 40
1.0
 40
1.0
 40
1.0
 10
85.4425160375
 20
227.3796559461
 30
0.0
 10
85.4944220381
 20
227.7849422582
 30
0.0
 10
85.5669842907
 20
228.1520494112
 30
0.0
 10
85.659393627
 20
228.4836184602
 30
0.0
  0
SPLINE
  5
3E6
100
AcDbEntity
  8
0
100
AcDbSpline
 62
7
  6
CONTINUOUS
 70
0
 71
3
 72
8
 73
4
 74
0
 42
0.0000001
 43
0.0000001
 44
0.0000000001
 40
0.0
 40
0.0
 40
0.0
 40
0.0
 40
1.0
 40
1.0
 40
1.0
 40
1.0
 10
84.988387903
 20
228.5739079618
 30
0.0
 10
84.9847278441
 20
228.5074092039
 30
0.0
 10
84.9797055082
 20
228.2519026884
 30
0.0
 10
84.9754950864
 20
227.8084372171
 30
0.0
  0
SPLINE
  5
3E7
100
AcDbEntity
  8
0
100
AcDbSpline
 62
7
  6
CONTINUOUS
 70
0
 71
3
 72
8
 73
4
 74
0
 42
0.0000001
 43
0.0000001
 44
0.0000000001
 40
0.0
 40
0.0
 40
0.0
 40
0.0
 40
1.0
 40
1.0
 40
1.0
 40
1.0
 10
85.0979828783
 20
229.1658827013
 30
0.0
 10
85.0379176337
 20
229.0066741138
 30
0.0
 10
85.001377066
 20
228.8099050379
 30
0.0
 10
84.988387903
 20
228.5739079618
 30
0.0
  0
SPLINE
  5
3E8
100
AcDbEntity
  8
0
100
AcDbSpline
 62
7
  6
CONTINUOUS
 70
0
 71
3
 72
8
 73
4
 74
0
 42
0.0000001
 43
0.0000001
 44
0.0000000001
 40
0.0
 40
0.0
 40
0.0
 40
0.0
 40
1.0
 40
1.0
 40
1.0
 40
1.0
 10
85.1014984467
 20
229.2034445016
 30
0.0
 10
85.1057743017
 20
229.1916965944
 30
0.0
 10
85.1032898244
 20
229.17994892
 30
0.0
 10
85.0979828783
 20
229.1658827013
 30
0.0
  0
SPLINE
  5
3E9
100
AcDbEntity
  8
0
100
AcDbSpline
 62
7
  6
CONTINUOUS
 70
0
 71
3
 72
8
 73
4
 74
0
 42
0.0000001
 43
0.0000001
 44
0.0000000001
 40
0.0
 40
0.0
 40
0.0
 40
0.0
 40
1.0
 40
1.0
 40
1.0
 40
1.0
 10
85.0815650802
 20
229.2210656294
 30
0.0
 10
85.0900149765
 20
229.2210656294
 30
0.0
 10
85.0972227612
 20
229.2151919201
 30
0.0
 10
85.1014984467
 20
229.2034445016
 30
0.0
  0
SPLINE
  5
3EA
100
AcDbEntity
  8
0
100
AcDbSpline
 62
7
  6
CONTINUOUS
 70
0
 71
3
 72
8
 73
4
 74
0
 42
0.0000001
 43
0.0000001
 44
0.0000000001
 40
0.0
 40
0.0
 40
0.0
 40
0.0
 40
1.0
 40
1.0
 40
1.0
 40
1.0
 10
84.7686132411
 20
228.3128224301
 30
0.0
 10
84.9008319168
 20
228.7100523599
 30
0.0
 10
84.9911477033
 20
228.9773064741
 30
0.0
 10
85.0416860915
 20
229.112401832
 30
0.0
  0
SPLINE
  5
3EB
100
AcDbEntity
  8
0
100
AcDbSpline
 62
7
  6
CONTINUOUS
 70
0
 71
3
 72
8
 73
4
 74
0
 42
0.0000001
 43
0.0000001
 44
0.0000000001
 40
0.0
 40
0.0
 40
0.0
 40
0.0
 40
1.0
 40
1.0
 40
1.0
 40
1.0
 10
84.3902408239
 20
227.7820054182
 30
0.0
 10
84.5254395146
 20
227.7820054182
 30
0.0
 10
84.6505821298
 20
227.9582167753
 30
0.0
 10
84.7686132411
 20
228.3128224301
 30
0.0
  0
SPLINE
  5
3EC
100
AcDbEntity
  8
0
100
AcDbSpline
 62
7
  6
CONTINUOUS
 70
0
 71
3
 72
8
 73
4
 74
0
 42
0.0000001
 43
0.0000001
 44
0.0000000001
 40
0.0
 40
0.0
 40
0.0
 40
0.0
 40
1.0
 40
1.0
 40
1.0
 40
1.0
 10
84.2438451816
 20
227.9288483747
 30
0.0
 10
84.2801888023
 20
227.8289950975
 30
0.0
 10
84.3277113352
 20
227.7820054182
 30
0.0
 10
84.3902408239
 20
227.7820054182
 30
0.0
  0
SPLINE
  5
3ED
100
AcDbEntity
  8
0
100
AcDbSpline
 62
7
  6
CONTINUOUS
 70
0
 71
3
 72
8
 73
4
 74
0
 42
0.0000001
 43
0.0000001
 44
0.0000000001
 40
0.0
 40
0.0
 40
0.0
 40
0.0
 40
1.0
 40
1.0
 40
1.0
 40
1.0
 10
84.2333410993
 20
228.110933412
 30
0.0
 10
84.2218156839
 20
228.0404487737
 30
0.0
 10
84.2256734147
 20
227.9787748941
 30
0.0
 10
84.2438451816
 20
227.9288483747
 30
0.0
  0
SPLINE
  5
3EE
100
AcDbEntity
  8
0
100
AcDbSpline
 62
7
  6
CONTINUOUS
 70
0
 71
3
 72
8
 73
4
 74
0
 42
0.0000001
 43
0.0000001
 44
0.0000000001
 40
0.0
 40
0.0
 40
0.0
 40
0.0
 40
1.0
 40
1.0
 40
1.0
 40
1.0
 10
84.2650600968
 20
228.3215738119
 30
0.0
 10
84.2557707402
 20
228.2489658483
 30
0.0
 10
84.2448665147
 20
228.1814180502
 30
0.0
 10
84.2333410993
 20
228.110933412
 30
0.0
  0
SPLINE
  5
3EF
100
AcDbEntity
  8
0
100
AcDbSpline
 62
7
  6
CONTINUOUS
 70
0
 71
3
 72
8
 73
4
 74
0
 42
0.0000001
 43
0.0000001
 44
0.0000000001
 40
0.0
 40
0.0
 40
0.0
 40
0.0
 40
1.0
 40
1.0
 40
1.0
 40
1.0
 10
84.2312813094
 20
228.6366308817
 30
0.0
 10
84.2676248433
 20
228.5367778429
 30
0.0
 10
84.2790664334
 20
228.4310508856
 30
0.0
 10
84.2650600968
 20
228.3215738119
 30
0.0
  0
SPLINE
  5
3F0
100
AcDbEntity
  8
0
100
AcDbSpline
 62
7
  6
CONTINUOUS
 70
0
 71
3
 72
8
 73
4
 74
0
 42
0.0000001
 43
0.0000001
 44
0.0000000001
 40
0.0
 40
0.0
 40
0.0
 40
0.0
 40
1.0
 40
1.0
 40
1.0
 40
1.0
 10
84.0727597591
 20
228.8855465274
 30
0.0
 10
84.139209919
 20
228.8245898374
 30
0.0
 10
84.192799844
 20
228.742357839
 30
0.0
 10
84.2312813094
 20
228.6366308817
 30
0.0
  0
SPLINE
  5
3F1
100
AcDbEntity
  8
0
100
AcDbSpline
 62
7
  6
CONTINUOUS
 70
0
 71
3
 72
8
 73
4
 74
0
 42
0.0000001
 43
0.0000001
 44
0.0000000001
 40
0.0
 40
0.0
 40
0.0
 40
0.0
 40
1.0
 40
1.0
 40
1.0
 40
1.0
 10
83.8645486693
 20
228.9802433142
 30
0.0
 10
83.9355280334
 20
228.9802433142
 30
0.0
 10
84.0047456925
 20
228.9479378351
 30
0.0
 10
84.0727597591
 20
228.8855465274
 30
0.0
  0
SPLINE
  5
3F2
100
AcDbEntity
  8
0
100
AcDbSpline
 62
7
  6
CONTINUOUS
 70
0
 71
3
 72
8
 73
4
 74
0
 42
0.0000001
 43
0.0000001
 44
0.0000000001
 40
0.0
 40
0.0
 40
0.0
 40
0.0
 40
1.0
 40
1.0
 40
1.0
 40
1.0
 10
83.5948912765
 20
228.7599789627
 30
0.0
 10
83.6850937101
 20
228.9068218359
 30
0.0
 10
83.7749794424
 20
228.9802433142
 30
0.0
 10
83.8645486693
 20
228.9802433142
 30
0.0
  0
SPLINE
  5
3F3
100
AcDbEntity
  8
0
100
AcDbSpline
 62
7
  6
CONTINUOUS
 70
0
 71
3
 72
8
 73
4
 74
0
 42
0.0000001
 43
0.0000001
 44
0.0000000001
 40
0.0
 40
0.0
 40
0.0
 40
0.0
 40
1.0
 40
1.0
 40
1.0
 40
1.0
 10
83.4320183946
 20
228.3738174732
 30
0.0
 10
83.4656043946
 20
228.5162197241
 30
0.0
 10
83.5227294132
 20
228.6425048002
 30
0.0
 10
83.5948912765
 20
228.7599789627
 30
0.0
  0
SPLINE
  5
3F4
100
AcDbEntity
  8
0
100
AcDbSpline
 62
7
  6
CONTINUOUS
 70
0
 71
3
 72
8
 73
4
 74
0
 42
0.0000001
 43
0.0000001
 44
0.0000000001
 40
0.0
 40
0.0
 40
0.0
 40
0.0
 40
1.0
 40
1.0
 40
1.0
 40
1.0
 10
83.3405988636
 20
227.9171007761
 30
0.0
 10
83.3536684468
 20
228.0182082097
 30
0.0
 10
83.3838697607
 20
228.1696706899
 30
0.0
 10
83.4320183946
 20
228.3738174732
 30
0.0
  0
SPLINE
  5
3F5
100
AcDbEntity
  8
0
100
AcDbSpline
 62
7
  6
CONTINUOUS
 70
0
 71
3
 72
8
 73
4
 74
0
 42
0.0000001
 43
0.0000001
 44
0.0000000001
 40
0.0
 40
0.0
 40
0.0
 40
0.0
 40
1.0
 40
1.0
 40
1.0
 40
1.0
 10
83.3458001529
 20
227.8378056177
 30
0.0
 10
83.3407302278
 20
227.8378056177
 30
0.0
 10
83.3369023212
 20
227.8436795362
 30
0.0
 10
83.3326266317
 20
227.8554268965
 30
0.0
  0
SPLINE
  5
3F6
100
AcDbEntity
  8
0
100
AcDbSpline
 62
7
  6
CONTINUOUS
 70
0
 71
3
 72
8
 73
4
 74
0
 42
0.0000001
 43
0.0000001
 44
0.0000000001
 40
0.0
 40
0.0
 40
0.0
 40
0.0
 40
1.0
 40
1.0
 40
1.0
 40
1.0
 10
83.354148575
 20
227.8613005766
 30
0.0
 10
83.3513207402
 20
227.844455726
 30
0.0
 10
83.3491801031
 20
227.8378056177
 30
0.0
 10
83.3458001529
 20
227.8378056177
 30
0.0
  0
SPLINE
  5
3F7
100
AcDbEntity
  8
0
100
AcDbSpline
 62
7
  6
CONTINUOUS
 70
0
 71
3
 72
8
 73
4
 74
0
 42
0.0000001
 43
0.0000001
 44
0.0000000001
 40
0.0
 40
0.0
 40
0.0
 40
0.0
 40
1.0
 40
1.0
 40
1.0
 40
1.0
 10
83.5250076584
 20
228.5610718543
 30
0.0
 10
83.4703577275
 20
228.4427984842
 30
0.0
 10
83.4258865438
 20
228.2724605688
 30
0.0
 10
83.3866882925
 20
228.0551332125
 30
0.0
  0
SPLINE
  5
3F8
100
AcDbEntity
  8
0
100
AcDbSpline
 62
7
  6
CONTINUOUS
 70
0
 71
3
 72
8
 73
4
 74
0
 42
0.0000001
 43
0.0000001
 44
0.0000000001
 40
0.0
 40
0.0
 40
0.0
 40
0.0
 40
1.0
 40
1.0
 40
1.0
 40
1.0
 10
83.8782715638
 20
228.9332536348
 30
0.0
 10
83.7549025614
 20
228.9332536348
 30
0.0
 10
83.6386279173
 20
228.8069687971
 30
0.0
 10
83.5250076584
 20
228.5610718543
 30
0.0
  0
SPLINE
  5
3F9
100
AcDbEntity
  8
0
100
AcDbSpline
 62
7
  6
CONTINUOUS
 70
0
 71
3
 72
8
 73
4
 74
0
 42
0.0000001
 43
0.0000001
 44
0.0000000001
 40
0.0
 40
0.0
 40
0.0
 40
0.0
 40
1.0
 40
1.0
 40
1.0
 40
1.0
 10
84.0805381611
 20
228.7629159578
 30
0.0
 10
84.0399189377
 20
228.8745163568
 30
0.0
 10
83.9712207408
 20
228.9332536348
 30
0.0
 10
83.8782715638
 20
228.9332536348
 30
0.0
  0
SPLINE
  5
3FA
100
AcDbEntity
  8
0
100
AcDbSpline
 62
7
  6
CONTINUOUS
 70
0
 71
3
 72
8
 73
4
 74
0
 42
0.0000001
 43
0.0000001
 44
0.0000000001
 40
0.0
 40
0.0
 40
0.0
 40
0.0
 40
1.0
 40
1.0
 40
1.0
 40
1.0
 10
84.0853181397
 20
228.4574040041
 30
0.0
 10
84.1049084967
 20
228.5984517225
 30
0.0
 10
84.1040546266
 20
228.6983049997
 30
0.0
 10
84.0805381611
 20
228.7629159578
 30
0.0
  0
SPLINE
  5
3FB
100
AcDbEntity
  8
0
100
AcDbSpline
 62
7
  6
CONTINUOUS
 70
0
 71
3
 72
8
 73
4
 74
0
 42
0.0000001
 43
0.0000001
 44
0.0000000001
 40
0.0
 40
0.0
 40
0.0
 40
0.0
 40
1.0
 40
1.0
 40
1.0
 40
1.0
 10
84.1027225081
 20
228.0287014135
 30
0.0
 10
84.0663788874
 20
228.1285546907
 30
0.0
 10
84.0596310322
 20
228.2724605688
 30
0.0
 10
84.0853181397
 20
228.4574040041
 30
0.0
  0
SPLINE
  5
3FC
100
AcDbEntity
  8
0
100
AcDbSpline
 62
7
  6
CONTINUOUS
 70
0
 71
3
 72
8
 73
4
 74
0
 42
0.0000001
 43
0.0000001
 44
0.0000000001
 40
0.0
 40
0.0
 40
0.0
 40
0.0
 40
1.0
 40
1.0
 40
1.0
 40
1.0
 10
84.4039635812
 20
227.7350157388
 30
0.0
 10
84.2738348157
 20
227.7350157388
 30
0.0
 10
84.1743407403
 20
227.8319319376
 30
0.0
 10
84.1027225081
 20
228.0287014135
 30
0.0
  0
SPLINE
  5
3FD
100
AcDbEntity
  8
0
100
AcDbSpline
 62
7
  6
CONTINUOUS
 70
0
 71
3
 72
8
 73
4
 74
0
 42
0.0000001
 43
0.0000001
 44
0.0000000001
 40
0.0
 40
0.0
 40
0.0
 40
0.0
 40
1.0
 40
1.0
 40
1.0
 40
1.0
 10
84.8231997389
 20
228.342945207
 30
0.0
 10
84.6766545864
 20
227.9376588949
 30
0.0
 10
84.5357824589
 20
227.7350157388
 30
0.0
 10
84.4039635812
 20
227.7350157388
 30
0.0
  0
SPLINE
  5
3FE
100
AcDbEntity
  8
0
100
AcDbSpline
 62
7
  6
CONTINUOUS
 70
0
 71
3
 72
8
 73
4
 74
0
 42
0.0000001
 43
0.0000001
 44
0.0000000001
 40
0.0
 40
0.0
 40
0.0
 40
0.0
 40
1.0
 40
1.0
 40
1.0
 40
1.0
 10
83.865370674
 20
225.6116676816
 30
0.0
 10
83.7018245761
 20
226.0610068926
 30
0.0
 10
83.9266286611
 20
226.4927250036
 30
0.0
 10
84.5420940217
 20
226.9097586759
 30
0.0
  0
SPLINE
  5
3FF
100
AcDbEntity
  8
0
100
AcDbSpline
 62
7
  6
CONTINUOUS
 70
0
 71
3
 72
8
 73
4
 74
0
 42
0.0000001
 43
0.0000001
 44
0.0000000001
 40
0.0
 40
0.0
 40
0.0
 40
0.0
 40
1.0
 40
1.0
 40
1.0
 40
1.0
 10
84.3015955696
 20
225.2210656294
 30
0.0
 10
84.1055572967
 20
225.2210656294
 30
0.0
 10
83.9605053284
 20
225.3502873668
 30
0.0
 10
83.865370674
 20
225.6116676816
 30
0.0
  0
SPLINE
  5
400
100
AcDbEntity
  8
0
100
AcDbSpline
 62
7
  6
CONTINUOUS
 70
0
 71
3
 72
8
 73
4
 74
0
 42
0.0000001
 43
0.0000001
 44
0.0000000001
 40
0.0
 40
0.0
 40
0.0
 40
0.0
 40
1.0
 40
1.0
 40
1.0
 40
1.0
 10
84.96964264
 20
227.1094649919
 30
0.0
 10
84.9516370609
 20
225.8495531567
 30
0.0
 10
84.7291618662
 20
225.2210656294
 30
0.0
 10
84.3015955696
 20
225.2210656294
 30
0.0
  0
SPLINE
  5
401
100
AcDbEntity
  8
0
100
AcDbSpline
 62
7
  6
CONTINUOUS
 70
0
 71
3
 72
8
 73
4
 74
0
 42
0.0000001
 43
0.0000001
 44
0.0000000001
 40
0.0
 40
0.0
 40
0.0
 40
0.0
 40
1.0
 40
1.0
 40
1.0
 40
1.0
 10
84.96964264
 20
227.1094649919
 30
0.0
 10
85.1323708511
 20
227.1916971096
 30
0.0
 10
85.287545013
 20
227.2621816286
 30
0.0
 10
85.4334748329
 20
227.3209186682
 30
0.0
  0
SPLINE
  5
402
100
AcDbEntity
  8
0
100
AcDbSpline
 62
7
  6
CONTINUOUS
 70
0
 71
3
 72
8
 73
4
 74
0
 42
0.0000001
 43
0.0000001
 44
0.0000000001
 40
0.0
 40
0.0
 40
0.0
 40
0.0
 40
1.0
 40
1.0
 40
1.0
 40
1.0
 10
85.4038281448
 20
226.5752235266
 30
0.0
 10
85.4039623745
 20
226.6219466814
 30
0.0
 10
85.4128124868
 20
226.871579636
 30
0.0
 10
85.4334748329
 20
227.3209186682
 30
0.0
  0
SPLINE
  5
403
100
AcDbEntity
  8
0
100
AcDbSpline
 62
7
  6
CONTINUOUS
 70
0
 71
3
 72
8
 73
4
 74
0
 42
0.0000001
 43
0.0000001
 44
0.0000000001
 40
0.0
 40
0.0
 40
0.0
 40
0.0
 40
1.0
 40
1.0
 40
1.0
 40
1.0
 10
85.51469472
 20
225.635162551
 30
0.0
 10
85.4398697098
 20
225.840742577
 30
0.0
 10
85.4026124188
 20
226.1520494708
 30
0.0
 10
85.4038281448
 20
226.5752235266
 30
0.0
  0
SPLINE
  5
404
100
AcDbEntity
  8
0
100
AcDbSpline
 62
7
  6
CONTINUOUS
 70
0
 71
3
 72
8
 73
4
 74
0
 42
0.0000001
 43
0.0000001
 44
0.0000000001
 40
0.0
 40
0.0
 40
0.0
 40
0.0
 40
1.0
 40
1.0
 40
1.0
 40
1.0
 10
85.8749716785
 20
225.2210656294
 30
0.0
 10
85.7347029254
 20
225.2210656294
 30
0.0
 10
85.6151740242
 20
225.3590979316
 30
0.0
 10
85.51469472
 20
225.635162551
 30
0.0
  0
SPLINE
  5
405
100
AcDbEntity
  8
0
100
AcDbSpline
 62
7
  6
CONTINUOUS
 70
0
 71
3
 72
8
 73
4
 74
0
 42
0.0000001
 43
0.0000001
 44
0.0000000001
 40
0.0
 40
0.0
 40
0.0
 40
0.0
 40
1.0
 40
1.0
 40
1.0
 40
1.0
 10
86.0721341324
 20
225.3814829923
 30
0.0
 10
86.0027596139
 20
225.2739290671
 30
0.0
 10
85.9358113293
 20
225.2210656294
 30
0.0
 10
85.8749716785
 20
225.2210656294
 30
0.0
  0
SPLINE
  5
406
100
AcDbEntity
  8
0
100
AcDbSpline
 62
7
  6
CONTINUOUS
 70
0
 71
3
 72
8
 73
4
 74
0
 42
0.0000001
 43
0.0000001
 44
0.0000000001
 40
0.0
 40
0.0
 40
0.0
 40
0.0
 40
1.0
 40
1.0
 40
1.0
 40
1.0
 10
86.2190841035
 20
225.7614474186
 30
0.0
 10
86.1897212096
 20
225.6146045514
 30
0.0
 10
86.1410460012
 20
225.4883196541
 30
0.0
 10
86.0721341324
 20
225.3814829923
 30
0.0
  0
SPLINE
  5
407
100
AcDbEntity
  8
0
100
AcDbSpline
 62
7
  6
CONTINUOUS
 70
0
 71
3
 72
8
 73
4
 74
0
 42
0.0000001
 43
0.0000001
 44
0.0000000001
 40
0.0
 40
0.0
 40
0.0
 40
0.0
 40
1.0
 40
1.0
 40
1.0
 40
1.0
 10
86.0518919356
 20
225.4281538261
 30
0.0
 10
86.1090080786
 20
225.5206251034
 30
0.0
 10
86.1466773555
 20
225.6028571018
 30
0.0
 10
86.1662047766
 20
225.6792154201
 30
0.0
  0
SPLINE
  5
408
100
AcDbEntity
  8
0
100
AcDbSpline
 62
7
  6
CONTINUOUS
 70
0
 71
3
 72
8
 73
4
 74
0
 42
0.0000001
 43
0.0000001
 44
0.0000000001
 40
0.0
 40
0.0
 40
0.0
 40
0.0
 40
1.0
 40
1.0
 40
1.0
 40
1.0
 10
85.8832187192
 20
225.2680553497
 30
0.0
 10
85.9288483202
 20
225.2680553497
 30
0.0
 10
85.9856567544
 20
225.3209187874
 30
0.0
 10
86.0518919356
 20
225.4281538261
 30
0.0
  0
SPLINE
  5
409
100
AcDbEntity
  8
0
100
AcDbSpline
 62
7
  6
CONTINUOUS
 70
0
 71
3
 72
8
 73
4
 74
0
 42
0.0000001
 43
0.0000001
 44
0.0000000001
 40
0.0
 40
0.0
 40
0.0
 40
0.0
 40
1.0
 40
1.0
 40
1.0
 40
1.0
 10
85.6904409585
 20
225.491256524
 30
0.0
 10
85.7449563244
 20
225.341476787
 30
0.0
 10
85.8088592679
 20
225.2680553497
 30
0.0
 10
85.8832187192
 20
225.2680553497
 30
0.0
  0
SPLINE
  5
40A
100
AcDbEntity
  8
0
100
AcDbSpline
 62
7
  6
CONTINUOUS
 70
0
 71
3
 72
8
 73
4
 74
0
 42
0.0000001
 43
0.0000001
 44
0.0000000001
 40
0.0
 40
0.0
 40
0.0
 40
0.0
 40
1.0
 40
1.0
 40
1.0
 40
1.0
 10
85.6597000454
 20
227.4237087854
 30
0.0
 10
85.5789443642
 20
226.410492886
 30
0.0
 10
85.5899616489
 20
225.7673211583
 30
0.0
 10
85.6904409585
 20
225.491256524
 30
0.0
  0
SPLINE
  5
40B
100
AcDbEntity
  8
0
100
AcDbSpline
 62
7
  6
CONTINUOUS
 70
0
 71
3
 72
8
 73
4
 74
0
 42
0.0000001
 43
0.0000001
 44
0.0000000001
 40
0.0
 40
0.0
 40
0.0
 40
0.0
 40
1.0
 40
1.0
 40
1.0
 40
1.0
 10
86.4147042879
 20
228.275036601
 30
0.0
 10
86.2922087534
 20
227.9053534159
 30
0.0
 10
86.0409978727
 20
227.6204782614
 30
0.0
 10
85.6597000454
 20
227.4237087854
 30
0.0
  0
SPLINE
  5
40C
100
AcDbEntity
  8
0
100
AcDbSpline
 62
7
  6
CONTINUOUS
 70
0
 71
3
 72
8
 73
4
 74
0
 42
0.0000001
 43
0.0000001
 44
0.0000000001
 40
0.0
 40
0.0
 40
0.0
 40
0.0
 40
1.0
 40
1.0
 40
1.0
 40
1.0
 10
86.4264647709
 20
229.003738273
 30
0.0
 10
86.5066344688
 20
228.7834738382
 30
0.0
 10
86.5024060942
 20
228.5397146829
 30
0.0
 10
86.4147042879
 20
228.275036601
 30
0.0
  0
SPLINE
  5
40D
100
AcDbEntity
  8
KONSTRUKTIONSELEMENTE
100
AcDbSpline
 62
7
  6
CONTINUOUS
 70
0
 71
3
 72
16
 73
12
 74
0
 42
0.0000001
 43
0.0000001
 44
0.0000000001
 40
0.0
 40
0.0
 40
0.0
 40
0.0
 40
0.1574154545
 40
0.3058052626
 40
0.4432215236
 40
0.5689269994
 40
0.6276718523
 40
0.6840331369
 40
0.7913546896
 40
0.8955882343
 40
1.0
 40
1.0
 40
1.0
 40
1.0
 10
300.1779686111
 20
202.8772741173
 30
0.0
 10
300.9533223496
 20
202.7778028625
 30
0.0
 10
302.4537429124
 20
202.5339671371
 30
0.0
 10
304.5954602726
 20
202.016056218
 30
0.0
 10
306.5337825092
 20
201.3595010086
 30
0.0
 10
307.9871554529
 20
200.6829998034
 30
0.0
 10
309.010304868
 20
200.0614954999
 30
0.0
 10
309.9048979721
 20
199.4122275494
 30
0.0
 10
310.8667851698
 20
198.4757917699
 30
0.0
 10
311.6774965312
 20
197.1057917449
 30
0.0
 10
311.877688961
 20
196.0605851803
 30
0.0
 10
311.8771029895
 20
195.5420878218
 30
0.0
  0
SPLINE
  5
40E
100
AcDbEntity
  8
KONSTRUKTIONSELEMENTE
100
AcDbSpline
 62
7
  6
CONTINUOUS
 70
0
 71
3
 72
11
 73
7
 74
0
 42
0.0000001
 43
0.0000001
 44
0.0000000001
 40
0.0
 40
0.0
 40
0.0
 40
0.0
 40
0.096277488
 40
0.2682077564
 40
0.5604563552
 40
1.0
 40
1.0
 40
1.0
 40
1.0
 10
307.8833333632
 20
195.543828915
 30
0.0
 10
307.8834688235
 20
195.531421026
 30
0.0
 10
307.8743894003
 20
195.4974178584
 30
0.0
 10
307.85077341
 20
195.4295464725
 30
0.0
 10
307.8033617743
 20
195.3226097452
 30
0.0
 10
307.7522309054
 20
195.2429142234
 30
0.0
 10
307.7192403809
 20
195.1968613807
 30
0.0
  0
SPLINE
  5
40F
100
AcDbEntity
  8
KONSTRUKTIONSELEMENTE
100
AcDbSpline
 62
7
  6
CONTINUOUS
 70
0
 71
3
 72
20
 73
16
 74
0
 42
0.0000001
 43
0.0000001
 44
0.0000000001
 40
0.0
 40
0.0
 40
0.0
 40
0.0
 40
0.2147321695
 40
0.4129347433
 40
0.5898257515
 40
0.6687959236
 40
0.7405713658
 40
0.8045033188
 40
0.8598957751
 40
0.906089213
 40
0.9424403843
 40
0.9683668012
 40
0.9851817231
 40
0.9949210258
 40
1.0
 40
1.0
 40
1.0
 40
1.0
 10
300.1819714392
 20
198.8395319879
 30
0.0
 10
300.7928867444
 20
198.7504880482
 30
0.0
 10
301.9628797214
 20
198.5426827002
 30
0.0
 10
303.6085466123
 20
198.1274372923
 30
0.0
 10
304.8454918427
 20
197.7032234108
 30
0.0
 10
305.7095156841
 20
197.3269094008
 30
0.0
 10
306.2603458169
 20
197.0474947989
 30
0.0
 10
306.732558206
 20
196.7657560511
 30
0.0
 10
307.1219517109
 20
196.4911246652
 30
0.0
 10
307.4229329365
 20
196.2319121421
 30
0.0
 10
307.6376941282
 20
196.0048234733
 30
0.0
 10
307.7726836891
 20
195.8210733901
 30
0.0
 10
307.8419187636
 20
195.685751747
 30
0.0
 10
307.8703521923
 20
195.5998795502
 30
0.0
 10
307.8831739542
 20
195.5584304627
 30
0.0
 10
307.8833333632
 20
195.543828915
 30
0.0
  0
SPLINE
  5
410
100
AcDbEntity
  8
KONSTRUKTIONSELEMENTE
100
AcDbSpline
 62
7
  6
CONTINUOUS
 70
0
 71
3
 72
20
 73
16
 74
0
 42
0.0000001
 43
0.0000001
 44
0.0000000001
 40
0.0
 40
0.0
 40
0.0
 40
0.0
 40
0.0050267309
 40
0.0147387772
 40
0.0316355409
 40
0.0575797519
 40
0.0939324722
 40
0.140145996
 40
0.195549603
 40
0.2594860037
 40
0.3312624014
 40
0.4102299539
 40
0.5871096456
 40
0.785292358
 40
1.0
 40
1.0
 40
1.0
 40
1.0
 10
282.8709266226
 20
195.5444713443
 30
0.0
 10
282.8707688625
 20
195.5589218518
 30
0.0
 10
282.883218782
 20
195.6003468817
 30
0.0
 10
282.9130069944
 20
195.6856759192
 30
0.0
 10
282.9818456542
 20
195.8213383087
 30
0.0
 10
283.1168654262
 20
196.0055028046
 30
0.0
 10
283.3318875791
 20
196.2324570372
 30
0.0
 10
283.6330101039
 20
196.491608581
 30
0.0
 10
284.0224690071
 20
196.766274994
 30
0.0
 10
284.4947520793
 20
197.0479273214
 30
0.0
 10
285.0455611197
 20
197.3273178117
 30
0.0
 10
285.9095446731
 20
197.7034958553
 30
0.0
 10
287.1463332308
 20
198.1276178779
 30
0.0
 10
288.7917605583
 20
198.5427562794
 30
0.0
 10
289.961560143
 20
198.750516756
 30
0.0
 10
290.5723701311
 20
198.8395438244
 30
0.0
  0
SPLINE
  5
411
100
AcDbEntity
  8
KONSTRUKTIONSELEMENTE
100
AcDbSpline
 62
7
  6
CONTINUOUS
 70
0
 71
3
 72
16
 73
12
 74
0
 42
0.0000001
 43
0.0000001
 44
0.0000000001
 40
0.0
 40
0.0
 40
0.0
 40
0.0
 40
0.104412378
 40
0.2086607943
 40
0.3159774906
 40
0.372346759
 40
0.4310942235
 40
0.5568038577
 40
0.694218311
 40
0.8425994892
 40
1.0
 40
1.0
 40
1.0
 40
1.0
 10
278.8771569963
 20
195.5462124374
 30
0.0
 10
278.8777428154
 20
196.0645749886
 30
0.0
 10
279.0776536468
 20
197.1094249841
 30
0.0
 10
279.8897620707
 20
198.4784008411
 30
0.0
 10
280.8517319562
 20
199.4141914303
 30
0.0
 10
281.7463129081
 20
200.0630472967
 30
0.0
 10
282.7693837861
 20
200.684198172
 30
0.0
 10
284.2225111098
 20
201.3602684502
 30
0.0
 10
286.1603374288
 20
202.0164764198
 30
0.0
 10
288.3013859783
 20
202.5341196482
 30
0.0
 10
289.8012940154
 20
202.7778501441
 30
0.0
 10
290.5763682475
 20
202.8772838398
 30
0.0
  0
SPLINE
  5
412
100
AcDbEntity
  8
KONSTRUKTIONSELEMENTE
100
AcDbSpline
 62
7
  6
CONTINUOUS
 70
0
 71
3
 72
11
 73
7
 74
0
 42
0.0000001
 43
0.0000001
 44
0.0000000001
 40
0.0
 40
0.0
 40
0.0
 40
0.0
 40
0.4390353498
 40
0.7301387058
 40
0.9030343559
 40
1.0
 40
1.0
 40
1.0
 40
1.0
 10
283.0364807753
 20
195.1947685808
 30
0.0
 10
283.0030979663
 20
195.2410249024
 30
0.0
 10
282.9514516701
 20
195.3210241647
 30
0.0
 10
282.9033360545
 20
195.4286573784
 30
0.0
 10
282.8807127735
 20
195.4975745245
 30
0.0
 10
282.8710641595
 20
195.5318732387
 30
0.0
 10
282.8709266226
 20
195.5444713443
 30
0.0
  0
SPLINE
  5
413
100
AcDbEntity
  8
0
100
AcDbSpline
 62
7
  6
CONTINUOUS
 70
0
 71
3
 72
12
 73
8
 74
0
 42
0.0000001
 43
0.0000001
 44
0.0000000001
 40
0.0
 40
0.0
 40
0.0
 40
0.0
 40
0.1060732234
 40
0.1873808103
 40
0.2941245641
 40
0.5900602544
 40
1.0
 40
1.0
 40
1.0
 40
1.0
 10
300.1755095059
 20
230.6710653853
 30
0.0
 10
300.175794009
 20
230.6710654078
 30
0.0
 10
300.1762463401
 20
230.6706630349
 30
0.0
 10
300.1765328007
 20
230.6699436162
 30
0.0
 10
300.1768702036
 20
230.6686794053
 30
0.0
 10
300.1770834135
 20
230.6665060865
 30
0.0
 10
300.1771299027
 20
230.6646124837
 30
0.0
 10
300.1771299642
 20
230.6635129684
 30
0.0
  0
SPLINE
  5
414
100
AcDbEntity
  8
0
100
AcDbSpline
 62
7
  6
CONTINUOUS
 70
0
 71
3
 72
39
 73
35
 74
0
 42
0.0000001
 43
0.0000001
 44
0.0000000001
 40
0.0
 40
0.0
 40
0.0
 40
0.0
 40
0.0003419778
 40
0.0010026121
 40
0.0020139356
 40
0.0033794148
 40
0.0050954362
 40
0.0071554051
 40
0.0095507187
 40
0.0122713696
 40
0.0186438824
 40
0.0261774615
 40
0.0347717836
 40
0.0443271378
 40
0.0547481168
 40
0.0659458872
 40
0.0778392873
 40
0.0903550528
 40
0.1170003189
 40
0.1454442368
 40
0.1753464542
 40
0.2064423656
 40
0.2385252759
 40
0.2714323045
 40
0.3050336763
 40
0.3392250595
 40
0.4090523377
 40
0.4803948228
 40
0.5528849375
 40
0.6262506586
 40
0.7002817502
 40
0.7748085255
 40
0.8496880709
 40
1.0
 40
1.0
 40
1.0
 40
1.0
 10
300.1755094951
 20
230.9710653939
 30
0.0
 10
300.1749303747
 20
230.9710653444
 30
0.0
 10
300.1735218798
 20
230.9697353887
 30
0.0
 10
300.1717483565
 20
230.9669849392
 30
0.0
 10
300.1693360803
 20
230.9623556026
 30
0.0
 10
300.166519915
 20
230.9560529582
 30
0.0
 10
300.1632182197
 20
230.9479833659
 30
0.0
 10
300.1594882441
 20
230.9382243851
 30
0.0
 10
300.1553324516
 20
230.9268032453
 30
0.0
 10
300.1489079596
 20
230.9084396798
 30
0.0
 10
300.1400069311
 20
230.8817253808
 30
0.0
 10
300.1284179425
 20
230.8454268314
 30
0.0
 10
300.1155854473
 20
230.8038692194
 30
0.0
 10
300.1016613367
 20
230.7575329417
 30
0.0
 10
300.0867916685
 20
230.7068784118
 30
0.0
 10
300.0711116039
 20
230.6523363422
 30
0.0
 10
300.0547448973
 20
230.5943014036
 30
0.0
 10
300.0316695847
 20
230.5109795277
 30
0.0
 10
300.0018625395
 20
230.4004410057
 30
0.0
 10
299.9655421164
 20
230.2611693194
 30
0.0
 10
299.928507164
 20
230.1142999676
 30
0.0
 10
299.8912000574
 20
229.9611491433
 30
0.0
 10
299.8539795798
 20
229.8027453772
 30
0.0
 10
299.8171410494
 20
229.639899286
 30
0.0
 10
299.780932027
 20
229.4732560153
 30
0.0
 10
299.7334409767
 20
229.2450917764
 30
0.0
 10
299.6768749869
 20
228.9535458356
 30
0.0
 10
299.6147295211
 20
228.5970785466
 30
0.0
 10
299.5588691394
 20
228.2335051131
 30
0.0
 10
299.5101476445
 20
227.8643101076
 30
0.0
 10
299.4692814461
 20
227.4906916407
 30
0.0
 10
299.4368642195
 20
227.1136652961
 30
0.0
 10
299.4054893128
 20
226.607047441
 30
0.0
 10
299.395945578
 20
226.2256105455
 30
0.0
 10
299.395945578
 20
225.9710656294
 30
0.0
  0
LINE
  5
415
100
AcDbEntity
  8
0
100
AcDbLine
 62
7
  6
CONTINUOUS
 10
300.1771299925
 20
219.5062775916
 11
300.1770871057
 21
219.537361214
  0
SPLINE
  5
416
100
AcDbEntity
  8
0
100
AcDbSpline
 62
7
  6
CONTINUOUS
 70
0
 71
3
 72
12
 73
8
 74
0
 42
0.0000001
 43
0.0000001
 44
0.0000000001
 40
0.0
 40
0.0
 40
0.0
 40
0.0
 40
0.409939745
 40
0.7058754348
 40
0.8126191886
 40
0.8939267756
 40
1.0
 40
1.0
 40
1.0
 40
1.0
 10
300.1771299642
 20
221.2786182901
 30
0.0
 10
300.1771299027
 20
221.2775187749
 30
0.0
 10
300.1770834135
 20
221.2756251721
 30
0.0
 10
300.1768702036
 20
221.2734518534
 30
0.0
 10
300.1765328007
 20
221.2721876425
 30
0.0
 10
300.1762463401
 20
221.2714682238
 30
0.0
 10
300.175794009
 20
221.2710658509
 30
0.0
 10
300.1755095059
 20
221.2710658734
 30
0.0
  0
LINE
  5
417
100
AcDbEntity
  8
0
100
AcDbLine
 62
7
  6
CONTINUOUS
 10
300.1761666612
 20
227.1854689683
 11
300.1759864865
 21
227.1811516031
  0
SPLINE
  5
418
100
AcDbEntity
  8
0
100
AcDbSpline
 62
7
  6
CONTINUOUS
 70
0
 71
3
 72
15
 73
11
 74
0
 42
0.0000001
 43
0.0000001
 44
0.0000000001
 40
0.0
 40
0.0
 40
0.0
 40
0.0
 40
0.367456601
 40
0.5264633634
 40
0.6664945619
 40
0.7856139557
 40
0.8819472447
 40
0.9538233903
 40
0.9801757671
 40
1.0
 40
1.0
 40
1.0
 40
1.0
 10
300.1216036227
 20
230.6712341026
 30
0.0
 10
300.1291788061
 20
230.7070604047
 30
0.0
 10
300.1399849228
 20
230.758399737
 30
0.0
 10
300.1532930661
 20
230.823471834
 30
0.0
 10
300.1613976207
 20
230.8643470695
 30
0.0
 10
300.1679707109
 20
230.8991589012
 30
0.0
 10
300.1728497926
 20
230.927372824
 30
0.0
 10
300.1756908474
 20
230.9465605307
 30
0.0
 10
300.1768794632
 20
230.9582654448
 30
0.0
 10
300.1771300042
 20
230.9628653576
 30
0.0
 10
300.1771299924
 20
230.9648409153
 30
0.0
  0
SPLINE
  5
419
100
AcDbEntity
  8
0
100
AcDbSpline
 62
7
  6
CONTINUOUS
 70
0
 71
3
 72
39
 73
35
 74
0
 42
0.0000001
 43
0.0000001
 44
0.0000000001
 40
0.0
 40
0.0
 40
0.0
 40
0.0
 40
0.1503119291
 40
0.2251914745
 40
0.2997182498
 40
0.3737493414
 40
0.4471150625
 40
0.5196051772
 40
0.5909476623
 40
0.6607749405
 40
0.6949663237
 40
0.7285676955
 40
0.7614747241
 40
0.7935576344
 40
0.8246535459
 40
0.8545557632
 40
0.8829996811
 40
0.9096449472
 40
0.9221607127
 40
0.9340541128
 40
0.9452518832
 40
0.9556728622
 40
0.9652282164
 40
0.9738225385
 40
0.9813561176
 40
0.9877286304
 40
0.9904492813
 40
0.9928445949
 40
0.9949045638
 40
0.9966205852
 40
0.9979860644
 40
0.9989973879
 40
0.9996580222
 40
1.0
 40
1.0
 40
1.0
 40
1.0
 10
299.395945578
 20
225.9710656294
 30
0.0
 10
299.395945578
 20
225.7165207133
 30
0.0
 10
299.4054893128
 20
225.3350838177
 30
0.0
 10
299.4368642195
 20
224.8284659626
 30
0.0
 10
299.4692814461
 20
224.4514396181
 30
0.0
 10
299.5101476445
 20
224.0778211512
 30
0.0
 10
299.5588691394
 20
223.7086261456
 30
0.0
 10
299.6147295211
 20
223.3450527122
 30
0.0
 10
299.6768749869
 20
222.9885854231
 30
0.0
 10
299.7334409767
 20
222.6970394823
 30
0.0
 10
299.780932027
 20
222.4688752434
 30
0.0
 10
299.8171410494
 20
222.3022319727
 30
0.0
 10
299.8539795798
 20
222.1393858815
 30
0.0
 10
299.8912000574
 20
221.9809821154
 30
0.0
 10
299.928507164
 20
221.8278312911
 30
0.0
 10
299.9655421164
 20
221.6809619393
 30
0.0
 10
300.0018625395
 20
221.541690253
 30
0.0
 10
300.0316695847
 20
221.4311517311
 30
0.0
 10
300.0547448973
 20
221.3478298552
 30
0.0
 10
300.071111604
 20
221.2897949165
 30
0.0
 10
300.0867916685
 20
221.2352528469
 30
0.0
 10
300.1016613367
 20
221.184598317
 30
0.0
 10
300.1155854473
 20
221.1382620393
 30
0.0
 10
300.1284179425
 20
221.0967044273
 30
0.0
 10
300.1400069311
 20
221.060405878
 30
0.0
 10
300.1489079596
 20
221.0336915789
 30
0.0
 10
300.1553324516
 20
221.0153280134
 30
0.0
 10
300.1594882441
 20
221.0039068737
 30
0.0
 10
300.1632182197
 20
220.9941478928
 30
0.0
 10
300.166519915
 20
220.9860783005
 30
0.0
 10
300.1693360803
 20
220.9797756561
 30
0.0
 10
300.1717483565
 20
220.9751463196
 30
0.0
 10
300.1735218798
 20
220.97239587
 30
0.0
 10
300.1749303747
 20
220.9710659143
 30
0.0
 10
300.1755094951
 20
220.9710658648
 30
0.0
  0
SPLINE
  5
41A
100
AcDbEntity
  8
0
100
AcDbSpline
 62
7
  6
CONTINUOUS
 70
0
 71
3
 72
15
 73
11
 74
0
 42
0.0000001
 43
0.0000001
 44
0.0000000001
 40
0.0
 40
0.0
 40
0.0
 40
0.0
 40
0.0198242328
 40
0.0461766096
 40
0.1180527552
 40
0.2143860441
 40
0.3335054379
 40
0.4735366365
 40
0.6325433989
 40
1.0
 40
1.0
 40
1.0
 40
1.0
 10
300.1771299924
 20
220.9772903434
 30
0.0
 10
300.1771300042
 20
220.9792659011
 30
0.0
 10
300.1768794632
 20
220.9838658139
 30
0.0
 10
300.1756908474
 20
220.9955707279
 30
0.0
 10
300.1728497926
 20
221.0147584346
 30
0.0
 10
300.1679707109
 20
221.0429723574
 30
0.0
 10
300.1613976208
 20
221.0777841891
 30
0.0
 10
300.1532930661
 20
221.1186594244
 30
0.0
 10
300.1399849229
 20
221.1837315215
 30
0.0
 10
300.1291788062
 20
221.2350708537
 30
0.0
 10
300.1216036227
 20
221.2708971557
 30
0.0
  0
LINE
  5
41B
100
AcDbEntity
  8
0
100
AcDbLine
 62
7
  6
CONTINUOUS
 10
300.1770870656
 20
218.5479720429
 11
300.1771299925
 21
218.5790701703
  0
SPLINE
  5
41C
100
AcDbEntity
  8
0
100
AcDbSpline
 62
7
  6
CONTINUOUS
 70
0
 71
3
 72
29
 73
25
 74
0
 42
0.0000001
 43
0.0000001
 44
0.0000000001
 40
0.0
 40
0.0
 40
0.0
 40
0.0
 40
0.0031904382
 40
0.0069331103
 40
0.0117033344
 40
0.0177404729
 40
0.0251184283
 40
0.0338078057
 40
0.0437163213
 40
0.0547182268
 40
0.0794522463
 40
0.1069917946
 40
0.1365308432
 40
0.1674930884
 40
0.1994804058
 40
0.2322187451
 40
0.2992413291
 40
0.3676000647
 40
0.4367822355
 40
0.5064941042
 40
0.5765574546
 40
0.7173236935
 40
0.8585554599
 40
1.0
 40
1.0
 40
1.0
 40
1.0
 10
300.1002868583
 20
225.2680553497
 30
0.0
 10
300.101756506
 20
225.2680553497
 30
0.0
 10
300.104984766
 20
225.2688607763
 30
0.0
 10
300.1092531238
 20
225.2723315807
 30
0.0
 10
300.1131595311
 20
225.2778318612
 30
0.0
 10
300.1168205582
 20
225.2853937555
 30
0.0
 10
300.1202527849
 20
225.2949930929
 30
0.0
 10
300.1234529922
 20
225.306530341
 30
0.0
 10
300.1264174955
 20
225.3198434373
 30
0.0
 10
300.1302062028
 20
225.3405286901
 30
0.0
 10
300.134210955
 20
225.3694111249
 30
0.0
 10
300.1381365059
 20
225.4068956546
 30
0.0
 10
300.1414458697
 20
225.4473183851
 30
0.0
 10
300.1442493119
 20
225.4898312728
 30
0.0
 10
300.1466377218
 20
225.5338450943
 30
0.0
 10
300.1493900564
 20
225.5944719049
 30
0.0
 10
300.1521067793
 20
225.6718689441
 30
0.0
 10
300.1545900383
 20
225.7660672729
 30
0.0
 10
300.156521572
 20
225.8615173854
 30
0.0
 10
300.158040856
 20
225.9577600309
 30
0.0
 10
300.1596442495
 20
226.0869792588
 30
0.0
 10
300.161024243
 20
226.24914796
 30
0.0
 10
300.1620272273
 20
226.4442007264
 30
0.0
 10
300.1623835588
 20
226.574412747
 30
0.0
 10
300.1625025775
 20
226.6395678409
 30
0.0
  0
LINE
  5
41D
100
AcDbEntity
  8
0
100
AcDbLine
 62
7
  6
CONTINUOUS
 10
300.1639014565
 20
228.3128224301
 11
300.1646387879
 21
228.3430186648
  0
SPLINE
  5
41E
100
AcDbEntity
  8
0
100
AcDbSpline
 62
7
  6
CONTINUOUS
 70
0
 71
3
 72
25
 73
21
 74
0
 42
0.0000001
 43
0.0000001
 44
0.0000000001
 40
0.0
 40
0.0
 40
0.0
 40
0.0
 40
0.0031135984
 40
0.0067205558
 40
0.0111684747
 40
0.016614415
 40
0.0306074395
 40
0.048497606
 40
0.0697416078
 40
0.0937593095
 40
0.1200323698
 40
0.1481309825
 40
0.2085126399
 40
0.2729510169
 40
0.3402308673
 40
0.4095757219
 40
0.5525649726
 40
0.6994149787
 40
0.8488128214
 40
1.0
 40
1.0
 40
1.0
 40
1.0
 10
300.1206019326
 20
227.7820054182
 30
0.0
 10
300.1211586057
 20
227.7820054182
 30
0.0
 10
300.1223692712
 20
227.7822982641
 30
0.0
 10
300.1240061634
 20
227.783496867
 30
0.0
 10
300.1255548598
 20
227.7853671479
 30
0.0
 10
300.127727973
 20
227.789056848
 30
0.0
 10
300.1301548935
 20
227.7953071255
 30
0.0
 10
300.1327250884
 20
227.8044536907
 30
0.0
 10
300.1351140637
 20
227.8154954875
 30
0.0
 10
300.1373269951
 20
227.8280935804
 30
0.0
 10
300.1393689914
 20
227.8419606146
 30
0.0
 10
300.1419440906
 20
227.8623157911
 30
0.0
 10
300.1447396842
 20
227.889515787
 30
0.0
 10
300.1475970619
 20
227.9237429043
 30
0.0
 10
300.1501037033
 20
227.9596038895
 30
0.0
 10
300.1530931839
 20
228.0095065216
 30
0.0
 10
300.1562015202
 20
228.0736508374
 30
0.0
 10
300.1592452791
 20
228.152122697
 30
0.0
 10
300.1617951015
 20
228.2320784225
 30
0.0
 10
300.1632323122
 20
228.2858003046
 30
0.0
 10
300.1639014565
 20
228.3128224301
 30
0.0
  0
SPLINE
  5
41F
100
AcDbEntity
  8
0
100
AcDbSpline
 62
7
  6
CONTINUOUS
 70
0
 71
3
 72
10
 73
6
 74
0
 42
0.0000001
 43
0.0000001
 44
0.0000000001
 40
0.0
 40
0.0
 40
0.0
 40
0.0
 40
0.5341361268
 40
0.7795205023
 40
1.0
 40
1.0
 40
1.0
 40
1.0
 10
299.9268106737
 20
228.7599789627
 30
0.0
 10
299.9332782555
 20
228.7912910406
 30
0.0
 10
299.9433954629
 20
228.8368741695
 30
0.0
 10
299.9593596088
 20
228.8945727049
 30
0.0
 10
299.9682498666
 20
228.9210433604
 30
0.0
 10
299.9731440664
 20
228.9333001031
 30
0.0
  0
SPLINE
  5
420
100
AcDbEntity
  8
0
100
AcDbSpline
 62
7
  6
CONTINUOUS
 70
0
 71
3
 72
13
 73
9
 74
0
 42
0.0000001
 43
0.0000001
 44
0.0000000001
 40
0.0
 40
0.0
 40
0.0
 40
0.0
 40
0.3364184508
 40
0.6188951528
 40
0.7364167053
 40
0.8373806582
 40
0.9235329321
 40
1.0
 40
1.0
 40
1.0
 40
1.0
 10
299.9731440664
 20
228.9333001031
 30
0.0
 10
299.9756959661
 20
228.9396909289
 30
0.0
 10
299.9807499032
 20
228.9513043982
 30
0.0
 10
299.988170358
 20
228.964493608
 30
0.0
 10
299.994551894
 20
228.9725434797
 30
0.0
 10
299.999136812
 20
228.9768128366
 30
0.0
 10
300.0038457629
 20
228.9795642858
 30
0.0
 10
300.0071901518
 20
228.9802433142
 30
0.0
 10
300.0087542962
 20
228.9802433142
 30
0.0
  0
SPLINE
  5
421
100
AcDbEntity
  8
0
100
AcDbSpline
 62
7
  6
CONTINUOUS
 70
0
 71
3
 72
9
 73
5
 74
0
 42
0.0000001
 43
0.0000001
 44
0.0000000001
 40
0.0
 40
0.0
 40
0.0
 40
0.0
 40
0.5163212109
 40
1.0
 40
1.0
 40
1.0
 40
1.0
 10
299.868758687
 20
228.3738174732
 30
0.0
 10
299.8747114362
 20
228.4407900645
 30
0.0
 10
299.8905050463
 20
228.5701608258
 30
0.0
 10
299.9140697524
 20
228.6982952086
 30
0.0
 10
299.9268106737
 20
228.7599789627
 30
0.0
  0
SPLINE
  5
422
100
AcDbEntity
  8
0
100
AcDbSpline
 62
7
  6
CONTINUOUS
 70
0
 71
3
 72
9
 73
5
 74
0
 42
0.0000001
 43
0.0000001
 44
0.0000000001
 40
0.0
 40
0.0
 40
0.0
 40
0.0
 40
0.2508853355
 40
1.0
 40
1.0
 40
1.0
 40
1.0
 10
299.8332355843
 20
227.9171007761
 30
0.0
 10
299.8338364099
 20
227.9287098754
 30
0.0
 10
299.8364493274
 20
227.9749711372
 30
0.0
 10
299.8396696535
 20
228.0211958253
 30
0.0
 10
299.8422368136
 20
228.0558105847
 30
0.0
  0
SPLINE
  5
423
100
AcDbEntity
  8
0
100
AcDbSpline
 62
7
  6
CONTINUOUS
 70
0
 71
3
 72
9
 73
5
 74
0
 42
0.0000001
 43
0.0000001
 44
0.0000000001
 40
0.0
 40
0.0
 40
0.0
 40
0.0
 40
0.5011650963
 40
1.0
 40
1.0
 40
1.0
 40
1.0
 10
299.8422368136
 20
228.0558105847
 30
0.0
 10
299.8461796102
 20
228.1089739842
 30
0.0
 10
299.8547982534
 20
228.2149974643
 30
0.0
 10
299.864060919
 20
228.3209642987
 30
0.0
 10
299.868758687
 20
228.3738174732
 30
0.0
  0
SPLINE
  5
424
100
AcDbEntity
  8
0
100
AcDbSpline
 62
7
  6
CONTINUOUS
 70
0
 71
3
 72
12
 73
8
 74
0
 42
0.0000001
 43
0.0000001
 44
0.0000000001
 40
0.0
 40
0.0
 40
0.0
 40
0.0
 40
0.0654104765
 40
0.1643133679
 40
0.4208410065
 40
0.7055748785
 40
1.0
 40
1.0
 40
1.0
 40
1.0
 10
299.8353145505
 20
227.8378056177
 30
0.0
 10
299.8349031927
 20
227.8378056177
 30
0.0
 10
299.8339648661
 20
227.8385186357
 30
0.0
 10
299.8328815545
 20
227.8409146958
 30
0.0
 10
299.8318259184
 20
227.8448347707
 30
0.0
 10
299.8308641604
 20
227.849993407
 30
0.0
 10
299.830303753
 20
227.8535948468
 30
0.0
 10
299.83003539
 20
227.8554268965
 30
0.0
  0
SPLINE
  5
425
100
AcDbEntity
  8
0
100
AcDbSpline
 62
7
  6
CONTINUOUS
 70
0
 71
3
 72
17
 73
13
 74
0
 42
0.0000001
 43
0.0000001
 44
0.0000000001
 40
0.0
 40
0.0
 40
0.0
 40
0.0
 40
0.1805002818
 40
0.3534507339
 40
0.5151355133
 40
0.6603835025
 40
0.7830782948
 40
0.8783753816
 40
0.9157298784
 40
0.9472380785
 40
0.9745832467
 40
1.0
 40
1.0
 40
1.0
 40
1.0
 10
300.0621768402
 20
228.7629159578
 30
0.0
 10
300.0612773699
 20
228.7740039962
 30
0.0
 10
300.0593056818
 20
228.7957000981
 30
0.0
 10
300.0556039028
 20
228.8272376884
 30
0.0
 10
300.0510847113
 20
228.8564725602
 30
0.0
 10
300.0456426617
 20
228.8824138605
 30
0.0
 10
300.0392164027
 20
228.9038743751
 30
0.0
 10
300.032611631
 20
228.9183112558
 30
0.0
 10
300.0264829643
 20
228.9264178066
 30
0.0
 10
300.0220135648
 20
228.9303927311
 30
0.0
 10
300.0173079789
 20
228.9327538423
 30
0.0
 10
300.014032697
 20
228.9332536348
 30
0.0
 10
300.0124662302
 20
228.9332536348
 30
0.0
  0
SPLINE
  5
426
100
AcDbEntity
  8
0
100
AcDbSpline
 62
7
  6
CONTINUOUS
 70
0
 71
3
 72
12
 73
8
 74
0
 42
0.0000001
 43
0.0000001
 44
0.0000000001
 40
0.0
 40
0.0
 40
0.0
 40
0.0
 40
0.2504026035
 40
0.5020363211
 40
0.7538925507
 40
0.8785584713
 40
1.0
 40
1.0
 40
1.0
 40
1.0
 10
300.063239631
 20
228.4574040041
 30
0.0
 10
300.0640251704
 20
228.4829026178
 30
0.0
 10
300.065382435
 20
228.5340326896
 30
0.0
 10
300.0664836915
 20
228.6108318826
 30
0.0
 10
300.0662066321
 20
228.6748364006
 30
0.0
 10
300.064633084
 20
228.7255466555
 30
0.0
 10
300.0631772059
 20
228.7505841521
 30
0.0
 10
300.0621768402
 20
228.7629159578
 30
0.0
  0
SPLINE
  5
427
100
AcDbEntity
  8
0
100
AcDbSpline
 62
7
  6
CONTINUOUS
 70
0
 71
3
 72
10
 73
6
 74
0
 42
0.0000001
 43
0.0000001
 44
0.0000000001
 40
0.0
 40
0.0
 40
0.0
 40
0.0
 40
0.2451330145
 40
0.4968040739
 40
1.0
 40
1.0
 40
1.0
 40
1.0
 10
300.067066158
 20
228.0287014135
 30
0.0
 10
300.0642952796
 20
228.0636367211
 30
0.0
 10
300.0608889662
 20
228.1346130011
 30
0.0
 10
300.0589020625
 20
228.2775721214
 30
0.0
 10
300.0610244611
 20
228.3854995754
 30
0.0
 10
300.063239631
 20
228.4574040041
 30
0.0
  0
SPLINE
  5
428
100
AcDbEntity
  8
0
100
AcDbSpline
 62
7
  6
CONTINUOUS
 70
0
 71
3
 72
14
 73
10
 74
0
 42
0.0000001
 43
0.0000001
 44
0.0000000001
 40
0.0
 40
0.0
 40
0.0
 40
0.0
 40
0.0550864264
 40
0.122616063
 40
0.209855235
 40
0.3203660116
 40
0.4553644541
 40
0.6145851781
 40
1.0
 40
1.0
 40
1.0
 40
1.0
 10
300.1227064758
 20
227.7350157388
 30
0.0
 10
300.1217034025
 20
227.7350157388
 30
0.0
 10
300.1194594247
 20
227.7356208736
 30
0.0
 10
300.116416114
 20
227.7380296075
 30
0.0
 10
300.1134237922
 20
227.7418535174
 30
0.0
 10
300.1104408529
 20
227.7471446088
 30
0.0
 10
300.1074687603
 20
227.7538970081
 30
0.0
 10
300.1032793469
 20
227.7655488551
 30
0.0
 10
300.1006571898
 20
227.7751284545
 30
0.0
 10
300.0989697502
 20
227.7819406185
 30
0.0
  0
SPLINE
  5
429
100
AcDbEntity
  8
0
100
AcDbSpline
 62
7
  6
CONTINUOUS
 70
0
 71
3
 72
12
 73
8
 74
0
 42
0.0000001
 43
0.0000001
 44
0.0000000001
 40
0.0
 40
0.0
 40
0.0
 40
0.0
 40
0.0982496943
 40
0.2087106969
 40
0.4547277345
 40
0.7214533583
 40
1.0
 40
1.0
 40
1.0
 40
1.0
 10
300.0989697502
 20
227.7819406185
 30
0.0
 10
300.0970088469
 20
227.7898567508
 30
0.0
 10
300.0933533081
 20
227.8067991899
 30
0.0
 10
300.0867642213
 20
227.8439695924
 30
0.0
 10
300.0797682951
 20
227.8952419709
 30
0.0
 10
300.0727934623
 20
227.9605565442
 30
0.0
 10
300.0688942679
 20
228.0056525562
 30
0.0
 10
300.067066158
 20
228.0287014135
 30
0.0
  0
LINE
  5
42A
100
AcDbEntity
  8
0
100
AcDbLine
 62
7
  6
CONTINUOUS
 10
300.1634031534
 20
227.0624753126
 11
300.1637060094
 21
227.1564548623
  0
LINE
  5
42B
100
AcDbEntity
  8
0
100
AcDbLine
 62
7
  6
CONTINUOUS
 10
300.1637060094
 20
227.1564548623
 11
300.1675504632
 21
228.312810622
  0
SPLINE
  5
42C
100
AcDbEntity
  8
0
100
AcDbSpline
 62
7
  6
CONTINUOUS
 70
0
 71
3
 72
14
 73
10
 74
0
 42
0.0000001
 43
0.0000001
 44
0.0000000001
 40
0.0
 40
0.0
 40
0.0
 40
0.0
 40
0.1444738388
 40
0.2932538387
 40
0.4381519918
 40
0.5728314314
 40
0.695337476
 40
0.8063887294
 40
1.0
 40
1.0
 40
1.0
 40
1.0
 10
300.0089778705
 20
225.6116676816
 30
0.0
 10
300.0030614409
 20
225.6714535509
 30
0.0
 10
299.9944437775
 20
225.7931836321
 30
0.0
 10
299.993778835
 20
225.9755322608
 30
0.0
 10
300.0055789731
 20
226.1534049142
 30
0.0
 10
300.0267561114
 20
226.3193387446
 30
0.0
 10
300.0528734682
 20
226.4702539216
 30
0.0
 10
300.0877836375
 20
226.6444292329
 30
0.0
 10
300.1145087927
 20
226.7682791204
 30
0.0
 10
300.1298946963
 20
226.847306481
 30
0.0
  0
SPLINE
  5
42D
100
AcDbEntity
  8
0
100
AcDbSpline
 62
7
  6
CONTINUOUS
 70
0
 71
3
 72
13
 73
9
 74
0
 42
0.0000001
 43
0.0000001
 44
0.0000000001
 40
0.0
 40
0.0
 40
0.0
 40
0.0
 40
0.0701382299
 40
0.1487240746
 40
0.2411373677
 40
0.3511954049
 40
0.6323943238
 40
1.0
 40
1.0
 40
1.0
 40
1.0
 10
300.1060252285
 20
225.2210656294
 30
0.0
 10
300.1045784249
 20
225.2210656294
 30
0.0
 10
300.1014950516
 20
225.2215783349
 30
0.0
 10
300.096987016
 20
225.223802818
 30
0.0
 10
300.0924623036
 20
225.2274852018
 30
0.0
 10
300.0858532507
 20
225.2350024377
 30
0.0
 10
300.0778516884
 20
225.24858057
 30
0.0
 10
300.072588346
 20
225.2608993915
 30
0.0
 10
300.0698734801
 20
225.2679796678
 30
0.0
  0
SPLINE
  5
42E
100
AcDbEntity
  8
0
100
AcDbSpline
 62
7
  6
CONTINUOUS
 70
0
 71
3
 72
13
 73
9
 74
0
 42
0.0000001
 43
0.0000001
 44
0.0000000001
 40
0.0
 40
0.0
 40
0.0
 40
0.0
 40
0.0893467358
 40
0.1941439148
 40
0.3113055129
 40
0.4379516673
 40
0.7108108989
 40
1.0
 40
1.0
 40
1.0
 40
1.0
 10
300.0698734801
 20
225.2679796678
 30
0.0
 10
300.0661438255
 20
225.2777064777
 30
0.0
 10
300.0591342399
 20
225.299260065
 30
0.0
 10
300.0500149892
 20
225.33440367
 30
0.0
 10
300.041509386
 20
225.3741599462
 30
0.0
 10
300.0308025704
 20
225.4334485555
 30
0.0
 10
300.0194879057
 20
225.512970615
 30
0.0
 10
300.0122983849
 20
225.5781136876
 30
0.0
 10
300.0089778705
 20
225.6116676816
 30
0.0
  0
LINE
  5
42F
100
AcDbEntity
  8
0
100
AcDbLine
 62
7
  6
CONTINUOUS
 10
300.1676497625
 20
228.342945207
 11
300.1670534446
 21
228.3173974312
  0
LINE
  5
430
100
AcDbEntity
  8
0
100
AcDbLine
 62
7
  6
CONTINUOUS
 10
300.1670534446
 20
228.3173974312
 11
300.1669415577
 21
228.3127445517
  0
SPLINE
  5
431
100
AcDbEntity
  8
0
100
AcDbSpline
 62
7
  6
CONTINUOUS
 70
0
 71
3
 72
26
 73
22
 74
0
 42
0.0000001
 43
0.0000001
 44
0.0000000001
 40
0.0
 40
0.0
 40
0.0
 40
0.0
 40
0.1479874711
 40
0.2943296925
 40
0.4384046472
 40
0.5092906496
 40
0.5791632119
 40
0.6477467059
 40
0.7146416429
 40
0.7792432683
 40
0.840588013
 40
0.8970547787
 40
0.9226371973
 40
0.9457804791
 40
0.9657819539
 40
0.9743450406
 40
0.9818016976
 40
0.988059223
 40
0.9930727822
 40
0.9969260242
 40
1.0
 40
1.0
 40
1.0
 40
1.0
 10
300.1669415577
 20
228.3127445517
 30
0.0
 10
300.1662473335
 20
228.2840079881
 30
0.0
 10
300.1647492755
 20
228.2268570533
 30
0.0
 10
300.1620799933
 20
228.1417431831
 30
0.0
 10
300.1594157126
 20
228.0716137647
 30
0.0
 10
300.1569360178
 20
228.0163433489
 30
0.0
 10
300.1548891868
 20
227.9757322439
 30
0.0
 10
300.1526110082
 20
227.9359097752
 30
0.0
 10
300.1500562211
 20
227.8971299161
 30
0.0
 10
300.1471682882
 20
227.8597828099
 30
0.0
 10
300.1438698003
 20
227.8245034358
 30
0.0
 10
300.1406200991
 20
227.7968352719
 30
0.0
 10
300.1375777007
 20
227.7766279682
 30
0.0
 10
300.1351814375
 20
227.76349332
 30
0.0
 10
300.1329272712
 20
227.7536977026
 30
0.0
 10
300.1309263315
 20
227.7469901305
 30
0.0
 10
300.1294469801
 20
227.7429206397
 30
0.0
 10
300.1279167583
 20
227.7396120044
 30
0.0
 10
300.1263263232
 20
227.7371290435
 30
0.0
 10
300.1246506492
 20
227.735471902
 30
0.0
 10
300.123303562
 20
227.7350157388
 30
0.0
 10
300.1227064758
 20
227.7350157388
 30
0.0
  0
SPLINE
  5
432
100
AcDbEntity
  8
0
100
AcDbSpline
 62
7
  6
CONTINUOUS
 70
0
 71
3
 72
31
 73
27
 74
0
 42
0.0000001
 43
0.0000001
 44
0.0000000001
 40
0.0
 40
0.0
 40
0.0
 40
0.0
 40
0.14217136
 40
0.28415357
 40
0.4256827696
 40
0.4961237144
 40
0.5662008855
 40
0.6357210107
 40
0.7043637141
 40
0.7715680574
 40
0.8043327902
 40
0.8362809079
 40
0.8671137735
 40
0.8964020355
 40
0.9235359641
 40
0.9360461818
 40
0.9476922571
 40
0.9583449562
 40
0.9678779413
 40
0.9761828637
 40
0.9798516427
 40
0.9831918322
 40
0.9888959059
 40
0.9933930301
 40
0.9969372275
 40
1.0
 40
1.0
 40
1.0
 40
1.0
 10
300.1746239214
 20
227.1094649919
 30
0.0
 10
300.1745822947
 20
227.019361088
 30
0.0
 10
300.1744291639
 20
226.83927317
 30
0.0
 10
300.1739007131
 20
226.5694887524
 30
0.0
 10
300.1730689908
 20
226.3451657306
 30
0.0
 10
300.1719826536
 20
226.1664158581
 30
0.0
 10
300.1708776094
 20
226.0333044147
 30
0.0
 10
300.1693666863
 20
225.9013364926
 30
0.0
 10
300.1672718596
 20
225.7711973254
 30
0.0
 10
300.1647979597
 20
225.6643631254
 30
0.0
 10
300.1621216351
 20
225.5808002046
 30
0.0
 10
300.1597067899
 20
225.5202936157
 30
0.0
 10
300.156760704
 20
225.4620156677
 30
0.0
 10
300.1531442594
 20
225.4068321739
 30
0.0
 10
300.1493479396
 20
225.3633036168
 30
0.0
 10
300.1456800178
 20
225.331003017
 30
0.0
 10
300.1427071104
 20
225.3091411339
 30
0.0
 10
300.1394168926
 20
225.2892333442
 30
0.0
 10
300.1357910054
 20
225.2715394583
 30
0.0
 10
300.1323572607
 20
225.2583379455
 30
0.0
 10
300.1293626845
 20
225.2491022348
 30
0.0
 10
300.1265171887
 20
225.2415629896
 30
0.0
 10
300.1228461795
 20
225.2337748142
 30
0.0
 10
300.1178027959
 20
225.2265960257
 30
0.0
 10
300.1122045471
 20
225.222086012
 30
0.0
 10
300.1079663212
 20
225.2210656294
 30
0.0
 10
300.1060252285
 20
225.2210656294
 30
0.0
  0
SPLINE
  5
433
100
AcDbEntity
  8
0
100
AcDbSpline
 62
7
  6
CONTINUOUS
 70
0
 71
3
 72
40
 73
36
 74
0
 42
0.0000001
 43
0.0000001
 44
0.0000000001
 40
0.0
 40
0.0
 40
0.0
 40
0.0
 40
0.0001400797
 40
0.0003526928
 40
0.0010499308
 40
0.0021311169
 40
0.0035977482
 40
0.005443989
 40
0.0076604223
 40
0.0102356073
 40
0.0131563106
 40
0.0199769026
 40
0.0280020392
 40
0.0371093771
 40
0.0471810021
 40
0.0581073687
 40
0.0697893244
 40
0.0821387517
 40
0.0950781309
 40
0.1224640926
 40
0.1515053723
 40
0.1818685387
 40
0.2133008614
 40
0.2456088311
 40
0.2786423016
 40
0.3122830164
 40
0.3464370126
 40
0.4159942768
 40
0.4868536774
 40
0.5586924429
 40
0.6312739177
 40
0.7044166758
 40
0.777975578
 40
0.8518292299
 40
1.0
 40
1.0
 40
1.0
 40
1.0
 10
300.1755095059
 20
221.2710658734
 30
0.0
 10
300.1752876383
 20
221.271065891
 30
0.0
 10
300.1747510547
 20
221.2713329392
 30
0.0
 10
300.1736336633
 20
221.2725627684
 30
0.0
 10
300.1720800861
 20
221.2753457942
 30
0.0
 10
300.1699944324
 20
221.2800317831
 30
0.0
 10
300.167508031
 20
221.2865405422
 30
0.0
 10
300.164636993
 20
221.2948126847
 30
0.0
 10
300.1614011459
 20
221.3048172658
 30
0.0
 10
300.1578174534
 20
221.3164951008
 30
0.0
 10
300.1523086012
 20
221.335209224
 30
0.0
 10
300.1447355073
 20
221.3623118277
 30
0.0
 10
300.1349520875
 20
221.3989676819
 30
0.0
 10
300.1242099609
 20
221.4406952975
 30
0.0
 10
300.1126482958
 20
221.4869555359
 30
0.0
 10
300.1003970771
 20
221.5372457221
 30
0.0
 10
300.087572933
 20
221.5911087586
 30
0.0
 10
300.0742796262
 20
221.6481368698
 30
0.0
 10
300.0556966023
 20
221.7294709941
 30
0.0
 10
300.0319008335
 20
221.8367319155
 30
0.0
 10
300.003159106
 20
221.9711593066
 30
0.0
 10
299.9741255114
 20
222.1120740419
 30
0.0
 10
299.9451224279
 20
222.2582736403
 30
0.0
 10
299.9164043971
 20
222.4088374424
 30
0.0
 10
299.8881760331
 20
222.5630511293
 30
0.0
 10
299.8606052952
 20
222.720353207
 30
0.0
 10
299.824689757
 20
222.9349169855
 30
0.0
 10
299.7822507653
 20
223.2081500521
 30
0.0
 10
299.7360359767
 20
223.541157732
 30
0.0
 10
299.6948520104
 20
223.8796525223
 30
0.0
 10
299.6592017467
 20
224.2224124409
 30
0.0
 10
299.6294921998
 20
224.5684734936
 30
0.0
 10
299.6060499109
 20
224.9170385877
 30
0.0
 10
299.5834590179
 20
225.3846762916
 30
0.0
 10
299.576618872
 20
225.7363829089
 30
0.0
 10
299.576618872
 20
225.9710656294
 30
0.0
  0
SPLINE
  5
434
100
AcDbEntity
  8
0
100
AcDbSpline
 62
7
  6
CONTINUOUS
 70
0
 71
3
 72
40
 73
36
 74
0
 42
0.0000001
 43
0.0000001
 44
0.0000000001
 40
0.0
 40
0.0
 40
0.0
 40
0.0
 40
0.1481707701
 40
0.222024422
 40
0.2955833242
 40
0.3687260823
 40
0.4413075571
 40
0.5131463226
 40
0.5840057231
 40
0.6535629874
 40
0.6877169836
 40
0.7213576984
 40
0.7543911689
 40
0.7866991386
 40
0.8181314613
 40
0.8484946277
 40
0.8775359074
 40
0.9049218691
 40
0.9178612483
 40
0.9302106756
 40
0.9418926313
 40
0.9528189979
 40
0.9628906229
 40
0.9719979608
 40
0.9800230974
 40
0.9868436894
 40
0.9897643927
 40
0.9923395777
 40
0.994556011
 40
0.9964022518
 40
0.9978688831
 40
0.9989500692
 40
0.9996473072
 40
0.9998599203
 40
1.0
 40
1.0
 40
1.0
 40
1.0
 10
299.576618872
 20
225.9710656294
 30
0.0
 10
299.576618872
 20
226.2057483498
 30
0.0
 10
299.5834590179
 20
226.5574549671
 30
0.0
 10
299.6060499109
 20
227.0250926711
 30
0.0
 10
299.6294921998
 20
227.3736577652
 30
0.0
 10
299.6592017467
 20
227.7197188178
 30
0.0
 10
299.6948520105
 20
228.0624787364
 30
0.0
 10
299.7360359767
 20
228.4009735268
 30
0.0
 10
299.7822507653
 20
228.7339812066
 30
0.0
 10
299.824689757
 20
229.0072142732
 30
0.0
 10
299.8606052952
 20
229.2217780517
 30
0.0
 10
299.8881760331
 20
229.3790801295
 30
0.0
 10
299.9164043971
 20
229.5332938164
 30
0.0
 10
299.9451224279
 20
229.6838576185
 30
0.0
 10
299.9741255114
 20
229.8300572169
 30
0.0
 10
300.003159106
 20
229.9709719521
 30
0.0
 10
300.0319008335
 20
230.1053993433
 30
0.0
 10
300.0556966023
 20
230.2126602647
 30
0.0
 10
300.0742796262
 20
230.2939943889
 30
0.0
 10
300.087572933
 20
230.3510225002
 30
0.0
 10
300.1003970771
 20
230.4048855367
 30
0.0
 10
300.1126482958
 20
230.4551757228
 30
0.0
 10
300.1242099609
 20
230.5014359612
 30
0.0
 10
300.1349520875
 20
230.5431635768
 30
0.0
 10
300.1447355073
 20
230.579819431
 30
0.0
 10
300.1523086012
 20
230.6069220348
 30
0.0
 10
300.1578174534
 20
230.625636158
 30
0.0
 10
300.1614011459
 20
230.6373139929
 30
0.0
 10
300.164636993
 20
230.647318574
 30
0.0
 10
300.167508031
 20
230.6555907166
 30
0.0
 10
300.1699944324
 20
230.6620994757
 30
0.0
 10
300.1720800861
 20
230.6667854645
 30
0.0
 10
300.1736336633
 20
230.6695684903
 30
0.0
 10
300.1747510547
 20
230.6707983196
 30
0.0
 10
300.1752876383
 20
230.6710653678
 30
0.0
 10
300.1755095059
 20
230.6710653853
 30
0.0
  0
SPLINE
  5
435
100
AcDbEntity
  8
0
100
AcDbSpline
 62
7
  6
CONTINUOUS
 70
0
 71
3
 72
19
 73
15
 74
0
 42
0.0000001
 43
0.0000001
 44
0.0000000001
 40
0.0
 40
0.0
 40
0.0
 40
0.0
 40
0.1747653377
 40
0.3442721147
 40
0.5058616796
 40
0.655280524
 40
0.7235002549
 40
0.7860562984
 40
0.8418262479
 40
0.8897466821
 40
0.9290527089
 40
0.9596077681
 40
0.9823557118
 40
1.0
 40
1.0
 40
1.0
 40
1.0
 10
300.0387771115
 20
225.541183103
 30
0.0
 10
300.0402589598
 20
225.5245948834
 30
0.0
 10
300.0434006781
 20
225.4919368069
 30
0.0
 10
300.0488579849
 20
225.4440370985
 30
0.0
 10
300.0551056927
 20
225.3986700989
 30
0.0
 10
300.0611989805
 20
225.3630365919
 30
0.0
 10
300.0667268208
 20
225.3369100923
 30
0.0
 10
300.0709879661
 20
225.3196472004
 30
0.0
 10
300.0754660919
 20
225.3044429789
 30
0.0
 10
300.0801220772
 20
225.2916249283
 30
0.0
 10
300.0848969849
 20
225.2814385446
 30
0.0
 10
300.0897615109
 20
225.2740309442
 30
0.0
 10
300.0947487758
 20
225.2692981251
 30
0.0
 10
300.0986054446
 20
225.2680553497
 30
0.0
 10
300.1002868583
 20
225.2680553497
 30
0.0
  0
SPLINE
  5
436
100
AcDbEntity
  8
0
100
AcDbSpline
 62
7
  6
CONTINUOUS
 70
0
 71
3
 72
11
 73
7
 74
0
 42
0.0000001
 43
0.0000001
 44
0.0000000001
 40
0.0
 40
0.0
 40
0.0
 40
0.0
 40
0.2382468472
 40
0.4904861564
 40
0.7487690924
 40
1.0
 40
1.0
 40
1.0
 40
1.0
 10
300.0563476001
 20
226.3040489167
 30
0.0
 10
300.0492015035
 20
226.2437633514
 30
0.0
 10
300.0364161355
 20
226.1194063377
 30
0.0
 10
300.0254087719
 20
225.9288459123
 30
0.0
 10
300.0252393658
 20
225.7346271979
 30
0.0
 10
300.0330811488
 20
225.6049452879
 30
0.0
 10
300.0387771115
 20
225.541183103
 30
0.0
  0
SPLINE
  5
437
100
AcDbEntity
  8
0
100
AcDbSpline
 62
7
  6
CONTINUOUS
 70
0
 71
3
 72
10
 73
6
 74
0
 42
0.0000001
 43
0.0000001
 44
0.0000000001
 40
0.0
 40
0.0
 40
0.0
 40
0.0
 40
0.2085904154
 40
0.4474689959
 40
1.0
 40
1.0
 40
1.0
 40
1.0
 10
300.1397353022
 20
226.845147837
 30
0.0
 10
300.1329816353
 20
226.8076797397
 30
0.0
 10
300.118543011
 20
226.7272930921
 30
0.0
 10
300.0882708684
 20
226.5472987012
 30
0.0
 10
300.0682187444
 20
226.404195709
 30
0.0
 10
300.0563476001
 20
226.3040489167
 30
0.0
  0
LINE
  5
438
100
AcDbEntity
  8
0
100
AcDbLine
 62
7
  6
CONTINUOUS
 10
300.1751932382
 20
228.5739079618
 11
300.1748095383
 21
227.8084372171
  0
LINE
  5
439
100
AcDbEntity
  8
0
100
AcDbLine
 62
7
  6
CONTINUOUS
 10
300.1770554723
 20
229.1658826882
 11
300.1769137753
 21
229.1124430555
  0
LINE
  5
43A
100
AcDbEntity
  8
0
100
AcDbLine
 62
7
  6
CONTINUOUS
 10
300.176935907
 20
229.2210656294
 11
300.1770737746
 21
229.2034445016
  0
SPLINE
  5
43B
100
AcDbEntity
  8
0
100
AcDbSpline
 62
7
  6
CONTINUOUS
 70
0
 71
3
 72
10
 73
6
 74
0
 42
0.0000001
 43
0.0000001
 44
0.0000000001
 40
0.0
 40
0.0
 40
0.0
 40
0.0
 40
0.2965308059
 40
0.5919241973
 40
1.0
 40
1.0
 40
1.0
 40
1.0
 10
300.1755094951
 20
220.9710658648
 30
0.0
 10
300.1761686018
 20
220.9710658085
 30
0.0
 10
300.1768733405
 20
220.9727417405
 30
0.0
 10
300.1770615517
 20
220.9747644819
 30
0.0
 10
300.177129987
 20
220.9763833027
 30
0.0
 10
300.1771299924
 20
220.9772903434
 30
0.0
  0
SPLINE
  5
43C
100
AcDbEntity
  8
0
100
AcDbSpline
 62
7
  6
CONTINUOUS
 70
0
 71
3
 72
17
 73
13
 74
0
 42
0.0000001
 43
0.0000001
 44
0.0000000001
 40
0.0
 40
0.0
 40
0.0
 40
0.0
 40
0.3394021148
 40
0.5003499649
 40
0.650947428
 40
0.7205238645
 40
0.7848900183
 40
0.8427389904
 40
0.8926644442
 40
0.9334164236
 40
0.9643269037
 40
1.0
 40
1.0
 40
1.0
 40
1.0
 10
300.0956088164
 20
227.9288483747
 30
0.0
 10
300.096767443
 20
227.91179695
 30
0.0
 10
300.0986829199
 20
227.88667097
 30
0.0
 10
300.1019589108
 20
227.8540547441
 30
0.0
 10
300.1043147868
 20
227.8350054986
 30
0.0
 10
300.1064766261
 20
227.8208392943
 30
0.0
 10
300.1081672823
 20
227.8113321411
 30
0.0
 10
300.1099802784
 20
227.8028442193
 30
0.0
 10
300.1118665168
 20
227.7956309813
 30
0.0
 10
300.113914298
 20
227.7897692404
 30
0.0
 10
300.116096683
 20
227.7850602392
 30
0.0
 10
300.1188055981
 20
227.7820054182
 30
0.0
 10
300.1206019326
 20
227.7820054182
 30
0.0
  0
SPLINE
  5
43D
100
AcDbEntity
  8
0
100
AcDbSpline
 62
7
  6
CONTINUOUS
 70
0
 71
3
 72
9
 73
5
 74
0
 42
0.0000001
 43
0.0000001
 44
0.0000000001
 40
0.0
 40
0.0
 40
0.0
 40
0.0
 40
0.5041986618
 40
1.0
 40
1.0
 40
1.0
 40
1.0
 10
300.0936357232
 20
228.110933412
 30
0.0
 10
300.092690127
 20
228.0803351393
 30
0.0
 10
300.0917728346
 20
228.0196159665
 30
0.0
 10
300.0935680524
 20
227.9588821498
 30
0.0
 10
300.0956088164
 20
227.9288483747
 30
0.0
  0
SPLINE
  5
43E
100
AcDbEntity
  8
0
100
AcDbSpline
 62
7
  6
CONTINUOUS
 70
0
 71
3
 72
9
 73
5
 74
0
 42
0.0000001
 43
0.0000001
 44
0.0000000001
 40
0.0
 40
0.0
 40
0.0
 40
0.0
 40
0.4934632521
 40
1.0
 40
1.0
 40
1.0
 40
1.0
 10
300.0932459706
 20
228.6366308817
 30
0.0
 10
300.0968124624
 20
228.5849070898
 30
0.0
 10
300.1010876488
 20
228.4798774133
 30
0.0
 10
300.1007592451
 20
228.3747795796
 30
0.0
 10
300.0995200781
 20
228.3215738119
 30
0.0
  0
SPLINE
  5
43F
100
AcDbEntity
  8
0
100
AcDbSpline
 62
7
  6
CONTINUOUS
 70
0
 71
3
 72
10
 73
6
 74
0
 42
0.0000001
 43
0.0000001
 44
0.0000000001
 40
0.0
 40
0.0
 40
0.0
 40
0.0
 40
0.2189929201
 40
0.462572927
 40
1.0
 40
1.0
 40
1.0
 40
1.0
 10
300.060436429
 20
228.8855465274
 30
0.0
 10
300.0647996529
 20
228.8677275786
 30
0.0
 10
300.0724330773
 20
228.8296998481
 30
0.0
 10
300.0844684786
 20
228.7467768655
 30
0.0
 10
300.0901490014
 20
228.6815453235
 30
0.0
 10
300.0932459706
 20
228.6366308817
 30
0.0
  0
SPLINE
  5
440
100
AcDbEntity
  8
0
100
AcDbSpline
 62
7
  6
CONTINUOUS
 70
0
 71
3
 72
14
 73
10
 74
0
 42
0.0000001
 43
0.0000001
 44
0.0000000001
 40
0.0
 40
0.0
 40
0.0
 40
0.0
 40
0.0705885642
 40
0.1518329373
 40
0.2506480656
 40
0.368687712
 40
0.5048532125
 40
0.6569952663
 40
1.0
 40
1.0
 40
1.0
 40
1.0
 10
300.0087542962
 20
228.9802433142
 30
0.0
 10
300.0114112466
 20
228.9802433142
 30
0.0
 10
300.0171742893
 20
228.9788034729
 30
0.0
 10
300.0247886496
 20
228.9729668392
 30
0.0
 10
300.0317899508
 20
228.9641174046
 30
0.0
 10
300.0383391615
 20
228.9525164653
 30
0.0
 10
300.0444806756
 20
228.9384902804
 30
0.0
 10
300.0524653282
 20
228.9160959232
 30
0.0
 10
300.0573657799
 20
228.8980867364
 30
0.0
 10
300.060436429
 20
228.8855465274
 30
0.0
  0
SPLINE
  5
441
100
AcDbEntity
  8
0
100
AcDbSpline
 62
7
  6
CONTINUOUS
 70
0
 71
3
 72
15
 73
11
 74
0
 42
0.0000001
 43
0.0000001
 44
0.0000000001
 40
0.0
 40
0.0
 40
0.0
 40
0.0
 40
0.2687408856
 40
0.4026059268
 40
0.5358454645
 40
0.6679386161
 40
0.7975037307
 40
0.9191056745
 40
0.9692583804
 40
1.0
 40
1.0
 40
1.0
 40
1.0
 10
299.8386367298
 20
227.8613005766
 30
0.0
 10
299.8384938368
 20
227.8591557618
 30
0.0
 10
299.8382706868
 20
227.8559432827
 30
0.0
 10
299.8379353817
 20
227.8516699368
 30
0.0
 10
299.8376583611
 20
227.8484900531
 30
0.0
 10
299.8373352619
 20
227.8453433529
 30
0.0
 10
299.8369612674
 20
227.8423163499
 30
0.0
 10
299.8364934075
 20
227.8399015809
 30
0.0
 10
299.8360553758
 20
227.8384152139
 30
0.0
 10
299.8355604426
 20
227.8378056177
 30
0.0
 10
299.8353145505
 20
227.8378056177
 30
0.0
  0
SPLINE
  5
442
100
AcDbEntity
  8
0
100
AcDbSpline
 62
7
  6
CONTINUOUS
 70
0
 71
3
 72
9
 73
5
 74
0
 42
0.0000001
 43
0.0000001
 44
0.0000000001
 40
0.0
 40
0.0
 40
0.0
 40
0.0
 40
0.4933823781
 40
1.0
 40
1.0
 40
1.0
 40
1.0
 10
299.9027116444
 20
228.5610718543
 30
0.0
 10
299.8976791041
 20
228.5302602379
 30
0.0
 10
299.8888880232
 20
228.4675805877
 30
0.0
 10
299.8817156123
 20
228.4047079355
 30
0.0
 10
299.878354305
 20
228.3728272532
 30
0.0
  0
SPLINE
  5
443
100
AcDbEntity
  8
0
100
AcDbSpline
 62
7
  6
CONTINUOUS
 70
0
 71
3
 72
9
 73
5
 74
0
 42
0.0000001
 43
0.0000001
 44
0.0000000001
 40
0.0
 40
0.0
 40
0.0
 40
0.0
 40
0.4973245406
 40
1.0
 40
1.0
 40
1.0
 40
1.0
 10
299.878354305
 20
228.3728272532
 30
0.0
 10
299.8728121395
 20
228.3202619856
 30
0.0
 10
299.8631312609
 20
228.2144115953
 30
0.0
 10
299.8551473811
 20
228.1084278979
 30
0.0
 10
299.8514133938
 20
228.0551332125
 30
0.0
  0
SPLINE
  5
444
100
AcDbEntity
  8
0
100
AcDbSpline
 62
7
  6
CONTINUOUS
 70
0
 71
3
 72
18
 73
14
 74
0
 42
0.0000001
 43
0.0000001
 44
0.0000000001
 40
0.0
 40
0.0
 40
0.0
 40
0.0
 40
0.0544304444
 40
0.0739347929
 40
0.095711808
 40
0.1452906169
 40
0.2015042474
 40
0.2628305747
 40
0.3280828102
 40
0.3963784081
 40
0.5396592143
 40
0.6892221558
 40
1.0
 40
1.0
 40
1.0
 40
1.0
 10
300.0124662302
 20
228.9332536348
 30
0.0
 10
300.0052969873
 20
228.9332536348
 30
0.0
 10
299.9968253113
 20
228.9251079715
 30
0.0
 10
299.9899085544
 20
228.9149001066
 30
0.0
 10
299.9839227649
 20
228.9044445473
 30
0.0
 10
299.9769729021
 20
228.8891584215
 30
0.0
 10
299.9692477254
 20
228.8685225251
 30
0.0
 10
299.9618917113
 20
228.845594573
 30
0.0
 10
299.9548709981
 20
228.820901142
 30
0.0
 10
299.9457873318
 20
228.7855860463
 30
0.0
 10
299.9352837649
 20
228.7391836507
 30
0.0
 10
299.9196567425
 20
228.6612251148
 30
0.0
 10
299.9093100228
 20
228.6014702798
 30
0.0
 10
299.9027116444
 20
228.5610718543
 30
0.0
  0
SPLINE
  5
445
100
AcDbEntity
  8
0
100
AcDbSpline
 62
7
  6
CONTINUOUS
 70
0
 71
3
 72
10
 73
6
 74
0
 42
0.0000001
 43
0.0000001
 44
0.0000000001
 40
0.0
 40
0.0
 40
0.0
 40
0.0
 40
0.4080758028
 40
0.7034691945
 40
1.0
 40
1.0
 40
1.0
 40
1.0
 10
300.1771299924
 20
230.9648409153
 30
0.0
 10
300.177129987
 20
230.965747956
 30
0.0
 10
300.1770615517
 20
230.9673667768
 30
0.0
 10
300.1768733406
 20
230.9693895182
 30
0.0
 10
300.1761686018
 20
230.9710654503
 30
0.0
 10
300.1755094951
 20
230.9710653939
 30
0.0
  0
SPLINE
  5
446
100
AcDbEntity
  8
KONSTRUKTIONSELEMENTE
100
AcDbSpline
 62
7
  6
CONTINUOUS
 70
0
 71
3
 72
9
 73
5
 74
0
 42
0.0000001
 43
0.0000001
 44
0.0000000001
 40
0.0
 40
0.0
 40
0.0
 40
0.0
 40
0.5181868162
 40
1.0
 40
1.0
 40
1.0
 40
1.0
 10
274.4067575946
 20
195.2029686816
 30
0.0
 10
274.0516751416
 20
195.2068488388
 30
0.0
 10
273.3663245913
 20
195.2075347675
 30
0.0
 10
272.6811629856
 20
195.1910500414
 30
0.0
 10
272.3509854977
 20
195.1910623668
 30
0.0
  0
SPLINE
  5
447
100
AcDbEntity
  8
KONSTRUKTIONSELEMENTE
100
AcDbSpline
 62
7
  6
CONTINUOUS
 70
0
 71
3
 72
15
 73
11
 74
0
 42
0.0000001
 43
0.0000001
 44
0.0000000001
 40
0.0
 40
0.0
 40
0.0
 40
0.0
 40
0.0316461251
 40
0.0574483937
 40
0.0910240913
 40
0.1324806831
 40
0.1816804568
 40
0.3022172393
 40
0.6182392873
 40
1.0
 40
1.0
 40
1.0
 40
1.0
 10
263.0222945507
 20
195.1910656294
 30
0.0
 10
263.0028944469
 20
195.1910656294
 30
0.0
 10
262.9733435291
 20
195.1608752498
 30
0.0
 10
262.9484290468
 20
195.1130557613
 30
0.0
 10
262.9256752861
 20
195.0547475447
 30
0.0
 10
262.9042816909
 20
194.9818476651
 30
0.0
 10
262.8744919378
 20
194.8556974393
 30
0.0
 10
262.8250856375
 20
194.5618809373
 30
0.0
 10
262.7794542601
 20
194.0617338267
 30
0.0
 10
262.76367001
 20
193.6341318861
 30
0.0
 10
262.7604319679
 20
193.4001225559
 30
0.0
  0
SPLINE
  5
448
100
AcDbEntity
  8
KONSTRUKTIONSELEMENTE
100
AcDbSpline
 62
7
  6
CONTINUOUS
 70
0
 71
3
 72
15
 73
11
 74
0
 42
0.0000001
 43
0.0000001
 44
0.0000000001
 40
0.0
 40
0.0
 40
0.0
 40
0.0
 40
0.0316461251
 40
0.0574483937
 40
0.0910240913
 40
0.1324806831
 40
0.1816804568
 40
0.3022172393
 40
0.6182392873
 40
1.0
 40
1.0
 40
1.0
 40
1.0
 10
327.7319654351
 20
195.1910656294
 30
0.0
 10
327.751365539
 20
195.1910656294
 30
0.0
 10
327.7809164567
 20
195.1608752498
 30
0.0
 10
327.805830939
 20
195.1130557613
 30
0.0
 10
327.8285846997
 20
195.0547475447
 30
0.0
 10
327.8499782949
 20
194.9818476651
 30
0.0
 10
327.8797680481
 20
194.8556974393
 30
0.0
 10
327.9291743483
 20
194.5618809373
 30
0.0
 10
327.9748057258
 20
194.0617338267
 30
0.0
 10
327.9905899758
 20
193.6341318861
 30
0.0
 10
327.993828018
 20
193.4001225559
 30
0.0
  0
SPLINE
  5
449
100
AcDbEntity
  8
KONSTRUKTIONSELEMENTE
100
AcDbSpline
 62
7
  6
CONTINUOUS
 70
0
 71
3
 72
15
 73
11
 74
0
 42
0.0000001
 43
0.0000001
 44
0.0000000001
 40
0.0
 40
0.0
 40
0.0
 40
0.0
 40
0.0316461251
 40
0.0574483937
 40
0.0910240913
 40
0.1324806831
 40
0.1816804568
 40
0.3022172393
 40
0.6182392873
 40
1.0
 40
1.0
 40
1.0
 40
1.0
 10
327.7319654351
 20
182.1910656294
 30
0.0
 10
327.751365539
 20
182.1910656294
 30
0.0
 10
327.7809164567
 20
182.2212560089
 30
0.0
 10
327.805830939
 20
182.2690754974
 30
0.0
 10
327.8285846997
 20
182.327383714
 30
0.0
 10
327.8499782949
 20
182.4002835936
 30
0.0
 10
327.8797680481
 20
182.5264338194
 30
0.0
 10
327.9291743483
 20
182.8202503215
 30
0.0
 10
327.9748057258
 20
183.3203974321
 30
0.0
 10
327.9905899758
 20
183.7479993726
 30
0.0
 10
327.993828018
 20
183.9820087028
 30
0.0
  0
SPLINE
  5
44A
100
AcDbEntity
  8
KONSTRUKTIONSELEMENTE
100
AcDbSpline
 62
7
  6
CONTINUOUS
 70
0
 71
3
 72
15
 73
11
 74
0
 42
0.0000001
 43
0.0000001
 44
0.0000000001
 40
0.0
 40
0.0
 40
0.0
 40
0.0
 40
0.0316461251
 40
0.0574483937
 40
0.0910240913
 40
0.1324806831
 40
0.1816804568
 40
0.3022172393
 40
0.6182392873
 40
1.0
 40
1.0
 40
1.0
 40
1.0
 10
263.0222945507
 20
182.1910656294
 30
0.0
 10
263.0028944469
 20
182.1910656294
 30
0.0
 10
262.9733435291
 20
182.2212560089
 30
0.0
 10
262.9484290468
 20
182.2690754974
 30
0.0
 10
262.9256752861
 20
182.327383714
 30
0.0
 10
262.9042816909
 20
182.4002835936
 30
0.0
 10
262.8744919378
 20
182.5264338194
 30
0.0
 10
262.8250856375
 20
182.8202503215
 30
0.0
 10
262.7794542601
 20
183.3203974321
 30
0.0
 10
262.76367001
 20
183.7479993726
 30
0.0
 10
262.7604319679
 20
183.9820087028
 30
0.0
  0
ELLIPSE
  5
44B
100
AcDbEntity
  8
KONSTRUKTIONSELEMENTE
100
AcDbEllipse
 62
7
  6
CONTINUOUS
 10
87.4500161688
 20
177.0081388001
 30
0.0
 11
4.8
 21
-0.0
 31
0.0
 40
0.9756097561
 41
0.610060035
 42
2.5315326186
  0
ELLIPSE
  5
44C
100
AcDbEntity
  8
KONSTRUKTIONSELEMENTE
100
AcDbEllipse
 62
7
  6
CONTINUOUS
 10
122.4500161688
 20
177.0081388001
 30
0.0
 11
4.8
 21
-0.0
 31
0.0
 40
0.9756097561
 41
0.610060035
 42
2.5315326186
  0
ELLIPSE
  5
44D
100
AcDbEntity
  8
0
100
AcDbEllipse
 62
7
  6
CONTINUOUS
 10
295.3771299929
 20
224.7669708958
 30
0.0
 11
0.0
 21
14.3562314972
 31
0.0
 40
0.334349582
 41
-1.5906682372
 42
-1.5739938864
  0
ELLIPSE
  5
44E
100
AcDbEntity
  8
0
100
AcDbEllipse
 62
7
  6
CONTINUOUS
 10
295.3771299929
 20
220.9642473833
 30
0.0
 11
0.0
 21
5.7191482544
 31
0.0
 40
0.8392858143
 41
-1.7944721076
 42
-1.7450547362
  0
ELLIPSE
  5
44F
100
AcDbEntity
  8
0
100
AcDbEllipse
 62
7
  6
CONTINUOUS
 10
295.3771299929
 20
217.3852007691
 30
0.0
 11
0.0
 21
24.5106305549
 31
0.0
 40
0.1958333952
 41
-1.5184884008
 42
-1.5104026238
  0
ELLIPSE
  5
450
100
AcDbEntity
  8
0
100
AcDbEllipse
 62
7
  6
CONTINUOUS
 10
295.3771299929
 20
217.8978072512
 30
0.0
 11
-0.0
 21
14.706374213
 31
0.0
 40
0.3263890834
 41
-1.5265707561
 42
-1.5184884008
  0
ELLIPSE
  5
451
100
AcDbEntity
  8
0
100
AcDbEllipse
 62
7
  6
CONTINUOUS
 10
295.3771299929
 20
218.1145354635
 30
0.0
 11
0.0
 21
9.8042582045
 31
0.0
 40
0.4895831892
 41
4.7404579919
 42
4.7566145511
  0
ELLIPSE
  5
452
100
AcDbEntity
  8
0
100
AcDbEllipse
 62
7
  6
CONTINUOUS
 10
295.3771299929
 20
218.2521153549
 30
0.0
 11
-0.0
 21
4.9021276474
 31
0.0
 40
0.9791666691
 41
-1.5669497415
 42
-1.5427273153
  0
ELLIPSE
  5
453
100
AcDbEntity
  8
0
100
AcDbEllipse
 62
7
  6
CONTINUOUS
 10
295.3771299929
 20
219.8332324434
 30
0.0
 11
-0.0
 21
4.9021270752
 31
0.0
 40
0.9791667834
 41
-1.5988653383
 42
-1.5746429121
  0
ELLIPSE
  5
454
100
AcDbEntity
  8
0
100
AcDbEllipse
 62
7
  6
CONTINUOUS
 10
295.3771299929
 20
219.9708123027
 30
0.0
 11
0.0
 21
9.8042564879
 31
0.0
 40
0.489583275
 41
-1.6150218975
 42
-1.5988653383
  0
ELLIPSE
  5
455
100
AcDbEntity
  8
0
100
AcDbEllipse
 62
7
  6
CONTINUOUS
 10
295.3771299929
 20
220.187541198
 30
0.0
 11
0.0
 21
14.7063879459
 31
0.0
 40
0.3263887786
 41
-1.6231042528
 42
-1.6150218975
  0
ELLIPSE
  5
456
100
AcDbEntity
  8
0
100
AcDbEllipse
 62
7
  6
CONTINUOUS
 10
295.3771299929
 20
220.7001466031
 30
0.0
 11
-0.0
 21
24.5106236884
 31
0.0
 40
0.1958334501
 41
-1.6311900298
 42
-1.6231042528
  0
ELLIPSE
  5
457
100
AcDbEntity
  8
0
100
AcDbEllipse
 62
7
  6
CONTINUOUS
 10
295.3771299929
 20
219.5895001954
 30
0.0
 11
4.8
 21
0.0
 31
0.0
 40
0.6808509827
 41
0.0203735836
 42
0.0290994592
  0
ELLIPSE
  5
458
100
AcDbEntity
  8
0
100
AcDbEllipse
 62
7
  6
CONTINUOUS
 10
295.3771299929
 20
218.495847619
 30
0.0
 11
4.8
 21
-0.0
 31
0.0
 40
0.6808509827
 41
-0.0290994591
 42
-0.0203735836
  0
ELLIPSE
  5
459
100
AcDbEntity
  8
0
100
AcDbEllipse
 62
7
  6
CONTINUOUS
 10
295.3771299929
 20
224.8547668812
 30
0.0
 11
0.0
 21
5.7191482544
 31
0.0
 40
0.8392858143
 41
-1.6593941831
 42
-1.5941762826
  0
ELLIPSE
  5
45A
100
AcDbEntity
  8
0
100
AcDbEllipse
 62
7
  6
CONTINUOUS
 10
295.3771299929
 20
243.1165258109
 30
0.0
 11
0.0
 21
211.2175373554
 31
0.0
 40
0.0227253857
 41
-1.6488850867
 42
-1.6471418396
  0
ELLIPSE
  5
45B
100
AcDbEntity
  8
0
100
AcDbEllipse
 62
7
  6
CONTINUOUS
 10
295.3771299929
 20
229.3386823296
 30
0.0
 11
0.0
 21
13.0792240174
 31
0.0
 40
0.3669942493
 41
-1.5839436413
 42
-1.579789084
  0
ELLIPSE
  5
45C
100
AcDbEntity
  8
0
100
AcDbEllipse
 62
7
  6
CONTINUOUS
 10
295.3771299929
 20
229.3386823296
 30
0.0
 11
0.0
 21
13.0792240174
 31
0.0
 40
0.3669942493
 41
-1.5880979486
 42
-1.5840083396
  0
ELLIPSE
  5
45D
100
AcDbEntity
  8
0
100
AcDbEllipse
 62
7
  6
CONTINUOUS
 10
295.3771299929
 20
241.7192925254
 30
0.0
 11
-0.0
 21
37.1332179373
 31
0.0
 40
0.1292643155
 41
-1.9534190409
 42
-1.9516293406
  0
ELLIPSE
  5
45E
100
AcDbEntity
  8
0
100
AcDbEllipse
 62
7
  6
CONTINUOUS
 10
295.3771299929
 20
227.3144193412
 30
0.0
 11
4.8
 21
0.0
 31
0.0
 40
0.6945346081
 41
-0.1216825022
 42
-0.0756455195
  0
ELLIPSE
  5
45F
100
AcDbEntity
  8
0
100
AcDbEllipse
 62
7
  6
CONTINUOUS
 10
295.3771299929
 20
218.3161320476
 30
0.0
 11
-0.0
 21
29.4127132173
 31
0.0
 40
0.1631947371
 41
-1.5588765597
 42
-1.5508025779
  0
ELLIPSE
  5
460
100
AcDbEntity
  8
0
100
AcDbEllipse
 62
7
  6
CONTINUOUS
 10
295.3771299929
 20
224.4292350706
 30
0.0
 11
0.0
 21
5.7191505432
 31
0.0
 40
0.8392854785
 41
-1.6593941831
 42
-1.5941762826
  0
ELLIPSE
  5
461
100
AcDbEntity
  8
0
100
AcDbEllipse
 62
7
  6
CONTINUOUS
 10
295.3771299929
 20
227.2616944281
 30
0.0
 11
4.8
 21
0.0
 31
0.0
 40
0.6965791909
 41
-0.1249055411
 42
-0.0763455128
  0
ELLIPSE
  5
462
100
AcDbEntity
  8
KONSTRUKTIONSELEMENTE
100
AcDbEllipse
 62
7
  6
CONTINUOUS
 10
295.3771299929
 20
191.5557155212
 30
0.0
 11
-0.0
 21
14.4759061353
 31
0.0
 40
0.3315854604
 41
2.5315326186
 42
3.7516526886
  0
ELLIPSE
  5
463
100
AcDbEntity
  8
0
100
AcDbEllipse
 62
7
  6
CONTINUOUS
 10
295.3771299929
 20
250.0959054817
 30
0.0
 11
0.0
 21
716.8566430202
 31
0.0
 40
0.0066958994
 41
-1.6028018438
 42
-1.6018918891
  0
ELLIPSE
  5
464
100
AcDbEntity
  8
0
100
AcDbEllipse
 62
7
  6
CONTINUOUS
 10
295.3771299929
 20
219.7692156018
 30
0.0
 11
0.0
 21
29.4127063509
 31
0.0
 40
0.1631947752
 41
-1.5907900757
 42
-1.5827160939
  0
ELLIPSE
  5
465
100
AcDbEntity
  8
0
100
AcDbEllipse
 62
7
  6
CONTINUOUS
 10
295.3771299929
 20
238.408300968
 30
0.0
 11
-0.0
 21
28.5926469147
 31
0.0
 40
0.1678753287
 41
-1.9485904776
 42
-1.9413075014
  0
ELLIPSE
  5
466
100
AcDbEntity
  8
0
100
AcDbEllipse
 62
7
  6
CONTINUOUS
 10
295.3771299929
 20
220.6476520732
 30
0.0
 11
-0.0
 21
5.7191505432
 31
0.0
 40
0.8392854785
 41
-1.7944721076
 42
-1.7450547362
  0
ENDSEC
  0
SECTION
  2
OBJECTS
  0
DICTIONARY
  5
C
100
AcDbDictionary
280
0
281
1
  3
ACAD_GROUP
350
D
  3
ACAD_MLINESTYLE
350
17
  3
ACAD_LAYOUT
350
1A
  3
ACAD_PLOTSETTINGS
350
19
  3
ACAD_PLOTSTYLENAME
350
E
  0
DICTIONARY
  5
D
102
{ACAD_REACTORS
330
C
102
}
100
AcDbDictionary
280
0
281
1
  0
ACDBDICTIONARYWDFLT
  5
E
102
{ACAD_REACTORS
330
C
102
}
100
AcDbDictionary
281
1
  3
Normal
350
F
100
AcDbDictionaryWithDefault
340
F
  0
DICTIONARY
  5
17
102
{ACAD_REACTORS
330
C
102
}
100
AcDbDictionary
280
0
281
1
  3
Standard
350
18
  0
DICTIONARY
  5
19
102
{ACAD_REACTORS
330
C
102
}
100
AcDbDictionary
281
1
  0
DICTIONARY
  5
1A
102
{ACAD_REACTORS
330
C
102
}
100
AcDbDictionary
281
1
  3
Model
350
467
  3
Layout1
350
468
  0
ACDBPLACEHOLDER
  5
F
102
{ACAD_REACTORS
330
E
102
}
  0
MLINESTYLE
  5
18
102
{ACAD_REACTORS
330
17
102
}
100
AcDbMlineStyle
  2
STANDARD
 70
0
  3

 62
256
 51
90.0
 52
90.0
 71
2
 49
0.5
 62
256
  6
BYLAYER
 49
-0.5
 62
256
  6
BYLAYER
  0
LAYOUT
  5
467
102
{ACAD_REACTORS
330
1A
102
}
100
AcDbPlotSettings
  1

  2
none_device
  4
ISO_A3_(420.00_x_297.00_MM)
  6

 40
0.0
 41
0.0
 42
0.0
 43
0.0
 44
420.0
 45
297.0
 46
0.0
 47
0.0
 48
0.0
 49
0.0
140
0.0
141
0.0
142
1.0
143
1.0
 70
1024
 72
1
 73
0
 74
0
  7

 75
0
147
1.0
148
0.0
149
0.0
100
AcDbLayout
  1
Model
 70
0
 71
0
 10
0.0
 20
0.0
 11
420.0
 21
297.0
 12
0.0
 22
0.0
 32
0.0
 14
0.0
 24
0.0
 34
0.0
 15
0.0
 25
0.0
 35
0.0
146
0.0
 13
0.0
 23
0.0
 33
0.0
 16
1.0
 26
0.0
 36
0.0
 17
0.0
 27
1.0
 37
0.0
 76
0
330
20B
345
0
346
0
  0
LAYOUT
  5
468
102
{ACAD_REACTORS
330
1A
102
}
100
AcDbPlotSettings
  1

  2
none_device
  4
ISO_A3_(420.00_x_297.00_MM)
  6

 40
0.0
 41
0.0
 42
0.0
 43
0.0
 44
420.0
 45
297.0
 46
0.0
 47
0.0
 48
0.0
 49
0.0
140
0.0
141
0.0
142
1.0
143
1.0
 70
0
 72
1
 73
0
 74
0
  7

 75
0
147
1.0
148
0.0
149
0.0
100
AcDbLayout
  1
Layout1
 70
0
 71
1
 10
0.0
 20
0.0
 11
420.0
 21
297.0
 12
0.0
 22
0.0
 32
0.0
 14
0.0
 24
0.0
 34
0.0
 15
0.0
 25
0.0
 35
0.0
146
0.0
 13
0.0
 23
0.0
 33
0.0
 16
1.0
 26
0.0
 36
0.0
 17
0.0
 27
1.0
 37
0.0
 76
0
330
20C
345
0
346
0
  0
ENDSEC
  0
EOF
