999
DXF file: iml_4-4_001-m35044-p-3.dxf
999
Pro/ENGINEER 2022162 by Parametric Technology Corporation
  0
SECTION
  2
HEADER
  9
$ACADVER
  1
AC1015
  9
$DWGCODEPAGE
  3
ANSI_1252
  9
$EXTMAX
 10
297.0
 20
210.0
 30
0.0
  9
$EXTMIN
 10
0.0
 20
0.0
 30
0.0
  9
$LIMMIN
 10
0.0
 20
0.0
  9
$LIMMAX
 10
297.0
 20
210.0
  9
$VIEWCTR
 10
148.5
 20
105.0
  9
$VIEWSIZE
 40
210.0
  9
$CLAYER
  8
0
  9
$LTSCALE
 40
16.335
  9
$CELTYPE
  6
BYLAYER
  9
$DIMSCALE
 40
1.0
  9
$DIMASZ
 40
3.5
  9
$DIMEXO
 40
0.0
  9
$DIMDLI
 40
11.286
  9
$DIMEXE
 40
1.5
  9
$DIMCEN
 40
2.673
  9
$DIMLFAC
 40
1.0
  9
$DIMBLK
  1
_FILLED
  9
$DIMALT
 70
0
  9
$DIMALTF
 40
0.0393700787
  9
$DIMTXT
 40
3.5
  9
$DIMTOL
 70
1
  9
$DIMLIM
 70
0
  9
$DIMTFAC
 40
1.0
  9
$DIMTP
 40
0.01
  9
$DIMTM
 40
0.01
  9
$DIMGAP
 40
0.625
  9
$DIMDSEP
 70
46
  9
$AUNITS
 70
0
  9
$PDMODE
 70
3
  9
$PDSIZE
 40
0.3125
  9
$HANDSEED
  5
6BF
  9
$TILEMODE
 70
1
  9
$MEASUREMENT
 70
1
  9
$INSUNITS
 70
4
  0
ENDSEC
  0
SECTION
  2
CLASSES
  0
CLASS
  1
ACDBDICTIONARYWDFLT
  2
AcDbDictionaryWithDefault
  3
AutoCAD 2000
 90
0
280
0
281
0
  0
CLASS
  1
ACDBPLACEHOLDER
  2
AcDbPlaceHolder
  3
AutoCAD 2000
 90
0
280
0
281
0
  0
CLASS
  1
LAYOUT
  2
AcDbLayout
  3
AutoCAD 2000
 90
0
280
0
281
0
  0
ENDSEC
  0
SECTION
  2
TABLES
  0
TABLE
  2
VPORT
  5
8
100
AcDbSymbolTable
 70
2
  0
VPORT
  5
1F4
100
AcDbSymbolTableRecord
100
AcDbViewportTableRecord
  2
*ACTIVE
 70
0
 10
0.0
 20
0.0
 11
1.0
 21
1.0
 12
148.5
 22
105.0
 13
0.0
 23
0.0
 14
1.0
 24
1.0
 15
0.0
 25
0.0
 16
0.0
 26
0.0
 36
1.0
 17
0.0
 27
0.0
 37
0.0
 40
210.0
 41
1.4142857143
 42
50.0
 43
0.0
 44
0.0
 50
0.0
 51
0.0
 71
0
 72
100
 73
1
 74
1
 75
0
 76
0
 77
0
 78
0
  0
ENDTAB
  0
TABLE
  2
LTYPE
  5
5
100
AcDbSymbolTable
 70
6
  0
LTYPE
  5
14
100
AcDbSymbolTableRecord
100
AcDbLinetypeTableRecord
  2
BYBLOCK
 70
0
  3

 72
65
 73
0
 40
0.0
  0
LTYPE
  5
15
100
AcDbSymbolTableRecord
100
AcDbLinetypeTableRecord
  2
BYLAYER
 70
0
  3

 72
65
 73
0
 40
0.0
  0
LTYPE
  5
16
100
AcDbSymbolTableRecord
100
AcDbLinetypeTableRecord
  2
CONTINUOUS
 70
64
  3
Solid line
 72
65
 73
0
 40
0.0
  0
LTYPE
  5
1F5
100
AcDbSymbolTableRecord
100
AcDbLinetypeTableRecord
  2
CENTER
 70
64
  3
____ _ ____ _ ____ _ ____ _ ____ _ ____ _ ____
 72
65
 73
4
 40
0.6
 49
0.375
 74
0
 49
-0.075
 74
0
 49
0.075
 74
0
 49
-0.075
 74
0
  0
LTYPE
  5
1F6
100
AcDbSymbolTableRecord
100
AcDbLinetypeTableRecord
  2
HIDDEN
 70
64
  3
- - - - - - - - - - - - - - - - - - - -
 72
65
 73
2
 40
0.2
 49
0.1
 74
0
 49
-0.1
 74
0
  0
LTYPE
  5
1F7
100
AcDbSymbolTableRecord
100
AcDbLinetypeTableRecord
  2
PHANTOM
 70
64
  3
_____ _ _ _____ _ _ _____ _ _ _____
 72
65
 73
6
 40
0.8
 49
0.45
 74
0
 49
-0.05
 74
0
 49
0.1
 74
0
 49
-0.05
 74
0
 49
0.1
 74
0
 49
-0.05
 74
0
  0
LTYPE
  5
1F8
100
AcDbSymbolTableRecord
100
AcDbLinetypeTableRecord
  2
DOT
 70
64
  3
. . . . . . . . . . . . . . . . . . . .
 72
65
 73
2
 40
0.2
 49
0.1
 74
0
 49
-0.1
 74
0
  0
LTYPE
  5
1F9
100
AcDbSymbolTableRecord
100
AcDbLinetypeTableRecord
  2
DASHED
 70
64
  3
- - - - - - - - - - - - - - - - - - - -
 72
65
 73
2
 40
0.2
 49
0.1
 74
0
 49
-0.1
 74
0
  0
ENDTAB
  0
TABLE
  2
LAYER
  5
2
100
AcDbSymbolTable
 70
36
  0
LAYER
  5
10
100
AcDbSymbolTableRecord
100
AcDbLayerTableRecord
  2
0
 70
0
 62
7
  6
CONTINUOUS
370
-3
390
F
  0
LAYER
  5
1FA
100
AcDbSymbolTableRecord
100
AcDbLayerTableRecord
  2
DEFAULT_1
 70
0
 62
7
  6
CENTER
370
-3
390
F
  0
LAYER
  5
1FB
100
AcDbSymbolTableRecord
100
AcDbLayerTableRecord
  2
DEFAULT_2
 70
0
 62
8
  6
HIDDEN
370
-3
390
F
  0
LAYER
  5
1FC
100
AcDbSymbolTableRecord
100
AcDbLayerTableRecord
  2
DEFAULT_3
 70
0
 62
7
  6
PHANTOM
370
-3
390
F
  0
LAYER
  5
1FD
100
AcDbSymbolTableRecord
100
AcDbLayerTableRecord
  2
AUSFORMSCHRAEGEN
 70
0
 62
7
  6
CONTINUOUS
370
-3
390
F
  0
LAYER
  5
1FE
100
AcDbSymbolTableRecord
100
AcDbLayerTableRecord
  2
BEZUGSACHSEN
 70
0
 62
7
  6
CONTINUOUS
370
-3
390
F
  0
LAYER
  5
1FF
100
AcDbSymbolTableRecord
100
AcDbLayerTableRecord
  2
BEZUGSEBENEN
 70
0
 62
7
  6
CONTINUOUS
370
-3
390
F
  0
LAYER
  5
200
100
AcDbSymbolTableRecord
100
AcDbLayerTableRecord
  2
BG_STARTBEZUEGE
 70
0
 62
7
  6
CONTINUOUS
370
-3
390
F
  0
LAYER
  5
201
100
AcDbSymbolTableRecord
100
AcDbLayerTableRecord
  2
BOHRUNGEN
 70
0
 62
7
  6
CONTINUOUS
370
-3
390
F
  0
LAYER
  5
202
100
AcDbSymbolTableRecord
100
AcDbLayerTableRecord
  2
FASEN
 70
0
 62
7
  6
CONTINUOUS
370
-3
390
F
  0
LAYER
  5
203
100
AcDbSymbolTableRecord
100
AcDbLayerTableRecord
  2
HILFEN
 70
0
 62
7
  6
CONTINUOUS
370
-3
390
F
  0
LAYER
  5
204
100
AcDbSymbolTableRecord
100
AcDbLayerTableRecord
  2
KONSTRUKTIONSELEMENTE
 70
0
 62
7
  6
CONTINUOUS
370
-3
390
F
  0
LAYER
  5
205
100
AcDbSymbolTableRecord
100
AcDbLayerTableRecord
  2
PLATZIERUNG
 70
0
 62
7
  6
CONTINUOUS
370
-3
390
F
  0
LAYER
  5
206
100
AcDbSymbolTableRecord
100
AcDbLayerTableRecord
  2
RUNDUNGEN
 70
0
 62
7
  6
CONTINUOUS
370
-3
390
F
  0
LAYER
  5
207
100
AcDbSymbolTableRecord
100
AcDbLayerTableRecord
  2
TEIL_STARTBEZUEGE
 70
0
 62
7
  6
CONTINUOUS
370
-3
390
F
  0
LAYER
  5
208
100
AcDbSymbolTableRecord
100
AcDbLayerTableRecord
  2
_00_ASM_START_FEATURES
 70
0
 62
7
  6
CONTINUOUS
370
-3
390
F
  0
LAYER
  5
209
100
AcDbSymbolTableRecord
100
AcDbLayerTableRecord
  2
_00_HILFEN
 70
0
 62
7
  6
CONTINUOUS
370
-3
390
F
  0
LAYER
  5
20A
100
AcDbSymbolTableRecord
100
AcDbLayerTableRecord
  2
_00_PLATZIERUNG
 70
0
 62
7
  6
CONTINUOUS
370
-3
390
F
  0
LAYER
  5
20B
100
AcDbSymbolTableRecord
100
AcDbLayerTableRecord
  2
_04_NOTIZEN
 70
0
 62
7
  6
CONTINUOUS
370
-3
390
F
  0
LAYER
  5
20C
100
AcDbSymbolTableRecord
100
AcDbLayerTableRecord
  2
_26_BEZUGSACHSEN
 70
0
 62
7
  6
CONTINUOUS
370
-3
390
F
  0
LAYER
  5
20D
100
AcDbSymbolTableRecord
100
AcDbLayerTableRecord
  2
_27_BEZUGSEBENEN
 70
0
 62
7
  6
CONTINUOUS
370
-3
390
F
  0
LAYER
  5
20E
100
AcDbSymbolTableRecord
100
AcDbLayerTableRecord
  2
_29_KOORDINATENSYSTEME
 70
0
 62
7
  6
CONTINUOUS
370
-3
390
F
  0
LAYER
  5
20F
100
AcDbSymbolTableRecord
100
AcDbLayerTableRecord
  2
_30_VOLUMEN
 70
0
 62
7
  6
CONTINUOUS
370
-3
390
F
  0
LAYER
  5
210
100
AcDbSymbolTableRecord
100
AcDbLayerTableRecord
  2
_MDL_SMALL
 70
0
 62
7
  6
CONTINUOUS
370
-3
390
F
  0
ENDTAB
  0
TABLE
  2
STYLE
  5
3
100
AcDbSymbolTable
 70
1
  0
STYLE
  5
11
100
AcDbSymbolTableRecord
100
AcDbTextStyleTableRecord
  2
STANDARD
 70
0
 40
0.0
 41
1.0
 50
0.0
 71
0
 42
0.2
  3
isonormlt-regular.ttf
  4

1001
ACAD
1000
Isonorm LT Regular
1071
34
  0
STYLE
  5
211
100
AcDbSymbolTableRecord
100
AcDbTextStyleTableRecord
  2
TEXTSTYLE_1
 70
0
 40
0.0
 41
0.8
 50
0.0
 71
0
 42
0.2
  3
gdt
  4

  0
STYLE
  5
212
100
AcDbSymbolTableRecord
100
AcDbTextStyleTableRecord
  2
TEXTSTYLE_2
 70
0
 40
0.0
 41
0.7
 50
0.0
 71
0
 42
0.2
  3
txt
  4

  0
ENDTAB
  0
TABLE
  2
VIEW
  5
6
100
AcDbSymbolTable
 70
0
  0
ENDTAB
  0
TABLE
  2
UCS
  5
7
100
AcDbSymbolTable
 70
0
  0
ENDTAB
  0
TABLE
  2
APPID
  5
9
100
AcDbSymbolTable
 70
1
  0
APPID
  5
213
100
AcDbSymbolTableRecord
100
AcDbRegAppTableRecord
  2
ACAD
 70
0
  0
ENDTAB
  0
TABLE
  2
BLOCK_RECORD
  5
1
100
AcDbSymbolTable
 70
0
  0
BLOCK_RECORD
  5
214
100
AcDbSymbolTableRecord
100
AcDbBlockTableRecord
  2
*Model_Space
  0
BLOCK_RECORD
  5
215
100
AcDbSymbolTableRecord
100
AcDbBlockTableRecord
  2
*Paper_Space
  0
BLOCK_RECORD
  5
216
100
AcDbSymbolTableRecord
100
AcDbBlockTableRecord
  2
_FILLED
  0
ENDTAB
  0
TABLE
  2
DIMSTYLE
  5
A
100
AcDbSymbolTable
 70
1
100
AcDbDimStyleTable
 71
0
  0
DIMSTYLE
105
217
100
AcDbSymbolTableRecord
100
AcDbDimStyleTableRecord
  2
STANDARD
 70
0
  3

  4

 40
1.0
 41
3.5
 42
0.0
 43
0.38
 44
1.5
 45
0.0
 46
0.0
 47
0.01
 48
0.01
140
3.5
141
0.09
142
0.0
143
25.4
144
1.0
145
0.0
146
1.0
147
0.625
 71
1
 72
0
 73
0
 74
0
 75
0
 76
0
 77
1
 78
8
 79
2
170
0
171
1
172
0
173
0
174
0
175
0
176
0
177
0
178
5
270
2
179
2
271
2
272
2
273
2
274
2
275
0
280
0
281
0
282
0
283
1
284
8
285
0
286
0
287
3
288
0
340
11
278
46
341
216
342
216
343
216
344
216
  0
ENDTAB
  0
ENDSEC
  0
SECTION
  2
BLOCKS
  0
BLOCK
  5
20
100
AcDbEntity
  8
0
100
AcDbBlockBegin
  2
*Model_Space
 70
0
 10
0.0
 20
0.0
 30
0.0
  3
*Model_Space
  1

  0
ENDBLK
  5
21
100
AcDbEntity
  8
0
100
AcDbBlockEnd
  0
BLOCK
  5
1C
100
AcDbEntity
  8
0
100
AcDbBlockBegin
  2
*Paper_Space
 70
0
 10
0.0
 20
0.0
 30
0.0
  3
*Paper_Space
  1

  0
ENDBLK
  5
1D
100
AcDbEntity
  8
0
100
AcDbBlockEnd
  0
BLOCK
  5
218
100
AcDbEntity
  8
0
100
AcDbBlockBegin
  2
_FILLED
 70
64
 10
0.0
 20
0.0
  3
_FILLED
  1

  0
SOLID
  5
219
100
AcDbEntity
  8
0
  6
BYBLOCK
 62
0
100
AcDbTrace
 10
0.0
 20
0.0
 11
-1.0
 21
0.125
 12
-1.0
 22
-0.125
 13
-1.0
 23
-0.125
  0
ENDBLK
  5
21A
100
AcDbEntity
  8
0
  6
BYBLOCK
 62
0
100
AcDbBlockEnd
  0
ENDSEC
  0
SECTION
  2
ENTITIES
  0
MTEXT
  5
21B
100
AcDbEntity
  8
_04_NOTIZEN
100
AcDbMText
 62
5
  6
CONTINUOUS
  7
TEXTSTYLE_2
 71
1
 72
1
 10
106.3275683449
 20
137.6488464886
 30
0.0
 11
0.0
 21
1.0
 31
0.0
 73
2
 44
0.9
  1
IML 4-4
 40
5.0
 41
40.5357142857
  0
MTEXT
  5
21C
100
AcDbEntity
  8
_04_NOTIZEN
100
AcDbMText
 62
5
  6
CONTINUOUS
  7
TEXTSTYLE_2
 71
1
 72
1
 10
60.6002692213
 20
145.5405747893
 30
0.0
 11
0.0
 21
1.0
 31
0.0
 73
2
 44
0.9
  1
RUD
 40
5.0
 41
20.0
  0
MTEXT
  5
21D
100
AcDbEntity
  8
_04_NOTIZEN
100
AcDbMText
 62
5
  6
CONTINUOUS
  7
TEXTSTYLE_2
 71
1
 72
1
 10
245.0626844074
 20
133.2233126316
 30
0.0
 11
0.0
 21
1.0
 31
0.0
 73
2
 44
0.9
  1
RUD IML 4-4
 40
5.0
 41
65.0
  0
LINE
  5
21E
100
AcDbEntity
  8
0
100
AcDbLine
 62
7
  6
CONTINUOUS
 10
0.0
 20
0.0
 11
0.0
 21
210.0
  0
LINE
  5
21F
100
AcDbEntity
  8
0
100
AcDbLine
 62
7
  6
CONTINUOUS
 10
0.0
 20
0.0
 11
297.0
 21
0.0
  0
LINE
  5
220
100
AcDbEntity
  8
0
100
AcDbLine
 62
7
  6
CONTINUOUS
 10
0.0
 20
210.0
 11
297.0
 21
210.0
  0
LINE
  5
221
100
AcDbEntity
  8
0
100
AcDbLine
 62
7
  6
CONTINUOUS
 10
297.0
 20
0.0
 11
297.0
 21
210.0
  0
LINE
  5
222
100
AcDbEntity
  8
KONSTRUKTIONSELEMENTE
100
AcDbLine
 62
7
  6
CONTINUOUS
 10
61.2255239449
 20
24.5069620225
 11
48.1969865935
 21
30.5822687641
  0
LINE
  5
223
100
AcDbEntity
  8
KONSTRUKTIONSELEMENTE
100
AcDbLine
 62
7
  6
CONTINUOUS
 10
35.5086732577
 20
36.4989264416
 11
39.7853399497
 21
34.5046840118
  0
LINE
  5
224
100
AcDbEntity
  8
KONSTRUKTIONSELEMENTE
100
AcDbLine
 62
7
  6
CONTINUOUS
 10
27.0970302646
 20
40.4213399869
 11
14.0684911005
 21
46.4966475738
  0
LINE
  5
225
100
AcDbEntity
  8
KONSTRUKTIONSELEMENTE
100
AcDbLine
 62
7
  6
CONTINUOUS
 10
36.8520669644
 20
40.8376923036
 11
42.2455124367
 21
38.322687376
  0
LINE
  5
226
100
AcDbEntity
  8
AUSFORMSCHRAEGEN
100
AcDbLine
 62
7
  6
CONTINUOUS
 10
14.5642542935
 20
53.4374258735
 11
29.9714866731
 21
46.2529154239
  0
LINE
  5
227
100
AcDbEntity
  8
AUSFORMSCHRAEGEN
100
AcDbLine
 62
7
  6
CONTINUOUS
 10
50.816565775
 20
36.5326954039
 11
66.2237981546
 21
29.3481849543
  0
LINE
  5
228
100
AcDbEntity
  8
FASEN
100
AcDbLine
 62
7
  6
CONTINUOUS
 10
11.9626400936
 20
37.662341781
 11
11.9536571609
 21
37.0728332501
  0
LINE
  5
229
100
AcDbEntity
  8
KONSTRUKTIONSELEMENTE
100
AcDbLine
 62
7
  6
CONTINUOUS
 10
38.5425400114
 20
44.4629234517
 11
43.9359854836
 21
41.9479185242
  0
LINE
  5
22A
100
AcDbEntity
  8
KONSTRUKTIONSELEMENTE
100
AcDbLine
 62
7
  6
CONTINUOUS
 10
19.5625285031
 20
58.2786488052
 11
32.5910667128
 21
52.2033416635
  0
LINE
  5
22B
100
AcDbEntity
  8
KONSTRUKTIONSELEMENTE
100
AcDbLine
 62
7
  6
CONTINUOUS
 10
41.0027295903
 20
48.2809188459
 11
45.2793771989
 21
46.2866853148
  0
LINE
  5
22C
100
AcDbEntity
  8
KONSTRUKTIONSELEMENTE
100
AcDbLine
 62
7
  6
CONTINUOUS
 10
53.6910078956
 20
42.3642775033
 11
66.7195613476
 21
36.288963254
  0
LINE
  5
22D
100
AcDbEntity
  8
FASEN
100
AcDbLine
 62
7
  6
CONTINUOUS
 10
23.0831007888
 20
32.0870166698
 11
23.1036458187
 21
31.5874389464
  0
LINE
  5
22E
100
AcDbEntity
  8
FASEN
100
AcDbLine
 62
7
  6
CONTINUOUS
 10
24.0908954724
 20
32.0068434179
 11
26.1368986274
 21
40.8690567222
  0
LINE
  5
22F
100
AcDbEntity
  8
KONSTRUKTIONSELEMENTE
100
AcDbLine
 62
7
  6
CONTINUOUS
 10
13.0226904728
 20
48.9603994567
 11
14.5642542935
 21
53.4374258735
  0
LINE
  5
230
100
AcDbEntity
  8
0
100
AcDbLine
 62
7
  6
CONTINUOUS
 10
102.7686030238
 20
60.3671438706
 11
102.2794816229
 21
60.2329673082
  0
LINE
  5
231
100
AcDbEntity
  8
0
100
AcDbLine
 62
7
  6
CONTINUOUS
 10
102.7973891907
 20
59.911044618
 11
102.3837933667
 21
59.8120862104
  0
LINE
  5
232
100
AcDbEntity
  8
FASEN
100
AcDbLine
 62
7
  6
CONTINUOUS
 10
116.2619289654
 20
17.2152042569
 11
116.7077445819
 21
16.8293941517
  0
LINE
  5
233
100
AcDbEntity
  8
FASEN
100
AcDbLine
 62
7
  6
CONTINUOUS
 10
43.6834126399
 20
22.8707026201
 11
43.6744297072
 21
22.2811940891
  0
LINE
  5
234
100
AcDbEntity
  8
KONSTRUKTIONSELEMENTE
100
AcDbLine
 62
7
  6
CONTINUOUS
 10
19.366844982
 20
46.0020716246
 11
20.9084088027
 21
50.4790980413
  0
LINE
  5
235
100
AcDbEntity
  8
KONSTRUKTIONSELEMENTE
100
AcDbLine
 62
7
  6
CONTINUOUS
 10
26.5283026039
 20
69.926056903
 11
37.3050682783
 21
93.0369054725
  0
LINE
  5
236
100
AcDbEntity
  8
0
100
AcDbLine
 62
7
  6
CONTINUOUS
 10
22.9303812744
 20
56.7081932664
 11
23.7756177979
 21
58.5208088405
  0
LINE
  5
237
100
AcDbEntity
  8
0
100
AcDbLine
 62
7
  6
CONTINUOUS
 10
103.1426405621
 20
60.3537514541
 11
102.7686030238
 21
60.3671438706
  0
LINE
  5
238
100
AcDbEntity
  8
0
100
AcDbLine
 62
7
  6
CONTINUOUS
 10
103.0959011521
 20
59.8624340466
 11
102.7973891907
 21
59.911044618
  0
LINE
  5
239
100
AcDbEntity
  8
FASEN
100
AcDbLine
 62
7
  6
CONTINUOUS
 10
127.680970133
 20
22.1502214741
 11
128.0768749625
 21
21.8448375093
  0
LINE
  5
23A
100
AcDbEntity
  8
FASEN
100
AcDbLine
 62
7
  6
CONTINUOUS
 10
54.8038734228
 20
17.2953775123
 11
54.8244184562
 21
16.795799789
  0
LINE
  5
23B
100
AcDbEntity
  8
KONSTRUKTIONSELEMENTE
100
AcDbLine
 62
7
  6
CONTINUOUS
 10
28.6120249926
 20
46.8868428165
 11
30.1535888133
 21
51.3638692333
  0
LINE
  5
23C
100
AcDbEntity
  8
KONSTRUKTIONSELEMENTE
100
AcDbLine
 62
7
  6
CONTINUOUS
 10
35.2288573595
 20
65.8689215903
 11
46.0056230339
 21
88.9797701598
  0
LINE
  5
23D
100
AcDbEntity
  8
KONSTRUKTIONSELEMENTE
100
AcDbLine
 62
7
  6
CONTINUOUS
 10
14.5642542935
 20
53.4374258735
 11
17.0029573782
 21
57.496109381
  0
LINE
  5
23E
100
AcDbEntity
  8
KONSTRUKTIONSELEMENTE
100
AcDbLine
 62
7
  6
CONTINUOUS
 10
135.5618822448
 20
78.5955296858
 11
136.0788769612
 21
78.7192276553
  0
LINE
  5
23F
100
AcDbEntity
  8
KONSTRUKTIONSELEMENTE
100
AcDbLine
 62
7
  6
CONTINUOUS
 10
134.8154490678
 20
83.6469711479
 11
135.3324438477
 21
83.7706691573
  0
LINE
  5
240
100
AcDbEntity
  8
KONSTRUKTIONSELEMENTE
100
AcDbLine
 62
7
  6
CONTINUOUS
 10
135.3865329507
 20
79.2180467331
 11
135.8091206246
 21
79.297721986
  0
LINE
  5
241
100
AcDbEntity
  8
KONSTRUKTIONSELEMENTE
100
AcDbLine
 62
7
  6
CONTINUOUS
 10
135.0852053729
 20
83.0684768847
 11
135.5077931817
 21
83.1481522005
  0
LINE
  5
242
100
AcDbEntity
  8
0
100
AcDbLine
 62
7
  6
CONTINUOUS
 10
103.5886133313
 20
60.1860940015
 11
103.1426405621
 21
60.3537514541
  0
LINE
  5
243
100
AcDbEntity
  8
KONSTRUKTIONSELEMENTE
100
AcDbLine
 62
7
  6
CONTINUOUS
 10
57.736798492
 20
164.2740464138
 11
57.736798492
 21
139.2740464138
  0
LINE
  5
244
100
AcDbEntity
  8
0
100
AcDbLine
 62
7
  6
CONTINUOUS
 10
31.63093603
 20
52.6510579537
 11
32.4761725535
 21
54.4636735278
  0
LINE
  5
245
100
AcDbEntity
  8
KONSTRUKTIONSELEMENTE
100
AcDbLine
 62
7
  6
CONTINUOUS
 10
20.9084088027
 20
50.4790980413
 11
23.3471118875
 21
54.5377815488
  0
LINE
  5
246
100
AcDbEntity
  8
KONSTRUKTIONSELEMENTE
100
AcDbLine
 62
7
  6
CONTINUOUS
 10
135.094335175
 20
78.6122701688
 11
135.5618822448
 21
78.5955296858
  0
LINE
  5
247
100
AcDbEntity
  8
0
100
AcDbLine
 62
7
  6
CONTINUOUS
 10
103.3548548279
 20
59.7014726511
 11
103.0959011521
 21
59.8624340466
  0
LINE
  5
248
100
AcDbEntity
  8
0
100
AcDbLine
 62
7
  6
CONTINUOUS
 10
95.5398056331
 20
69.5078526097
 11
95.2851238157
 21
69.686182738
  0
LINE
  5
249
100
AcDbEntity
  8
KONSTRUKTIONSELEMENTE
100
AcDbLine
 62
7
  6
CONTINUOUS
 10
108.2885019142
 20
25.2895014468
 11
105.8497988295
 21
29.3481849543
  0
LINE
  5
24A
100
AcDbEntity
  8
KONSTRUKTIONSELEMENTE
100
AcDbLine
 62
7
  6
CONTINUOUS
 10
68.536798492
 20
164.2740464138
 11
68.536798492
 21
139.2740464138
  0
LINE
  5
24B
100
AcDbEntity
  8
KONSTRUKTIONSELEMENTE
100
AcDbLine
 62
7
  6
CONTINUOUS
 10
76.5973125634
 20
128.969050163
 11
60.3809416545
 21
94.1929305234
  0
LINE
  5
24C
100
AcDbEntity
  8
KONSTRUKTIONSELEMENTE
100
AcDbLine
 62
7
  6
CONTINUOUS
 10
26.1733219078
 20
42.828159309
 11
28.6120249926
 21
46.8868428165
  0
LINE
  5
24D
100
AcDbEntity
  8
FASEN
100
AcDbLine
 62
7
  6
CONTINUOUS
 10
17.4363438718
 20
44.926192035
 11
11.9626400936
 21
37.662341781
  0
LINE
  5
24E
100
AcDbEntity
  8
KONSTRUKTIONSELEMENTE
100
AcDbLine
 62
7
  6
CONTINUOUS
 10
135.3324438477
 20
83.7706691573
 11
135.7999907707
 21
83.7539286366
  0
LINE
  5
24F
100
AcDbEntity
  8
KONSTRUKTIONSELEMENTE
100
AcDbLine
 62
7
  6
CONTINUOUS
 10
135.0133929674
 20
79.2788100149
 11
135.3865329507
 21
79.2180467331
  0
LINE
  5
250
100
AcDbEntity
  8
FASEN
100
AcDbLine
 62
7
  6
CONTINUOUS
 10
147.9827015117
 20
32.0068434179
 11
148.4285171281
 21
31.6210333127
  0
LINE
  5
251
100
AcDbEntity
  8
0
100
AcDbLine
 62
7
  6
CONTINUOUS
 10
103.8080087215
 20
59.9127817819
 11
103.5886133313
 21
60.1860940015
  0
LINE
  5
252
100
AcDbEntity
  8
FASEN
100
AcDbLine
 62
7
  6
CONTINUOUS
 10
128.3901843442
 20
22.8707026201
 11
122.916480566
 21
30.134552874
  0
LINE
  5
253
100
AcDbEntity
  8
KONSTRUKTIONSELEMENTE
100
AcDbLine
 62
7
  6
CONTINUOUS
 10
114.6326564235
 20
28.247829279
 11
112.1939533387
 21
32.3065127865
  0
LINE
  5
254
100
AcDbEntity
  8
FASEN
100
AcDbLine
 62
7
  6
CONTINUOUS
 10
55.8116680187
 20
17.2152042569
 11
57.8576711736
 21
26.0774175613
  0
LINE
  5
255
100
AcDbEntity
  8
KONSTRUKTIONSELEMENTE
100
AcDbLine
 62
7
  6
CONTINUOUS
 10
50.6344636348
 20
31.4217415945
 11
52.1760274555
 21
35.8987680112
  0
LINE
  5
256
100
AcDbEntity
  8
KONSTRUKTIONSELEMENTE
100
AcDbLine
 62
7
  6
CONTINUOUS
 10
84.2102979745
 20
125.4190567644
 11
67.9939270656
 21
90.6429371247
  0
LINE
  5
257
100
AcDbEntity
  8
KONSTRUKTIONSELEMENTE
100
AcDbLine
 62
7
  6
CONTINUOUS
 10
135.5077931817
 20
83.1481522005
 11
135.8809331336
 21
83.0873889862
  0
LINE
  5
258
100
AcDbEntity
  8
KONSTRUKTIONSELEMENTE
100
AcDbLine
 62
7
  6
CONTINUOUS
 10
134.5368694004
 20
78.8218421127
 11
135.094335175
 21
78.6122701688
  0
LINE
  5
259
100
AcDbEntity
  8
FASEN
100
AcDbLine
 62
7
  6
CONTINUOUS
 10
159.4017427331
 20
36.9418607045
 11
159.7976475647
 21
36.6364767425
  0
LINE
  5
25A
100
AcDbEntity
  8
KONSTRUKTIONSELEMENTE
100
AcDbLine
 62
7
  6
CONTINUOUS
 10
119.8975695285
 20
35.8987680112
 11
117.4588664438
 21
39.9574515187
  0
LINE
  5
25B
100
AcDbEntity
  8
KONSTRUKTIONSELEMENTE
100
AcDbLine
 62
7
  6
CONTINUOUS
 10
100.9091166703
 20
49.1118654062
 11
90.1323509959
 21
72.2227139756
  0
LINE
  5
25C
100
AcDbEntity
  8
0
100
AcDbLine
 62
7
  6
CONTINUOUS
 10
108.7218884078
 20
37.8594187928
 11
107.8766518843
 21
39.6720343669
  0
LINE
  5
25D
100
AcDbEntity
  8
0
100
AcDbLine
 62
7
  6
CONTINUOUS
 10
99.4347024966
 20
58.249093568
 11
99.7224426562
 21
57.6320328045
  0
LINE
  5
25E
100
AcDbEntity
  8
0
100
AcDbLine
 62
7
  6
CONTINUOUS
 10
99.9238238975
 20
58.3832701305
 11
101.3265568856
 21
55.3750995297
  0
LINE
  5
25F
100
AcDbEntity
  8
0
100
AcDbLine
 62
7
  6
CONTINUOUS
 10
100.0892377322
 20
59.2116398087
 11
101.7797107792
 21
55.5864086606
  0
LINE
  5
260
100
AcDbEntity
  8
0
100
AcDbLine
 62
7
  6
CONTINUOUS
 10
95.7747545146
 20
69.7418277821
 11
97.482004733
 21
66.0806178738
  0
LINE
  5
261
100
AcDbEntity
  8
0
100
AcDbLine
 62
7
  6
CONTINUOUS
 10
102.2040783726
 20
56.2538170478
 11
102.3839159345
 21
55.8681541516
  0
LINE
  5
262
100
AcDbEntity
  8
0
100
AcDbLine
 62
7
  6
CONTINUOUS
 10
98.372855457
 20
64.6047029773
 11
98.6475162437
 21
64.0156910193
  0
LINE
  5
263
100
AcDbEntity
  8
0
100
AcDbLine
 62
7
  6
CONTINUOUS
 10
96.0647730065
 20
69.8770656259
 11
97.7720232249
 21
66.2158557176
  0
LINE
  5
264
100
AcDbEntity
  8
KONSTRUKTIONSELEMENTE
100
AcDbLine
 62
7
  6
CONTINUOUS
 10
105.8497988295
 20
29.3481849543
 11
104.3082350088
 21
33.825211371
  0
LINE
  5
265
100
AcDbEntity
  8
KONSTRUKTIONSELEMENTE
100
AcDbLine
 62
7
  6
CONTINUOUS
 10
59.8796436453
 20
32.3065127865
 11
61.421207466
 21
36.7835392032
  0
LINE
  5
266
100
AcDbEntity
  8
0
100
AcDbLine
 62
7
  6
CONTINUOUS
 10
54.6511538207
 20
41.9165541055
 11
55.4963903442
 21
43.7291696796
  0
LINE
  5
267
100
AcDbEntity
  8
KONSTRUKTIONSELEMENTE
100
AcDbLine
 62
7
  6
CONTINUOUS
 10
62.4639255582
 20
53.1690007189
 11
73.2406912326
 21
76.2798492883
  0
LINE
  5
268
100
AcDbEntity
  8
KONSTRUKTIONSELEMENTE
100
AcDbLine
 62
7
  6
CONTINUOUS
 10
135.7999907707
 20
83.7539286366
 11
136.2300059832
 21
83.5922702124
  0
LINE
  5
269
100
AcDbEntity
  8
0
100
AcDbLine
 62
7
  6
CONTINUOUS
 10
98.7532324887
 20
64.6924396833
 11
100.0922035475
 21
61.8210069813
  0
LINE
  5
26A
100
AcDbEntity
  8
0
100
AcDbLine
 62
7
  6
CONTINUOUS
 10
98.8246162435
 20
65.4428146099
 11
100.4382479929
 21
61.9823701562
  0
LINE
  5
26B
100
AcDbEntity
  8
0
100
AcDbLine
 62
7
  6
CONTINUOUS
 10
98.3691045719
 20
69.323639026
 11
98.8304107136
 21
68.3343648126
  0
LINE
  5
26C
100
AcDbEntity
  8
0
100
AcDbLine
 62
7
  6
CONTINUOUS
 10
98.6657143902
 20
69.4619504557
 11
99.1270205319
 21
68.4726762423
  0
LINE
  5
26D
100
AcDbEntity
  8
0
100
AcDbLine
 62
7
  6
CONTINUOUS
 10
103.3548548279
 20
59.7014726511
 11
103.4267899434
 21
59.5472072981
  0
LINE
  5
26E
100
AcDbEntity
  8
0
100
AcDbLine
 62
7
  6
CONTINUOUS
 10
103.8080087215
 20
59.9127817819
 11
103.8799438369
 21
59.758516429
  0
LINE
  5
26F
100
AcDbEntity
  8
0
100
AcDbLine
 62
7
  6
CONTINUOUS
 10
104.9230016256
 20
57.5216717826
 11
105.1028391876
 21
57.1360088865
  0
LINE
  5
270
100
AcDbEntity
  8
KONSTRUKTIONSELEMENTE
100
AcDbLine
 62
7
  6
CONTINUOUS
 10
109.6096714258
 20
53.1690007189
 11
98.8329057515
 21
76.2798492883
  0
LINE
  5
271
100
AcDbEntity
  8
0
100
AcDbLine
 62
7
  6
CONTINUOUS
 10
117.4224431633
 20
41.9165541055
 11
116.5772066399
 21
43.7291696796
  0
LINE
  5
272
100
AcDbEntity
  8
KONSTRUKTIONSELEMENTE
100
AcDbLine
 62
7
  6
CONTINUOUS
 10
112.1939533387
 20
32.3065127865
 11
110.652389518
 21
36.7835392032
  0
LINE
  5
273
100
AcDbEntity
  8
KONSTRUKTIONSELEMENTE
100
AcDbLine
 62
7
  6
CONTINUOUS
 10
66.2237981546
 20
29.3481849543
 11
67.7653619753
 21
33.825211371
  0
LINE
  5
274
100
AcDbEntity
  8
0
100
AcDbLine
 62
7
  6
CONTINUOUS
 10
63.3517085763
 20
37.8594187928
 11
64.1969450997
 21
39.6720343669
  0
LINE
  5
275
100
AcDbEntity
  8
KONSTRUKTIONSELEMENTE
100
AcDbLine
 62
7
  6
CONTINUOUS
 10
52.1760274555
 20
35.8987680112
 11
54.6147305403
 21
39.9574515187
  0
LINE
  5
276
100
AcDbEntity
  8
FASEN
100
AcDbLine
 62
7
  6
CONTINUOUS
 10
12.671854251
 20
36.9418607045
 11
12.2759494194
 21
36.6364767425
  0
LINE
  5
277
100
AcDbEntity
  8
KONSTRUKTIONSELEMENTE
100
AcDbLine
 62
7
  6
CONTINUOUS
 10
134.6897006701
 20
79.4800116648
 11
135.0133929674
 21
79.2788100149
  0
LINE
  5
278
100
AcDbEntity
  8
KONSTRUKTIONSELEMENTE
100
AcDbLine
 62
7
  6
CONTINUOUS
 10
121.4391333493
 20
31.4217415945
 11
119.8975695285
 21
35.8987680112
  0
LINE
  5
279
100
AcDbEntity
  8
FASEN
100
AcDbLine
 62
7
  6
CONTINUOUS
 10
114.2159258104
 20
26.0774175613
 11
116.2619289654
 21
17.2152042569
  0
LINE
  5
27A
100
AcDbEntity
  8
0
100
AcDbLine
 62
7
  6
CONTINUOUS
 10
101.0962668089
 20
59.0238937313
 11
101.1646111533
 21
58.6801452524
  0
LINE
  5
27B
100
AcDbEntity
  8
0
100
AcDbLine
 62
7
  6
CONTINUOUS
 10
103.8799438369
 20
59.758516429
 11
103.9482885055
 21
59.4147681012
  0
LINE
  5
27C
100
AcDbEntity
  8
KONSTRUKTIONSELEMENTE
100
AcDbLine
 62
7
  6
CONTINUOUS
 10
103.536798492
 20
139.2740464138
 11
103.536798492
 21
164.2740464138
  0
LINE
  5
27D
100
AcDbEntity
  8
0
100
AcDbLine
 62
7
  6
CONTINUOUS
 10
97.1527976022
 20
66.051188756
 11
97.1254673791
 21
65.7388028769
  0
LINE
  5
27E
100
AcDbEntity
  8
KONSTRUKTIONSELEMENTE
100
AcDbLine
 62
7
  6
CONTINUOUS
 10
71.1644803138
 20
49.1118654062
 11
81.9412459882
 21
72.2227139756
  0
LINE
  5
27F
100
AcDbEntity
  8
KONSTRUKTIONSELEMENTE
100
AcDbLine
 62
7
  6
CONTINUOUS
 10
57.4409405606
 20
28.247829279
 11
59.8796436453
 21
32.3065127865
  0
LINE
  5
280
100
AcDbEntity
  8
FASEN
100
AcDbLine
 62
7
  6
CONTINUOUS
 10
49.1571164181
 20
30.134552874
 11
43.6834126399
 21
22.8707026201
  0
LINE
  5
281
100
AcDbEntity
  8
FASEN
100
AcDbLine
 62
7
  6
CONTINUOUS
 10
24.0908954724
 20
32.0068434179
 11
23.6450798559
 21
31.6210333127
  0
LINE
  5
282
100
AcDbEntity
  8
KONSTRUKTIONSELEMENTE
100
AcDbLine
 62
7
  6
CONTINUOUS
 10
134.1682177127
 20
79.1194595525
 11
134.5368694004
 21
78.8218421127
  0
LINE
  5
283
100
AcDbEntity
  8
KONSTRUKTIONSELEMENTE
100
AcDbLine
 62
7
  6
CONTINUOUS
 10
104.0674995765
 20
90.6690365073
 11
87.8511286676
 21
125.4451561469
  0
LINE
  5
284
100
AcDbEntity
  8
0
100
AcDbLine
 62
7
  6
CONTINUOUS
 10
103.4267899434
 20
59.5472072981
 11
103.419608819
 21
59.1682407146
  0
LINE
  5
285
100
AcDbEntity
  8
0
100
AcDbLine
 62
7
  6
CONTINUOUS
 10
101.5853881017
 20
59.1580702434
 11
101.54223947
 21
58.8562362283
  0
LINE
  5
286
100
AcDbEntity
  8
0
100
AcDbLine
 62
7
  6
CONTINUOUS
 10
103.9482885055
 20
59.4147681012
 11
103.9051394416
 21
59.1129338846
  0
LINE
  5
287
100
AcDbEntity
  8
0
100
AcDbLine
 62
7
  6
CONTINUOUS
 10
98.4785717981
 20
65.281451435
 11
98.372855457
 21
64.6047029773
  0
LINE
  5
288
100
AcDbEntity
  8
0
100
AcDbLine
 62
7
  6
CONTINUOUS
 10
98.7532324887
 20
64.6924396833
 11
98.6475162437
 21
64.0156910193
  0
LINE
  5
289
100
AcDbEntity
  8
0
100
AcDbLine
 62
7
  6
CONTINUOUS
 10
99.6360838387
 20
59.0003306779
 11
99.4347024966
 21
58.249093568
  0
LINE
  5
28A
100
AcDbEntity
  8
0
100
AcDbLine
 62
7
  6
CONTINUOUS
 10
99.9238238975
 20
58.3832701305
 11
99.7224426562
 21
57.6320328045
  0
LINE
  5
28B
100
AcDbEntity
  8
KONSTRUKTIONSELEMENTE
100
AcDbLine
 62
7
  6
CONTINUOUS
 10
63.7850950698
 20
25.2895014468
 11
66.2237981546
 21
29.3481849543
  0
LINE
  5
28C
100
AcDbEntity
  8
_MDL_SMALL
100
AcDbLine
 62
7
  6
CONTINUOUS
 10
122.0731340412
 20
112.2908105036
 11
126.4032610601
 21
109.7908105036
  0
LINE
  5
28D
100
AcDbEntity
  8
KONSTRUKTIONSELEMENTE
100
AcDbLine
 62
7
  6
CONTINUOUS
 10
135.8809331336
 20
83.0873889862
 11
136.1102183832
 21
82.8421642781
  0
LINE
  5
28E
100
AcDbEntity
  8
KONSTRUKTIONSELEMENTE
100
AcDbLine
 62
7
  6
CONTINUOUS
 10
134.4154560947
 20
79.8216517819
 11
134.6897006701
 21
79.4800116648
  0
LINE
  5
28F
100
AcDbEntity
  8
FASEN
100
AcDbLine
 62
7
  6
CONTINUOUS
 10
160.1109568904
 20
37.662341781
 11
154.6372531123
 21
44.926192035
  0
LINE
  5
290
100
AcDbEntity
  8
KONSTRUKTIONSELEMENTE
100
AcDbLine
 62
7
  6
CONTINUOUS
 10
133.8490137278
 20
79.5575153683
 11
134.1682177127
 21
79.1194595525
  0
LINE
  5
291
100
AcDbEntity
  8
KONSTRUKTIONSELEMENTE
100
AcDbLine
 62
7
  6
CONTINUOUS
 10
145.9002750763
 20
42.828159309
 11
143.4615719915
 21
46.8868428165
  0
LINE
  5
292
100
AcDbEntity
  8
KONSTRUKTIONSELEMENTE
100
AcDbLine
 62
7
  6
CONTINUOUS
 10
111.6804849876
 20
94.2190299059
 11
95.4641140787
 21
128.9951495456
  0
LINE
  5
293
100
AcDbEntity
  8
KONSTRUKTIONSELEMENTE
100
AcDbLine
 62
7
  6
CONTINUOUS
 10
114.336798492
 20
139.2740464138
 11
114.336798492
 21
164.2740464138
  0
LINE
  5
294
100
AcDbEntity
  8
0
100
AcDbLine
 62
7
  6
CONTINUOUS
 10
101.2544994112
 20
59.4732967757
 11
101.0962668089
 21
59.0238937313
  0
LINE
  5
295
100
AcDbEntity
  8
_MDL_SMALL
100
AcDbLine
 62
7
  6
CONTINUOUS
 10
127.6051848488
 20
117.8726035724
 11
129.1551848488
 21
120.5572823241
  0
LINE
  5
296
100
AcDbEntity
  8
_MDL_SMALL
100
AcDbLine
 62
7
  6
CONTINUOUS
 10
130.0212102525
 20
120.0572823241
 11
128.4712102525
 21
117.3726035724
  0
LINE
  5
297
100
AcDbEntity
  8
RUNDUNGEN
100
AcDbLine
 62
7
  6
CONTINUOUS
 10
128.8013733978
 20
115.7386081186
 11
127.8013733978
 21
114.006557311
  0
LINE
  5
298
100
AcDbEntity
  8
_MDL_SMALL
100
AcDbLine
 62
7
  6
CONTINUOUS
 10
123.6231340412
 20
114.9754892553
 11
127.9532610601
 21
112.4754892553
  0
LINE
  5
299
100
AcDbEntity
  8
KONSTRUKTIONSELEMENTE
100
AcDbLine
 62
7
  6
CONTINUOUS
 10
123.5749289604
 20
115.2919956063
 11
98.4601922507
 21
129.7919956063
  0
LINE
  5
29A
100
AcDbEntity
  8
RUNDUNGEN
100
AcDbLine
 62
7
  6
CONTINUOUS
 10
127.8013734038
 20
114.0065573076
 11
161.6742878911
 21
94.4500210101
  0
LINE
  5
29B
100
AcDbEntity
  8
RUNDUNGEN
100
AcDbLine
 62
7
  6
CONTINUOUS
 10
128.8013734031
 20
115.7386081155
 11
162.6742878911
 21
96.1820718176
  0
LINE
  5
29C
100
AcDbEntity
  8
KONSTRUKTIONSELEMENTE
100
AcDbLine
 62
7
  6
CONTINUOUS
 10
125.5749289604
 20
118.7560972214
 11
100.4601922507
 21
133.2560972214
  0
LINE
  5
29D
100
AcDbEntity
  8
_MDL_SMALL
100
AcDbLine
 62
7
  6
CONTINUOUS
 10
130.2032610601
 20
116.3726035724
 11
128.4712102525
 21
117.3726035724
  0
LINE
  5
29E
100
AcDbEntity
  8
_MDL_SMALL
100
AcDbLine
 62
7
  6
CONTINUOUS
 10
127.6051848488
 20
117.8726035724
 11
125.8731340412
 21
118.8726035724
  0
LINE
  5
29F
100
AcDbEntity
  8
KONSTRUKTIONSELEMENTE
100
AcDbLine
 62
7
  6
CONTINUOUS
 10
151.1651881813
 20
50.4790980413
 11
148.7264850966
 21
54.5377815488
  0
LINE
  5
2A0
100
AcDbEntity
  8
0
100
AcDbLine
 62
7
  6
CONTINUOUS
 10
140.4426609541
 20
52.6510579537
 11
139.5974244306
 21
54.4636735278
  0
LINE
  5
2A1
100
AcDbEntity
  8
KONSTRUKTIONSELEMENTE
100
AcDbLine
 62
7
  6
CONTINUOUS
 10
136.8447396246
 20
65.8689215903
 11
126.0679739502
 21
88.9797701598
  0
LINE
  5
2A2
100
AcDbEntity
  8
KONSTRUKTIONSELEMENTE
100
AcDbLine
 62
7
  6
CONTINUOUS
 10
133.8490137278
 20
79.5575153683
 11
133.174622902
 21
81.0037511613
  0
LINE
  5
2A3
100
AcDbEntity
  8
KONSTRUKTIONSELEMENTE
100
AcDbLine
 62
7
  6
CONTINUOUS
 10
137.3808027396
 20
72.7170918815
 11
135.2677114309
 21
77.2486308167
  0
LINE
  5
2A4
100
AcDbEntity
  8
FASEN
100
AcDbLine
 62
7
  6
CONTINUOUS
 10
117.2697235613
 20
17.2953775123
 11
117.2491785279
 21
16.795799789
  0
LINE
  5
2A5
100
AcDbEntity
  8
0
100
AcDbLine
 62
7
  6
CONTINUOUS
 10
103.419608819
 20
59.1682407146
 11
102.2040783726
 21
56.2538170478
  0
LINE
  5
2A6
100
AcDbEntity
  8
0
100
AcDbLine
 62
7
  6
CONTINUOUS
 10
103.9051394416
 20
59.1129338846
 11
102.8082835279
 21
56.5355625388
  0
LINE
  5
2A7
100
AcDbEntity
  8
RUNDUNGEN
100
AcDbLine
 62
7
  6
CONTINUOUS
 10
132.7897614757
 20
111.1265101114
 11
133.7897614757
 21
112.858560919
  0
LINE
  5
2A8
100
AcDbEntity
  8
0
100
AcDbLine
 62
7
  6
CONTINUOUS
 10
101.7400300337
 20
59.4179899457
 11
101.5853881017
 21
59.1580702434
  0
LINE
  5
2A9
100
AcDbEntity
  8
0
100
AcDbLine
 62
7
  6
CONTINUOUS
 10
101.4846669201
 20
59.7684346329
 11
101.2544994112
 21
59.4732967757
  0
LINE
  5
2AA
100
AcDbEntity
  8
FASEN
100
AcDbLine
 62
7
  6
CONTINUOUS
 10
44.3926268511
 20
22.1502214741
 11
43.9967220216
 21
21.8448375093
  0
LINE
  5
2AB
100
AcDbEntity
  8
KONSTRUKTIONSELEMENTE
100
AcDbLine
 62
7
  6
CONTINUOUS
 10
131.774794621
 20
88.9155608824
 11
131.2083522541
 21
88.6514244689
  0
LINE
  5
2AC
100
AcDbEntity
  8
0
100
AcDbLine
 62
7
  6
CONTINUOUS
 10
96.2736475071
 20
70.3325915995
 11
95.78259347
 21
70.1036093414
  0
LINE
  5
2AD
100
AcDbEntity
  8
KONSTRUKTIONSELEMENTE
100
AcDbLine
 62
7
  6
CONTINUOUS
 10
133.3214435628
 20
84.1198855337
 11
133.8878859297
 21
84.3840219473
  0
LINE
  5
2AE
100
AcDbEntity
  8
KONSTRUKTIONSELEMENTE
100
AcDbLine
 62
7
  6
CONTINUOUS
 10
134.8154490678
 20
83.6469711479
 11
133.9657856525
 21
83.2507665905
  0
LINE
  5
2AF
100
AcDbEntity
  8
0
100
AcDbLine
 62
7
  6
CONTINUOUS
 10
98.1180680161
 20
66.3772190538
 11
97.7720232249
 21
66.2158557176
  0
LINE
  5
2B0
100
AcDbEntity
  8
0
100
AcDbLine
 62
7
  6
CONTINUOUS
 10
98.2563793881
 20
66.0806093593
 11
97.7653253509
 21
65.8516271012
  0
LINE
  5
2B1
100
AcDbEntity
  8
0
100
AcDbLine
 62
7
  6
CONTINUOUS
 10
96.4212876499
 20
70.0402922715
 11
96.0647730065
 21
69.8770656259
  0
LINE
  5
2B2
100
AcDbEntity
  8
_MDL_SMALL
100
AcDbLine
 62
7
  6
CONTINUOUS
 10
131.7532610601
 20
119.0572823241
 11
130.0212102525
 21
120.0572823241
  0
LINE
  5
2B3
100
AcDbEntity
  8
_MDL_SMALL
100
AcDbLine
 62
7
  6
CONTINUOUS
 10
129.1551848488
 20
120.5572823241
 11
127.4231340412
 21
121.5572823241
  0
LINE
  5
2B4
100
AcDbEntity
  8
KONSTRUKTIONSELEMENTE
100
AcDbLine
 62
7
  6
CONTINUOUS
 10
157.5093426906
 20
53.4374258735
 11
155.0706396058
 21
57.496109381
  0
LINE
  5
2B5
100
AcDbEntity
  8
KONSTRUKTIONSELEMENTE
100
AcDbLine
 62
7
  6
CONTINUOUS
 10
134.4154560947
 20
79.8216517819
 11
133.7410652689
 21
81.2678875749
  0
LINE
  5
2B6
100
AcDbEntity
  8
KONSTRUKTIONSELEMENTE
100
AcDbLine
 62
7
  6
CONTINUOUS
 10
137.6774887698
 20
73.5597226258
 11
136.9581385284
 21
75.1023741969
  0
LINE
  5
2B7
100
AcDbEntity
  8
KONSTRUKTIONSELEMENTE
100
AcDbLine
 62
7
  6
CONTINUOUS
 10
136.6883822233
 20
75.6808684601
 11
136.1039101029
 21
76.9342729671
  0
LINE
  5
2B8
100
AcDbEntity
  8
KONSTRUKTIONSELEMENTE
100
AcDbLine
 62
7
  6
CONTINUOUS
 10
133.3214435628
 20
84.1198855337
 11
131.2083522541
 21
88.6514244689
  0
LINE
  5
2B9
100
AcDbEntity
  8
KONSTRUKTIONSELEMENTE
100
AcDbLine
 62
7
  6
CONTINUOUS
 10
133.8878859297
 20
84.3840219473
 11
131.774794621
 21
88.9155608824
  0
LINE
  5
2BA
100
AcDbEntity
  8
KONSTRUKTIONSELEMENTE
100
AcDbLine
 62
7
  6
CONTINUOUS
 10
139.4127222083
 20
76.2469653644
 11
139.1429659032
 21
76.8254596276
  0
LINE
  5
2BB
100
AcDbEntity
  8
KONSTRUKTIONSELEMENTE
100
AcDbLine
 62
7
  6
CONTINUOUS
 10
140.6009803774
 20
74.2186853747
 11
140.3312240408
 21
74.7971797054
  0
LINE
  5
2BC
100
AcDbEntity
  8
KONSTRUKTIONSELEMENTE
100
AcDbLine
 62
7
  6
CONTINUOUS
 10
138.7576453739
 20
78.1717300467
 11
138.4878890687
 21
78.7502243098
  0
LINE
  5
2BD
100
AcDbEntity
  8
KONSTRUKTIONSELEMENTE
100
AcDbLine
 62
7
  6
CONTINUOUS
 10
137.7958966594
 20
80.2342068206
 11
137.5299843164
 21
80.8044576804
  0
LINE
  5
2BE
100
AcDbEntity
  8
KONSTRUKTIONSELEMENTE
100
AcDbLine
 62
7
  6
CONTINUOUS
 10
136.4959184171
 20
83.0220191577
 11
136.2300059832
 21
83.5922702124
  0
LINE
  5
2BF
100
AcDbEntity
  8
0
100
AcDbLine
 62
7
  6
CONTINUOUS
 10
149.1432157096
 20
56.7081932664
 11
148.2979791861
 21
58.5208088405
  0
LINE
  5
2C0
100
AcDbEntity
  8
KONSTRUKTIONSELEMENTE
100
AcDbLine
 62
7
  6
CONTINUOUS
 10
145.5452943801
 20
69.926056903
 11
134.7685287057
 21
93.0369054725
  0
LINE
  5
2C1
100
AcDbEntity
  8
KONSTRUKTIONSELEMENTE
100
AcDbLine
 62
7
  6
CONTINUOUS
 10
143.4615719915
 20
46.8868428165
 11
141.9200081708
 21
51.3638692333
  0
LINE
  5
2C2
100
AcDbEntity
  8
KONSTRUKTIONSELEMENTE
100
AcDbLine
 62
7
  6
CONTINUOUS
 10
133.174622902
 20
81.0037511613
 11
133.0442329191
 21
81.529852721
  0
LINE
  5
2C3
100
AcDbEntity
  8
FASEN
100
AcDbLine
 62
7
  6
CONTINUOUS
 10
128.3901843442
 20
22.8707026201
 11
128.3991672769
 21
22.2811940891
  0
LINE
  5
2C4
100
AcDbEntity
  8
KONSTRUKTIONSELEMENTE
100
AcDbLine
 62
7
  6
CONTINUOUS
 10
133.0442329191
 20
81.529852721
 11
133.0532095018
 21
82.003561033
  0
LINE
  5
2C5
100
AcDbEntity
  8
FASEN
100
AcDbLine
 62
7
  6
CONTINUOUS
 10
55.8116680187
 20
17.2152042569
 11
55.3658524022
 21
16.8293941517
  0
LINE
  5
2C6
100
AcDbEntity
  8
KONSTRUKTIONSELEMENTE
100
AcDbLine
 62
7
  6
CONTINUOUS
 10
133.9028730522
 20
82.3997656533
 11
134.2355419576
 21
82.6722723273
  0
LINE
  5
2C7
100
AcDbEntity
  8
0
100
AcDbLine
 62
7
  6
CONTINUOUS
 10
102.081690843
 20
59.6712134901
 11
101.7400300337
 21
59.4179899457
  0
LINE
  5
2C8
100
AcDbEntity
  8
KONSTRUKTIONSELEMENTE
100
AcDbLine
 62
7
  6
CONTINUOUS
 10
133.5387097084
 20
82.9342371914
 11
133.9657856525
 21
83.2507665905
  0
LINE
  5
2C9
100
AcDbEntity
  8
0
100
AcDbLine
 62
7
  6
CONTINUOUS
 10
101.9773788832
 20
60.0920944871
 11
101.4846669201
 21
59.7684346329
  0
LINE
  5
2CA
100
AcDbEntity
  8
KONSTRUKTIONSELEMENTE
100
AcDbLine
 62
7
  6
CONTINUOUS
 10
134.2355419576
 20
82.6722723273
 11
135.0852053729
 21
83.0684768847
  0
LINE
  5
2CB
100
AcDbEntity
  8
KONSTRUKTIONSELEMENTE
100
AcDbLine
 62
7
  6
CONTINUOUS
 10
136.1102183832
 20
82.8421642781
 11
136.4959184171
 21
83.0220191577
  0
LINE
  5
2CC
100
AcDbEntity
  8
0
100
AcDbLine
 62
7
  6
CONTINUOUS
 10
98.8246162435
 20
65.4428146099
 11
98.4785717981
 21
65.281451435
  0
LINE
  5
2CD
100
AcDbEntity
  8
KONSTRUKTIONSELEMENTE
100
AcDbLine
 62
7
  6
CONTINUOUS
 10
137.1442842825
 20
80.6246028009
 11
137.5299843164
 21
80.8044576804
  0
LINE
  5
2CE
100
AcDbEntity
  8
KONSTRUKTIONSELEMENTE
100
AcDbLine
 62
7
  6
CONTINUOUS
 10
136.6587840398
 20
79.6939265434
 11
135.8091206246
 21
79.297721986
  0
LINE
  5
2CF
100
AcDbEntity
  8
KONSTRUKTIONSELEMENTE
100
AcDbLine
 62
7
  6
CONTINUOUS
 10
136.0788769612
 20
78.7192276553
 11
136.9285403765
 21
79.1154322127
  0
LINE
  5
2D0
100
AcDbEntity
  8
0
100
AcDbLine
 62
7
  6
CONTINUOUS
 10
100.4382479929
 20
61.9823701562
 11
100.0922035475
 21
61.8210069813
  0
LINE
  5
2D1
100
AcDbEntity
  8
KONSTRUKTIONSELEMENTE
100
AcDbLine
 62
7
  6
CONTINUOUS
 10
138.4878890687
 20
78.7502243098
 11
135.2677114309
 21
77.2486308167
  0
LINE
  5
2D2
100
AcDbEntity
  8
KONSTRUKTIONSELEMENTE
100
AcDbLine
 62
7
  6
CONTINUOUS
 10
136.1039101029
 20
76.9342729671
 11
138.7576453739
 21
78.1717300467
  0
LINE
  5
2D3
100
AcDbEntity
  8
0
100
AcDbLine
 62
7
  6
CONTINUOUS
 10
102.2794816229
 20
60.2329673082
 11
101.9773788832
 21
60.0920944871
  0
LINE
  5
2D4
100
AcDbEntity
  8
0
100
AcDbLine
 62
7
  6
CONTINUOUS
 10
100.0892377322
 20
59.2116398087
 11
99.6360838387
 21
59.0003306779
  0
LINE
  5
2D5
100
AcDbEntity
  8
0
100
AcDbLine
 62
7
  6
CONTINUOUS
 10
102.3837933667
 20
59.8120862104
 11
102.081690843
 21
59.6712134901
  0
LINE
  5
2D6
100
AcDbEntity
  8
KONSTRUKTIONSELEMENTE
100
AcDbLine
 62
7
  6
CONTINUOUS
 10
139.1429659032
 20
76.8254596276
 11
136.6883822233
 21
75.6808684601
  0
LINE
  5
2D7
100
AcDbEntity
  8
KONSTRUKTIONSELEMENTE
100
AcDbLine
 62
7
  6
CONTINUOUS
 10
152.706752002
 20
46.0020716246
 11
151.1651881813
 21
50.4790980413
  0
LINE
  5
2D8
100
AcDbEntity
  8
FASEN
100
AcDbLine
 62
7
  6
CONTINUOUS
 10
145.9366983567
 20
40.8690567222
 11
147.9827015117
 21
32.0068434179
  0
LINE
  5
2D9
100
AcDbEntity
  8
KONSTRUKTIONSELEMENTE
100
AcDbLine
 62
7
  6
CONTINUOUS
 10
133.7410652689
 20
81.2678875749
 11
133.6556347708
 21
81.6975731421
  0
LINE
  5
2DA
100
AcDbEntity
  8
KONSTRUKTIONSELEMENTE
100
AcDbLine
 62
7
  6
CONTINUOUS
 10
137.1847554639
 20
80.2913329757
 11
137.1442842825
 21
80.6246028009
  0
LINE
  5
2DB
100
AcDbEntity
  8
KONSTRUKTIONSELEMENTE
100
AcDbLine
 62
7
  6
CONTINUOUS
 10
133.6556347708
 20
81.6975731421
 11
133.7095706371
 21
82.0748660255
  0
LINE
  5
2DC
100
AcDbEntity
  8
KONSTRUKTIONSELEMENTE
100
AcDbLine
 62
7
  6
CONTINUOUS
 10
133.0532095018
 20
82.003561033
 11
133.2510001871
 21
82.565314807
  0
LINE
  5
2DD
100
AcDbEntity
  8
KONSTRUKTIONSELEMENTE
100
AcDbLine
 62
7
  6
CONTINUOUS
 10
133.7095706371
 20
82.0748660255
 11
133.9028730522
 21
82.3997656533
  0
LINE
  5
2DE
100
AcDbEntity
  8
KONSTRUKTIONSELEMENTE
100
AcDbLine
 62
7
  6
CONTINUOUS
 10
133.2510001871
 20
82.565314807
 11
133.5387097084
 21
82.9342371914
  0
LINE
  5
2DF
100
AcDbEntity
  8
KONSTRUKTIONSELEMENTE
100
AcDbLine
 62
7
  6
CONTINUOUS
 10
137.3556163841
 20
79.4319616516
 11
137.6433257585
 21
79.8008839984
  0
LINE
  5
2E0
100
AcDbEntity
  8
KONSTRUKTIONSELEMENTE
100
AcDbLine
 62
7
  6
CONTINUOUS
 10
136.6587840398
 20
79.6939265434
 11
136.9914530803
 21
79.9664332803
  0
LINE
  5
2E1
100
AcDbEntity
  8
KONSTRUKTIONSELEMENTE
100
AcDbLine
 62
7
  6
CONTINUOUS
 10
136.9285403765
 20
79.1154322127
 11
137.3556163841
 21
79.4319616516
  0
LINE
  5
2E2
100
AcDbEntity
  8
0
100
AcDbLine
 62
7
  6
CONTINUOUS
 10
101.54223947
 20
58.8562362283
 11
101.1646111533
 21
58.6801452524
  0
LINE
  5
2E3
100
AcDbEntity
  8
KONSTRUKTIONSELEMENTE
100
AcDbLine
 62
7
  6
CONTINUOUS
 10
136.9581385284
 20
75.1023741969
 11
139.4127222083
 21
76.2469653644
  0
LINE
  5
2E4
100
AcDbEntity
  8
KONSTRUKTIONSELEMENTE
100
AcDbLine
 62
7
  6
CONTINUOUS
 10
140.3312240408
 20
74.7971797054
 11
137.6774887698
 21
73.5597226258
  0
LINE
  5
2E5
100
AcDbEntity
  8
KONSTRUKTIONSELEMENTE
100
AcDbLine
 62
7
  6
CONTINUOUS
 10
137.3808027396
 20
72.7170918815
 11
140.6009803774
 21
74.2186853747
  0
LINE
  5
2E6
100
AcDbEntity
  8
0
100
AcDbLine
 62
7
  6
CONTINUOUS
 10
104.9230016256
 20
57.5216717826
 11
102.8082835279
 21
56.5355625388
  0
LINE
  5
2E7
100
AcDbEntity
  8
0
100
AcDbLine
 62
7
  6
CONTINUOUS
 10
105.1028391876
 20
57.1360088865
 11
102.3839159345
 21
55.8681541516
  0
LINE
  5
2E8
100
AcDbEntity
  8
0
100
AcDbLine
 62
7
  6
CONTINUOUS
 10
101.7797107792
 20
55.5864086606
 11
101.3265568856
 21
55.3750995297
  0
LINE
  5
2E9
100
AcDbEntity
  8
KONSTRUKTIONSELEMENTE
100
AcDbLine
 62
7
  6
CONTINUOUS
 10
159.0509065113
 20
48.9603994567
 11
157.5093426906
 21
53.4374258735
  0
LINE
  5
2EA
100
AcDbEntity
  8
KONSTRUKTIONSELEMENTE
100
AcDbLine
 62
7
  6
CONTINUOUS
 10
137.6433257585
 20
79.8008839984
 11
137.7958966594
 21
80.2342068206
  0
LINE
  5
2EB
100
AcDbEntity
  8
KONSTRUKTIONSELEMENTE
100
AcDbLine
 62
7
  6
CONTINUOUS
 10
136.9914530803
 20
79.9664332803
 11
137.1847554639
 21
80.2913329757
  0
LINE
  5
2EC
100
AcDbEntity
  8
FASEN
100
AcDbLine
 62
7
  6
CONTINUOUS
 10
148.9904961952
 20
32.0870166698
 11
148.9699511654
 21
31.5874389464
  0
LINE
  5
2ED
100
AcDbEntity
  8
RUNDUNGEN
100
AcDbLine
 62
7
  6
CONTINUOUS
 10
162.6742878911
 20
96.1820718176
 11
161.6742878911
 21
94.4500210101
  0
LINE
  5
2EE
100
AcDbEntity
  8
KONSTRUKTIONSELEMENTE
100
AcDbLine
 62
7
  6
CONTINUOUS
 10
105.3540356365
 20
36.288963254
 11
118.3825738757
 21
42.3642704095
  0
LINE
  5
2EF
100
AcDbEntity
  8
KONSTRUKTIONSELEMENTE
100
AcDbLine
 62
7
  6
CONTINUOUS
 10
126.7942364144
 20
46.2866930691
 11
131.0708843323
 21
48.2809267445
  0
LINE
  5
2F0
100
AcDbEntity
  8
KONSTRUKTIONSELEMENTE
100
AcDbLine
 62
7
  6
CONTINUOUS
 10
139.482515029
 20
52.2033345559
 11
152.5110684809
 21
58.2786488052
  0
LINE
  5
2F1
100
AcDbEntity
  8
FASEN
100
AcDbLine
 62
7
  6
CONTINUOUS
 10
160.1109568904
 20
37.662341781
 11
160.1199398231
 21
37.0728332501
  0
LINE
  5
2F2
100
AcDbEntity
  8
KONSTRUKTIONSELEMENTE
100
AcDbLine
 62
7
  6
CONTINUOUS
 10
133.5310569727
 20
44.4629234517
 11
128.1376115004
 21
41.9479185242
  0
LINE
  5
2F3
100
AcDbEntity
  8
AUSFORMSCHRAEGEN
100
AcDbLine
 62
7
  6
CONTINUOUS
 10
105.8497988295
 20
29.3481849543
 11
121.2570312091
 21
36.5326954039
  0
LINE
  5
2F4
100
AcDbEntity
  8
AUSFORMSCHRAEGEN
100
AcDbLine
 62
7
  6
CONTINUOUS
 10
142.1021103109
 20
46.2529154239
 11
157.5093426906
 21
53.4374258735
  0
LINE
  5
2F5
100
AcDbEntity
  8
KONSTRUKTIONSELEMENTE
100
AcDbLine
 62
7
  6
CONTINUOUS
 10
135.2215300196
 20
40.8376923036
 11
129.8280845474
 21
38.322687376
  0
LINE
  5
2F6
100
AcDbEntity
  8
KONSTRUKTIONSELEMENTE
100
AcDbLine
 62
7
  6
CONTINUOUS
 10
158.0051058836
 20
46.4966475738
 11
144.9765685321
 21
40.4213408322
  0
LINE
  5
2F7
100
AcDbEntity
  8
KONSTRUKTIONSELEMENTE
100
AcDbLine
 62
7
  6
CONTINUOUS
 10
123.8766122361
 20
30.5822696246
 11
110.8480730391
 21
24.5069620225
  0
LINE
  5
2F8
100
AcDbEntity
  8
KONSTRUKTIONSELEMENTE
100
AcDbLine
 62
7
  6
CONTINUOUS
 10
132.2882555547
 20
34.5046833218
 11
136.5649218883
 21
36.4989255845
  0
LINE
  5
2F9
100
AcDbEntity
  8
0
100
AcDbLine
 62
7
  6
CONTINUOUS
 10
250.9645157113
 20
16.7848205934
 11
244.3645157113
 21
16.7848205934
  0
LINE
  5
2FA
100
AcDbEntity
  8
KONSTRUKTIONSELEMENTE
100
AcDbLine
 62
7
  6
CONTINUOUS
 10
280.1138224832
 20
27.2780856878
 11
284.4842855913
 21
27.7729979001
  0
LINE
  5
2FB
100
AcDbEntity
  8
KONSTRUKTIONSELEMENTE
100
AcDbLine
 62
7
  6
CONTINUOUS
 10
280.1106089547
 20
27.2779054288
 11
280.1138251595
 21
27.2780856835
  0
LINE
  5
2FC
100
AcDbEntity
  8
FASEN
100
AcDbLine
 62
7
  6
CONTINUOUS
 10
244.8645157113
 20
22.2811940891
 11
250.4645157113
 21
22.2811940891
  0
LINE
  5
2FD
100
AcDbEntity
  8
FASEN
100
AcDbLine
 62
7
  6
CONTINUOUS
 10
244.8645157113
 20
22.8707026201
 11
250.4645157113
 21
22.8707026201
  0
LINE
  5
2FE
100
AcDbEntity
  8
KONSTRUKTIONSELEMENTE
100
AcDbLine
 62
7
  6
CONTINUOUS
 10
215.2184027698
 20
27.2779054288
 11
223.534515755
 21
27.2779054288
  0
LINE
  5
2FF
100
AcDbEntity
  8
KONSTRUKTIONSELEMENTE
100
AcDbLine
 62
7
  6
CONTINUOUS
 10
271.7945157115
 20
27.2779054288
 11
280.1106286529
 21
27.2779054288
  0
LINE
  5
300
100
AcDbEntity
  8
KONSTRUKTIONSELEMENTE
100
AcDbLine
 62
7
  6
CONTINUOUS
 10
215.2183831876
 20
27.2779076143
 11
215.2152115992
 21
27.2780853866
  0
LINE
  5
301
100
AcDbEntity
  8
KONSTRUKTIONSELEMENTE
100
AcDbLine
 62
7
  6
CONTINUOUS
 10
210.8447458875
 20
27.7729978938
 11
215.2152089395
 21
27.2780856878
  0
LINE
  5
302
100
AcDbEntity
  8
KONSTRUKTIONSELEMENTE
100
AcDbLine
 62
7
  6
CONTINUOUS
 10
221.3940596874
 20
30.7793801341
 11
221.4146985239
 21
30.769062456
  0
LINE
  5
303
100
AcDbEntity
  8
KONSTRUKTIONSELEMENTE
100
AcDbLine
 62
7
  6
CONTINUOUS
 10
221.3883846516
 20
30.7823398954
 11
221.3940596874
 21
30.7793801341
  0
LINE
  5
304
100
AcDbEntity
  8
KONSTRUKTIONSELEMENTE
100
AcDbLine
 62
7
  6
CONTINUOUS
 10
221.4147054017
 20
30.7689902773
 11
223.7779248172
 21
31.042511043
  0
LINE
  5
305
100
AcDbEntity
  8
KONSTRUKTIONSELEMENTE
100
AcDbLine
 62
7
  6
CONTINUOUS
 10
231.6165772352
 20
31.6843393309
 11
229.1660636686
 21
31.611018197
  0
LINE
  5
306
100
AcDbEntity
  8
RUNDUNGEN
100
AcDbLine
 62
7
  6
CONTINUOUS
 10
250.4645157113
 20
30.134552874
 11
244.8645157113
 21
30.134552874
  0
LINE
  5
307
100
AcDbEntity
  8
0
100
AcDbLine
 62
7
  6
CONTINUOUS
 10
250.9645157113
 20
31.5764597543
 11
244.3645157113
 21
31.5764597543
  0
LINE
  5
308
100
AcDbEntity
  8
AUSFORMSCHRAEGEN
100
AcDbLine
 62
7
  6
CONTINUOUS
 10
235.4440145734
 20
33.6932104279
 11
235.9145157113
 21
33.6932104279
  0
LINE
  5
309
100
AcDbEntity
  8
AUSFORMSCHRAEGEN
100
AcDbLine
 62
7
  6
CONTINUOUS
 10
259.4145157113
 20
33.6932104279
 11
259.8850168492
 21
33.6932104279
  0
LINE
  5
30A
100
AcDbEntity
  8
KONSTRUKTIONSELEMENTE
100
AcDbLine
 62
7
  6
CONTINUOUS
 10
218.1645157113
 20
33.9344775817
 11
209.3645157113
 21
33.9344775817
  0
LINE
  5
30B
100
AcDbEntity
  8
KONSTRUKTIONSELEMENTE
100
AcDbLine
 62
7
  6
CONTINUOUS
 10
277.1645157113
 20
33.9344775817
 11
285.9645157113
 21
33.9344775817
  0
LINE
  5
30C
100
AcDbEntity
  8
KONSTRUKTIONSELEMENTE
100
AcDbLine
 62
7
  6
CONTINUOUS
 10
263.7124541875
 20
31.6843393309
 11
266.1579591851
 21
31.611168057
  0
LINE
  5
30D
100
AcDbEntity
  8
KONSTRUKTIONSELEMENTE
100
AcDbLine
 62
7
  6
CONTINUOUS
 10
271.5516503827
 20
31.0424481068
 11
273.9143260209
 21
30.7689902773
  0
LINE
  5
30E
100
AcDbEntity
  8
KONSTRUKTIONSELEMENTE
100
AcDbLine
 62
7
  6
CONTINUOUS
 10
221.3940594134
 20
36.6960360875
 11
221.4146985239
 21
36.6857181206
  0
LINE
  5
30F
100
AcDbEntity
  8
KONSTRUKTIONSELEMENTE
100
AcDbLine
 62
7
  6
CONTINUOUS
 10
221.3883823043
 20
36.6989953423
 11
221.3940594134
 21
36.6960360875
  0
LINE
  5
310
100
AcDbEntity
  8
FASEN
100
AcDbLine
 62
7
  6
CONTINUOUS
 10
243.8645157101
 20
22.1502214741
 11
244.3645157101
 21
21.8448375093
  0
LINE
  5
311
100
AcDbEntity
  8
KONSTRUKTIONSELEMENTE
100
AcDbLine
 62
7
  6
CONTINUOUS
 10
223.7773148296
 20
36.9590961078
 11
221.4147054017
 21
36.6856459417
  0
LINE
  5
312
100
AcDbEntity
  8
KONSTRUKTIONSELEMENTE
100
AcDbLine
 62
7
  6
CONTINUOUS
 10
266.1629682593
 20
39.3925914144
 11
263.7124541875
 21
39.3192702654
  0
LINE
  5
313
100
AcDbEntity
  8
KONSTRUKTIONSELEMENTE
100
AcDbLine
 62
7
  6
CONTINUOUS
 10
230.0551680174
 20
34.8756031671
 11
227.9522578652
 21
34.8756031671
  0
LINE
  5
314
100
AcDbEntity
  8
KONSTRUKTIONSELEMENTE
100
AcDbLine
 62
7
  6
CONTINUOUS
 10
265.2738634053
 20
34.8756031671
 11
267.3767735574
 21
34.8756031671
  0
LINE
  5
315
100
AcDbEntity
  8
FASEN
100
AcDbLine
 62
7
  6
CONTINUOUS
 10
244.8645157113
 20
37.0728332501
 11
250.4645157113
 21
37.0728332501
  0
LINE
  5
316
100
AcDbEntity
  8
AUSFORMSCHRAEGEN
100
AcDbLine
 62
7
  6
CONTINUOUS
 10
259.8850168492
 20
37.3103991684
 11
259.4145157113
 21
37.3103991684
  0
LINE
  5
317
100
AcDbEntity
  8
AUSFORMSCHRAEGEN
100
AcDbLine
 62
7
  6
CONTINUOUS
 10
235.9145157113
 20
37.3103991684
 11
235.4440145734
 21
37.3103991684
  0
LINE
  5
318
100
AcDbEntity
  8
FASEN
100
AcDbLine
 62
7
  6
CONTINUOUS
 10
244.8645157113
 20
37.662341781
 11
250.4645157113
 21
37.662341781
  0
LINE
  5
319
100
AcDbEntity
  8
KONSTRUKTIONSELEMENTE
100
AcDbLine
 62
7
  6
CONTINUOUS
 10
230.0551680174
 20
38.6124059024
 11
228.1645157113
 21
38.6124059024
  0
LINE
  5
31A
100
AcDbEntity
  8
KONSTRUKTIONSELEMENTE
100
AcDbLine
 62
7
  6
CONTINUOUS
 10
265.2738634053
 20
38.6124059024
 11
267.1645157113
 21
38.6124059024
  0
LINE
  5
31B
100
AcDbEntity
  8
KONSTRUKTIONSELEMENTE
100
AcDbLine
 62
7
  6
CONTINUOUS
 10
218.1645157113
 20
39.8511332461
 11
209.3645157113
 21
39.8511332461
  0
LINE
  5
31C
100
AcDbEntity
  8
KONSTRUKTIONSELEMENTE
100
AcDbLine
 62
7
  6
CONTINUOUS
 10
277.1645157113
 20
39.8511332461
 11
285.9645157113
 21
39.8511332461
  0
LINE
  5
31D
100
AcDbEntity
  8
KONSTRUKTIONSELEMENTE
100
AcDbLine
 62
7
  6
CONTINUOUS
 10
231.6165772352
 20
39.3192702654
 11
229.1710722376
 21
39.3924415392
  0
LINE
  5
31E
100
AcDbEntity
  8
KONSTRUKTIONSELEMENTE
100
AcDbLine
 62
7
  6
CONTINUOUS
 10
273.9143260209
 20
36.6856459417
 11
271.5512439906
 21
36.9591508063
  0
LINE
  5
31F
100
AcDbEntity
  8
FASEN
100
AcDbLine
 62
7
  6
CONTINUOUS
 10
243.8645157113
 20
17.2848205934
 11
244.3645157113
 21
16.7848205934
  0
LINE
  5
320
100
AcDbEntity
  8
KONSTRUKTIONSELEMENTE
100
AcDbLine
 62
7
  6
CONTINUOUS
 10
211.384515712
 20
41.8582354588
 11
221.3479983438
 21
41.8582354588
  0
LINE
  5
321
100
AcDbEntity
  8
KONSTRUKTIONSELEMENTE
100
AcDbLine
 62
7
  6
CONTINUOUS
 10
273.9810330789
 20
41.8582354588
 11
283.9445157678
 21
41.8582354588
  0
LINE
  5
322
100
AcDbEntity
  8
RUNDUNGEN
100
AcDbLine
 62
7
  6
CONTINUOUS
 10
250.4645157113
 20
44.926192035
 11
244.8645157113
 21
44.926192035
  0
LINE
  5
323
100
AcDbEntity
  8
FASEN
100
AcDbLine
 62
7
  6
CONTINUOUS
 10
243.8645157103
 20
36.9418607045
 11
244.3645157102
 21
36.6364767425
  0
LINE
  5
324
100
AcDbEntity
  8
AUSFORMSCHRAEGEN
100
AcDbLine
 62
7
  6
CONTINUOUS
 10
215.0026573586
 20
50.4790980413
 11
223.5345157113
 21
50.4790980413
  0
LINE
  5
325
100
AcDbEntity
  8
AUSFORMSCHRAEGEN
100
AcDbLine
 62
7
  6
CONTINUOUS
 10
271.7945157113
 20
50.4790980413
 11
280.3263740641
 21
50.4790980413
  0
LINE
  5
326
100
AcDbEntity
  8
AUSFORMSCHRAEGEN
100
AcDbLine
 62
7
  6
CONTINUOUS
 10
244.6645157113
 20
53.4374258735
 11
250.6645157113
 21
53.4374258735
  0
LINE
  5
327
100
AcDbEntity
  8
FASEN
100
AcDbLine
 62
7
  6
CONTINUOUS
 10
243.8645157113
 20
32.0764597543
 11
244.3645157113
 21
31.5764597543
  0
LINE
  5
328
100
AcDbEntity
  8
AUSFORMSCHRAEGEN
100
AcDbLine
 62
7
  6
CONTINUOUS
 10
210.4268852444
 20
49.9609365916
 11
215.0026573586
 21
50.4790980413
  0
LINE
  5
329
100
AcDbEntity
  8
KONSTRUKTIONSELEMENTE
100
AcDbLine
 62
7
  6
CONTINUOUS
 10
210.8447458879
 20
55.0126129341
 11
215.2152089395
 21
55.50752514
  0
LINE
  5
32A
100
AcDbEntity
  8
KONSTRUKTIONSELEMENTE
100
AcDbLine
 62
7
  6
CONTINUOUS
 10
215.2183831876
 20
55.5077032135
 11
215.2152115992
 21
55.5075254412
  0
LINE
  5
32B
100
AcDbEntity
  8
KONSTRUKTIONSELEMENTE
100
AcDbLine
 62
7
  6
CONTINUOUS
 10
215.2184027698
 20
55.507705399
 11
223.5345157528
 21
55.507705399
  0
LINE
  5
32C
100
AcDbEntity
  8
KONSTRUKTIONSELEMENTE
100
AcDbLine
 62
7
  6
CONTINUOUS
 10
271.7945157115
 20
55.507705399
 11
280.1106286529
 21
55.507705399
  0
LINE
  5
32D
100
AcDbEntity
  8
KONSTRUKTIONSELEMENTE
100
AcDbLine
 62
7
  6
CONTINUOUS
 10
244.6645157113
 20
58.4660332312
 11
250.6645157356
 21
58.4660332312
  0
LINE
  5
32E
100
AcDbEntity
  8
KONSTRUKTIONSELEMENTE
100
AcDbLine
 62
7
  6
CONTINUOUS
 10
280.1106089547
 20
55.507705399
 11
280.1138251595
 21
55.5075251443
  0
LINE
  5
32F
100
AcDbEntity
  8
AUSFORMSCHRAEGEN
100
AcDbLine
 62
7
  6
CONTINUOUS
 10
280.3263740641
 20
50.4790980413
 11
284.9021461782
 21
49.9609365916
  0
LINE
  5
330
100
AcDbEntity
  8
KONSTRUKTIONSELEMENTE
100
AcDbLine
 62
7
  6
CONTINUOUS
 10
280.1138224832
 20
55.50752514
 11
284.4842856202
 21
55.0126129244
  0
LINE
  5
331
100
AcDbEntity
  8
KONSTRUKTIONSELEMENTE
100
AcDbLine
 62
7
  6
CONTINUOUS
 10
238.7495113493
 20
27.6585912148
 11
239.5791943301
 21
26.349987983
  0
LWPOLYLINE
  5
332
100
AcDbEntity
  8
RUNDUNGEN
100
AcDbPolyline
 62
7
  6
CONTINUOUS
 90
6
 70
0
 10
243.3075580645
 20
27.3093856834
 10
243.4303948455
 20
27.1137148243
 10
243.4928110309
 20
27.0124559381
 10
243.553991049
 20
26.9096922356
 10
243.6127042602
 20
26.8057960002
 10
243.6605982708
 20
26.715357418
  0
LINE
  5
333
100
AcDbEntity
  8
AUSFORMSCHRAEGEN
100
AcDbLine
 62
7
  6
CONTINUOUS
 10
208.1833092387
 20
30.0008394136
 11
207.6889622113
 21
34.2584426924
  0
LINE
  5
334
100
AcDbEntity
  8
AUSFORMSCHRAEGEN
100
AcDbLine
 62
7
  6
CONTINUOUS
 10
208.1833092387
 20
44.1162893557
 11
207.6889622113
 21
48.3738926346
  0
LINE
  5
335
100
AcDbEntity
  8
KONSTRUKTIONSELEMENTE
100
AcDbLine
 62
7
  6
CONTINUOUS
 10
208.1645157113
 20
36.0698937587
 11
208.1645157113
 21
40.7990614047
  0
LINE
  5
336
100
AcDbEntity
  8
KONSTRUKTIONSELEMENTE
100
AcDbLine
 62
7
  6
CONTINUOUS
 10
208.1645157113
 20
41.9865494231
 11
208.1645157113
 21
44.2781501122
  0
LINE
  5
337
100
AcDbEntity
  8
KONSTRUKTIONSELEMENTE
100
AcDbLine
 62
7
  6
CONTINUOUS
 10
209.3645157113
 20
33.9344775817
 11
209.3645157113
 21
42.3605337222
  0
LINE
  5
338
100
AcDbEntity
  8
RUNDUNGEN
100
AcDbLine
 62
7
  6
CONTINUOUS
 10
243.6605635186
 20
26.7154253888
 11
243.6605982708
 21
26.715357418
  0
LINE
  5
339
100
AcDbEntity
  8
KONSTRUKTIONSELEMENTE
100
AcDbLine
 62
7
  6
CONTINUOUS
 10
215.0678176863
 20
46.0020716246
 11
215.0026573586
 21
50.4790980413
  0
LINE
  5
33A
100
AcDbEntity
  8
KONSTRUKTIONSELEMENTE
100
AcDbLine
 62
7
  6
CONTINUOUS
 10
215.0026573586
 20
50.4790980413
 11
215.0678176863
 21
54.5377815488
  0
LINE
  5
33B
100
AcDbEntity
  8
AUSFORMSCHRAEGEN
100
AcDbLine
 62
7
  6
CONTINUOUS
 10
207.6889622113
 20
48.5271681353
 11
208.1833092387
 21
52.7847714142
  0
LINE
  5
33C
100
AcDbEntity
  8
AUSFORMSCHRAEGEN
100
AcDbLine
 62
7
  6
CONTINUOUS
 10
207.6889622113
 20
34.4117181932
 11
208.1645157113
 21
38.5074607156
  0
LWPOLYLINE
  5
33D
100
AcDbEntity
  8
RUNDUNGEN
100
AcDbPolyline
 62
7
  6
CONTINUOUS
 90
6
 70
0
 10
243.307550028
 20
42.1010379308
 10
243.4303892388
 20
41.9053630259
 10
243.4928068174
 20
41.8041024828
 10
243.5539866824
 20
41.7013372249
 10
243.6127036881
 20
41.5974379087
 10
243.6605985809
 20
41.5069972615
  0
LINE
  5
33E
100
AcDbEntity
  8
RUNDUNGEN
100
AcDbLine
 62
7
  6
CONTINUOUS
 10
243.6605640402
 20
41.5070648168
 11
243.6605985809
 21
41.5069972615
  0
LWPOLYLINE
  5
33F
100
AcDbEntity
  8
RUNDUNGEN
100
AcDbPolyline
 62
7
  6
CONTINUOUS
 90
4
 70
0
 10
243.6605391341
 20
26.7154129522
 10
243.7034018069
 20
26.6247868293
 10
243.7491349084
 20
26.5092693882
 10
243.7889323946
 20
26.3838429729
  0
LINE
  5
340
100
AcDbEntity
  8
KONSTRUKTIONSELEMENTE
100
AcDbLine
 62
7
  6
CONTINUOUS
 10
221.1794575384
 20
31.4217415945
 11
220.9016708951
 21
33.9344775817
  0
LINE
  5
341
100
AcDbEntity
  8
KONSTRUKTIONSELEMENTE
100
AcDbLine
 62
7
  6
CONTINUOUS
 10
218.1645157113
 20
33.9344777497
 11
218.1645157113
 21
41.8582354588
  0
LINE
  5
342
100
AcDbEntity
  8
KONSTRUKTIONSELEMENTE
100
AcDbLine
 62
7
  6
CONTINUOUS
 10
219.9445157113
 20
35.166958972
 11
219.9445157113
 21
41.0711332461
  0
LINE
  5
343
100
AcDbEntity
  8
KONSTRUKTIONSELEMENTE
100
AcDbLine
 62
7
  6
CONTINUOUS
 10
219.9445157113
 20
41.0836146363
 11
219.9445157113
 21
41.8582354588
  0
LINE
  5
344
100
AcDbEntity
  8
KONSTRUKTIONSELEMENTE
100
AcDbLine
 62
7
  6
CONTINUOUS
 10
220.1645157113
 20
33.9344777497
 11
220.1645157113
 21
41.8582354588
  0
LINE
  5
345
100
AcDbEntity
  8
KONSTRUKTIONSELEMENTE
100
AcDbLine
 62
7
  6
CONTINUOUS
 10
221.3676932406
 20
42.0456198848
 11
221.3676932406
 21
40.4213408322
  0
LINE
  5
346
100
AcDbEntity
  8
KONSTRUKTIONSELEMENTE
100
AcDbLine
 62
7
  6
CONTINUOUS
 10
221.3676932406
 20
30.5822696246
 11
221.3676932406
 21
28.9579897115
  0
LINE
  5
347
100
AcDbEntity
  8
KONSTRUKTIONSELEMENTE
100
AcDbLine
 62
7
  6
CONTINUOUS
 10
221.3676932406
 20
34.5046833218
 11
221.3676932406
 21
36.4989255845
  0
LINE
  5
348
100
AcDbEntity
  8
KONSTRUKTIONSELEMENTE
100
AcDbLine
 62
7
  6
CONTINUOUS
 10
242.8885760132
 20
79.2180467331
 11
242.9792614434
 21
79.2180467331
  0
LINE
  5
349
100
AcDbEntity
  8
KONSTRUKTIONSELEMENTE
100
AcDbLine
 62
7
  6
CONTINUOUS
 10
242.8649335529
 20
79.297721986
 11
243.0105413709
 21
79.297721986
  0
LINE
  5
34A
100
AcDbEntity
  8
KONSTRUKTIONSELEMENTE
100
AcDbLine
 62
7
  6
CONTINUOUS
 10
242.944787667
 20
79.6939265434
 11
243.1723001629
 21
79.6939265434
  0
LWPOLYLINE
  5
34B
100
AcDbEntity
  8
RUNDUNGEN
100
AcDbPolyline
 62
7
  6
CONTINUOUS
 90
4
 70
0
 10
243.6605391334
 20
41.5070521145
 10
243.7034018071
 20
41.4164259898
 10
243.7491349086
 20
41.3009085487
 10
243.7889323947
 20
41.1754821335
  0
LINE
  5
34C
100
AcDbEntity
  8
KONSTRUKTIONSELEMENTE
100
AcDbLine
 62
7
  6
CONTINUOUS
 10
228.1645157113
 20
38.5503150254
 11
228.1645157113
 21
38.7916268385
  0
LINE
  5
34D
100
AcDbEntity
  8
KONSTRUKTIONSELEMENTE
100
AcDbLine
 62
7
  6
CONTINUOUS
 10
243.0413404984
 20
79.9664332803
 11
243.2716631124
 21
79.9664332803
  0
LINE
  5
34E
100
AcDbEntity
  8
KONSTRUKTIONSELEMENTE
100
AcDbLine
 62
7
  6
CONTINUOUS
 10
243.1402122397
 20
80.2913329757
 11
243.3645157113
 21
80.2913329757
  0
LINE
  5
34F
100
AcDbEntity
  8
KONSTRUKTIONSELEMENTE
100
AcDbLine
 62
7
  6
CONTINUOUS
 10
243.1784880977
 20
80.6246028009
 11
243.3645157113
 21
80.6246028009
  0
LINE
  5
350
100
AcDbEntity
  8
KONSTRUKTIONSELEMENTE
100
AcDbLine
 62
7
  6
CONTINUOUS
 10
243.1402122397
 20
83.0873889862
 11
243.3645157113
 21
83.0873889862
  0
LINE
  5
351
100
AcDbEntity
  8
KONSTRUKTIONSELEMENTE
100
AcDbLine
 62
7
  6
CONTINUOUS
 10
243.0413404984
 20
83.1481522005
 11
243.3645157113
 21
83.1481522005
  0
LINE
  5
352
100
AcDbEntity
  8
KONSTRUKTIONSELEMENTE
100
AcDbLine
 62
7
  6
CONTINUOUS
 10
242.8649335529
 20
83.2507665905
 11
243.3645157113
 21
83.2507665905
  0
LINE
  5
353
100
AcDbEntity
  8
KONSTRUKTIONSELEMENTE
100
AcDbLine
 62
7
  6
CONTINUOUS
 10
242.944787667
 20
83.6469711479
 11
243.3122749477
 21
83.6469711479
  0
LINE
  5
354
100
AcDbEntity
  8
AUSFORMSCHRAEGEN
100
AcDbLine
 62
7
  6
CONTINUOUS
 10
256.4600706691
 20
51.5580062327
 11
257.2897536445
 21
50.2494030094
  0
LINE
  5
355
100
AcDbEntity
  8
KONSTRUKTIONSELEMENTE
100
AcDbLine
 62
7
  6
CONTINUOUS
 10
255.7498370979
 20
56.4356228363
 11
256.5795200734
 21
55.127019613
  0
LWPOLYLINE
  5
356
100
AcDbEntity
  8
RUNDUNGEN
100
AcDbPolyline
 62
7
  6
CONTINUOUS
 90
5
 70
0
 10
243.7889323946
 20
26.3838429729
 10
243.8214065511
 20
26.249975169
 10
243.8450781211
 20
26.1115033316
 10
243.8595076276
 20
25.9702789853
 10
243.8645153475
 20
25.8247389825
  0
LWPOLYLINE
  5
357
100
AcDbEntity
  8
RUNDUNGEN
100
AcDbPolyline
 62
7
  6
CONTINUOUS
 90
5
 70
0
 10
243.7889323947
 20
41.1754821335
 10
243.8214065512
 20
41.0416143297
 10
243.8450781211
 20
40.9031424923
 10
243.8595076276
 20
40.7619181461
 10
243.8645153475
 20
40.6163781434
  0
LINE
  5
358
100
AcDbEntity
  8
AUSFORMSCHRAEGEN
100
AcDbLine
 62
7
  6
CONTINUOUS
 10
235.4440145734
 20
37.3103991684
 11
235.278462325
 21
38.1877571992
  0
LINE
  5
359
100
AcDbEntity
  8
AUSFORMSCHRAEGEN
100
AcDbLine
 62
7
  6
CONTINUOUS
 10
235.4440145734
 20
33.6932104279
 11
234.6272472063
 21
38.7120992278
  0
LINE
  5
35A
100
AcDbEntity
  8
KONSTRUKTIONSELEMENTE
100
AcDbLine
 62
7
  6
CONTINUOUS
 10
235.4440145734
 20
37.7205506723
 11
235.4338797125
 21
37.8374462078
  0
LINE
  5
35B
100
AcDbEntity
  8
KONSTRUKTIONSELEMENTE
100
AcDbLine
 62
7
  6
CONTINUOUS
 10
230.0145157113
 20
104.6077735597
 11
230.0145157113
 21
115.0303131106
  0
LINE
  5
35C
100
AcDbEntity
  8
KONSTRUKTIONSELEMENTE
100
AcDbLine
 62
7
  6
CONTINUOUS
 10
230.0551680174
 20
34.8756031671
 11
230.0551680174
 21
38.6124059024
  0
LINE
  5
35D
100
AcDbEntity
  8
AUSFORMSCHRAEGEN
100
AcDbLine
 62
7
  6
CONTINUOUS
 10
235.4440145734
 20
33.283058924
 11
235.4440145734
 21
33.6932104279
  0
LINE
  5
35E
100
AcDbEntity
  8
AUSFORMSCHRAEGEN
100
AcDbLine
 62
7
  6
CONTINUOUS
 10
235.4440145734
 20
37.3103991684
 11
235.4440145734
 21
37.7205506723
  0
LWPOLYLINE
  5
35F
100
AcDbEntity
  8
RUNDUNGEN
100
AcDbPolyline
 62
7
  6
CONTINUOUS
 90
12
 70
0
 10
242.8645157221
 20
28.4812228674
 10
242.8691196673
 20
28.3723872238
 10
242.8868297348
 20
28.2394419663
 10
242.9150247219
 20
28.1145409684
 10
242.9503254568
 20
27.9996630322
 10
242.9909806696
 20
27.8922274709
 10
243.036345162
 20
27.7892482654
 10
243.0852877725
 20
27.6901816713
 10
243.1367633304
 20
27.5946276944
 10
243.1912238758
 20
27.4998359396
 10
243.2484451733
 20
27.4047361519
 10
243.3075580645
 20
27.3093856834
  0
LWPOLYLINE
  5
360
100
AcDbEntity
  8
RUNDUNGEN
100
AcDbPolyline
 62
7
  6
CONTINUOUS
 90
12
 70
0
 10
242.8645157214
 20
43.2728620253
 10
242.8691122338
 20
43.1641160215
 10
242.8868195258
 20
43.0311380977
 10
242.9150162101
 20
42.9062119423
 10
242.9503170894
 20
42.7913263867
 10
242.9909715606
 20
42.6838888504
 10
243.036335398
 20
42.580908227
 10
243.0852781193
 20
42.4818395742
 10
243.1367542271
 20
42.3862831571
 10
243.1912154773
 20
42.2914889706
 10
243.2484371716
 20
42.196388511
 10
243.307550028
 20
42.1010379308
  0
LINE
  5
361
100
AcDbEntity
  8
KONSTRUKTIONSELEMENTE
100
AcDbLine
 62
7
  6
CONTINUOUS
 10
238.4145157113
 20
104.6077735597
 11
238.4145157113
 21
115.0303131106
  0
LINE
  5
362
100
AcDbEntity
  8
0
100
AcDbLine
 62
7
  6
CONTINUOUS
 10
239.6080157113
 20
110.2682710101
 11
239.6080157113
 21
108.7617710101
  0
LINE
  5
363
100
AcDbEntity
  8
0
100
AcDbLine
 62
7
  6
CONTINUOUS
 10
239.8045157113
 20
108.8600210101
 11
239.8045157113
 21
110.2682710101
  0
LINE
  5
364
100
AcDbEntity
  8
KONSTRUKTIONSELEMENTE
100
AcDbLine
 62
7
  6
CONTINUOUS
 10
228.1189816057
 20
35.1308818423
 11
228.268770819
 21
36.0513096593
  0
LINE
  5
365
100
AcDbEntity
  8
KONSTRUKTIONSELEMENTE
100
AcDbLine
 62
7
  6
CONTINUOUS
 10
228.1620823269
 20
39.3607103899
 11
228.1621339585
 21
39.361005181
  0
LINE
  5
366
100
AcDbEntity
  8
KONSTRUKTIONSELEMENTE
100
AcDbLine
 62
7
  6
CONTINUOUS
 10
228.1189816057
 20
38.5503150254
 11
228.2795405657
 21
39.401210705
  0
LWPOLYLINE
  5
367
100
AcDbEntity
  8
KONSTRUKTIONSELEMENTE
100
AcDbPolyline
 62
7
  6
CONTINUOUS
 90
3
 70
0
 10
228.1621579757
 20
39.3610568931
 10
228.1644061388
 20
39.3726211773
 10
228.1713513856
 20
39.4003223415
  0
LINE
  5
368
100
AcDbEntity
  8
RUNDUNGEN
100
AcDbLine
 62
7
  6
CONTINUOUS
 10
239.7132796087
 20
113.144115379
 11
242.725590847
 21
114.1987368972
  0
LINE
  5
369
100
AcDbEntity
  8
RUNDUNGEN
100
AcDbLine
 62
7
  6
CONTINUOUS
 10
243.6319981133
 20
112.78402269
 11
239.7132796087
 21
111.4120645714
  0
LINE
  5
36A
100
AcDbEntity
  8
KONSTRUKTIONSELEMENTE
100
AcDbLine
 62
7
  6
CONTINUOUS
 10
242.8645157118
 20
79.3244604036
 11
242.8649333754
 21
79.297721986
  0
LINE
  5
36B
100
AcDbEntity
  8
KONSTRUKTIONSELEMENTE
100
AcDbLine
 62
7
  6
CONTINUOUS
 10
242.8645157118
 20
83.2775050081
 11
242.8649333754
 21
83.2507665905
  0
LINE
  5
36C
100
AcDbEntity
  8
KONSTRUKTIONSELEMENTE
100
AcDbLine
 62
7
  6
CONTINUOUS
 10
242.2645157113
 20
187.1740464138
 11
242.2645157113
 21
116.3740464138
  0
LINE
  5
36D
100
AcDbEntity
  8
RUNDUNGEN
100
AcDbLine
 62
7
  6
CONTINUOUS
 10
242.8645157294
 20
28.4813744174
 11
242.8645157113
 21
28.4815504491
  0
LINE
  5
36E
100
AcDbEntity
  8
RUNDUNGEN
100
AcDbLine
 62
7
  6
CONTINUOUS
 10
242.8645157295
 20
43.2730133024
 11
242.8645157113
 21
43.2731897366
  0
LINE
  5
36F
100
AcDbEntity
  8
KONSTRUKTIONSELEMENTE
100
AcDbLine
 62
7
  6
CONTINUOUS
 10
242.8645157113
 20
28.6936551048
 11
242.8645157113
 21
28.4813902187
  0
LINE
  5
370
100
AcDbEntity
  8
KONSTRUKTIONSELEMENTE
100
AcDbLine
 62
7
  6
CONTINUOUS
 10
242.8645157113
 20
43.273029382
 11
242.8645157113
 21
43.4852942657
  0
LINE
  5
371
100
AcDbEntity
  8
KONSTRUKTIONSELEMENTE
100
AcDbLine
 62
7
  6
CONTINUOUS
 10
242.8645157113
 20
58.3018819611
 11
242.8645157113
 21
79.297721986
  0
LINE
  5
372
100
AcDbEntity
  8
KONSTRUKTIONSELEMENTE
100
AcDbLine
 62
7
  6
CONTINUOUS
 10
242.8645157113
 20
79.4209034988
 11
242.8645157113
 21
83.0684768847
  0
LINE
  5
373
100
AcDbEntity
  8
KONSTRUKTIONSELEMENTE
100
AcDbLine
 62
7
  6
CONTINUOUS
 10
242.8645157113
 20
83.2775323927
 11
242.8645157113
 21
84.238218647
  0
LINE
  5
374
100
AcDbEntity
  8
KONSTRUKTIONSELEMENTE
100
AcDbLine
 62
7
  6
CONTINUOUS
 10
242.8645157113
 20
88.9155608824
 11
242.8645157113
 21
102.3796549597
  0
LINE
  5
375
100
AcDbEntity
  8
KONSTRUKTIONSELEMENTE
100
AcDbLine
 62
7
  6
CONTINUOUS
 10
242.8726893372
 20
84.1198855337
 11
242.8726893372
 21
88.6514244689
  0
LINE
  5
376
100
AcDbEntity
  8
KONSTRUKTIONSELEMENTE
100
AcDbLine
 62
7
  6
CONTINUOUS
 10
242.876930203
 20
84.3840219473
 11
242.876930203
 21
88.9155608824
  0
LINE
  5
377
100
AcDbEntity
  8
0
100
AcDbLine
 62
7
  6
CONTINUOUS
 10
242.8830157113
 20
102.8588711157
 11
242.8830157113
 21
103.2597710101
  0
LINE
  5
378
100
AcDbEntity
  8
0
100
AcDbLine
 62
7
  6
CONTINUOUS
 10
242.8830157113
 20
104.1767710101
 11
242.8830157113
 21
108.2050210101
  0
LINE
  5
379
100
AcDbEntity
  8
0
100
AcDbLine
 62
7
  6
CONTINUOUS
 10
243.0795157113
 20
104.2750210101
 11
243.0795157113
 21
105.9189450019
  0
LINE
  5
37A
100
AcDbEntity
  8
0
100
AcDbLine
 62
7
  6
CONTINUOUS
 10
243.0795157113
 20
105.9452710101
 11
243.0795157113
 21
108.2050210101
  0
LINE
  5
37B
100
AcDbEntity
  8
KONSTRUKTIONSELEMENTE
100
AcDbLine
 62
7
  6
CONTINUOUS
 10
243.262339525
 20
76.2469653644
 11
243.262339525
 21
76.8254596276
  0
LINE
  5
37C
100
AcDbEntity
  8
KONSTRUKTIONSELEMENTE
100
AcDbLine
 62
7
  6
CONTINUOUS
 10
243.3645157113
 20
74.2186853747
 11
243.3645157113
 21
74.7971797054
  0
LINE
  5
37D
100
AcDbEntity
  8
KONSTRUKTIONSELEMENTE
100
AcDbLine
 62
7
  6
CONTINUOUS
 10
243.3645157113
 20
78.1717300467
 11
243.3645157113
 21
78.7502243098
  0
LINE
  5
37E
100
AcDbEntity
  8
KONSTRUKTIONSELEMENTE
100
AcDbLine
 62
7
  6
CONTINUOUS
 10
243.3645157113
 20
80.2342068206
 11
243.3645157113
 21
80.8044576804
  0
LINE
  5
37F
100
AcDbEntity
  8
KONSTRUKTIONSELEMENTE
100
AcDbLine
 62
7
  6
CONTINUOUS
 10
243.3645157113
 20
83.0220191577
 11
243.3645157113
 21
83.5922702124
  0
LINE
  5
380
100
AcDbEntity
  8
0
100
AcDbLine
 62
7
  6
CONTINUOUS
 10
243.4381982847
 20
105.8470210101
 11
243.4381982847
 21
106.0171950019
  0
LINE
  5
381
100
AcDbEntity
  8
FASEN
100
AcDbLine
 62
7
  6
CONTINUOUS
 10
243.8645157113
 20
17.285062561
 11
243.8645157113
 21
29.7024930689
  0
LINE
  5
382
100
AcDbEntity
  8
FASEN
100
AcDbLine
 62
7
  6
CONTINUOUS
 10
243.8645157113
 20
32.076701789
 11
243.8645157113
 21
44.4941322298
  0
LINE
  5
383
100
AcDbEntity
  8
0
100
AcDbLine
 62
7
  6
CONTINUOUS
 10
243.9802111715
 20
108.2659786533
 11
243.9802111715
 21
108.3317525566
  0
LINE
  5
384
100
AcDbEntity
  8
0
100
AcDbLine
 62
7
  6
CONTINUOUS
 10
244.2867495631
 20
108.162479817
 11
244.2867495631
 21
108.2271715619
  0
LINE
  5
385
100
AcDbEntity
  8
0
100
AcDbLine
 62
7
  6
CONTINUOUS
 10
244.3339717875
 20
108.0055542017
 11
244.3339717875
 21
108.0921567421
  0
LINE
  5
386
100
AcDbEntity
  8
FASEN
100
AcDbLine
 62
7
  6
CONTINUOUS
 10
244.3645157113
 20
16.7848205934
 11
244.3645157113
 21
21.8448375346
  0
LINE
  5
387
100
AcDbEntity
  8
FASEN
100
AcDbLine
 62
7
  6
CONTINUOUS
 10
244.3645157113
 20
31.5764597543
 11
244.3645157113
 21
36.6364766956
  0
LINE
  5
388
100
AcDbEntity
  8
0
100
AcDbLine
 62
7
  6
CONTINUOUS
 10
244.4058051313
 20
108.1474076419
 11
244.4058051313
 21
108.2340101823
  0
LINE
  5
389
100
AcDbEntity
  8
0
100
AcDbLine
 62
7
  6
CONTINUOUS
 10
244.4150234
 20
108.4157895488
 11
244.4150234
 21
108.4826074777
  0
LINE
  5
38A
100
AcDbEntity
  8
0
100
AcDbLine
 62
7
  6
CONTINUOUS
 10
244.4365908541
 20
108.2082019815
 11
244.4365908541
 21
108.2948045219
  0
LINE
  5
38B
100
AcDbEntity
  8
0
100
AcDbLine
 62
7
  6
CONTINUOUS
 10
244.6042310592
 20
108.1222873525
 11
244.6042310592
 21
108.1869790974
  0
LINE
  5
38C
100
AcDbEntity
  8
0
100
AcDbLine
 62
7
  6
CONTINUOUS
 10
244.7170157113
 20
108.8600210101
 11
244.7170157113
 21
110.2682710101
  0
LINE
  5
38D
100
AcDbEntity
  8
0
100
AcDbLine
 62
7
  6
CONTINUOUS
 10
244.8158599916
 20
107.963515789
 11
244.8158599916
 21
108.0501183294
  0
LINE
  5
38E
100
AcDbEntity
  8
0
100
AcDbLine
 62
7
  6
CONTINUOUS
 10
244.8790287279
 20
107.9124842775
 11
244.8790287279
 21
107.9990868178
  0
LINE
  5
38F
100
AcDbEntity
  8
0
100
AcDbLine
 62
7
  6
CONTINUOUS
 10
244.9135157113
 20
108.7617710101
 11
244.9135157113
 21
110.2682710101
  0
LINE
  5
390
100
AcDbEntity
  8
0
100
AcDbLine
 62
7
  6
CONTINUOUS
 10
244.9610135596
 20
107.8801202913
 11
244.9610135596
 21
107.9472854114
  0
LINE
  5
391
100
AcDbEntity
  8
0
100
AcDbLine
 62
7
  6
CONTINUOUS
 10
245.0123549568
 20
108.1129774233
 11
245.0123549568
 21
108.1995799637
  0
LINE
  5
392
100
AcDbEntity
  8
0
100
AcDbLine
 62
7
  6
CONTINUOUS
 10
245.0228381963
 20
108.1688582824
 11
245.0228381963
 21
108.2554608228
  0
LINE
  5
393
100
AcDbEntity
  8
0
100
AcDbLine
 62
7
  6
CONTINUOUS
 10
245.0706851194
 20
107.8524839967
 11
245.0706851194
 21
107.9110065506
  0
LINE
  5
394
100
AcDbEntity
  8
0
100
AcDbLine
 62
7
  6
CONTINUOUS
 10
245.1136935578
 20
108.1225544905
 11
245.1136935578
 21
108.1738292653
  0
LINE
  5
395
100
AcDbEntity
  8
0
100
AcDbLine
 62
7
  6
CONTINUOUS
 10
245.1714861511
 20
107.8387875094
 11
245.1714861511
 21
107.89006229
  0
LINE
  5
396
100
AcDbEntity
  8
0
100
AcDbLine
 62
7
  6
CONTINUOUS
 10
245.1733678093
 20
108.3181982871
 11
245.1733678093
 21
108.3767208329
  0
LINE
  5
397
100
AcDbEntity
  8
0
100
AcDbLine
 62
7
  6
CONTINUOUS
 10
245.1962160651
 20
108.113464034
 11
245.1962160651
 21
108.1665244737
  0
LINE
  5
398
100
AcDbEntity
  8
0
100
AcDbLine
 62
7
  6
CONTINUOUS
 10
245.2911034873
 20
107.8437584948
 11
245.2911034873
 21
107.899901295
  0
LINE
  5
399
100
AcDbEntity
  8
0
100
AcDbLine
 62
7
  6
CONTINUOUS
 10
245.3058876249
 20
108.0858277394
 11
245.3058876249
 21
108.1443502851
  0
LINE
  5
39A
100
AcDbEntity
  8
0
100
AcDbLine
 62
7
  6
CONTINUOUS
 10
245.3474532125
 20
109.0481593148
 11
245.3474532125
 21
109.1317763261
  0
LINE
  5
39B
100
AcDbEntity
  8
0
100
AcDbLine
 62
7
  6
CONTINUOUS
 10
245.3695939339
 20
108.0580697855
 11
245.3695939339
 21
108.1259175569
  0
LINE
  5
39C
100
AcDbEntity
  8
0
100
AcDbLine
 62
7
  6
CONTINUOUS
 10
245.3835716672
 20
107.8672753454
 11
245.3835716672
 21
107.9370959912
  0
LINE
  5
39D
100
AcDbEntity
  8
0
100
AcDbLine
 62
7
  6
CONTINUOUS
 10
245.4056135155
 20
108.0255841409
 11
245.4056135155
 21
108.1121866813
  0
LINE
  5
39E
100
AcDbEntity
  8
0
100
AcDbLine
 62
7
  6
CONTINUOUS
 10
245.4139463697
 20
107.9883708055
 11
245.4139463697
 21
108.0749733459
  0
LINE
  5
39F
100
AcDbEntity
  8
0
100
AcDbLine
 62
7
  6
CONTINUOUS
 10
245.4293282113
 20
109.612574229
 11
245.4293282113
 21
109.5289571591
  0
LINE
  5
3A0
100
AcDbEntity
  8
0
100
AcDbLine
 62
7
  6
CONTINUOUS
 10
245.4671693214
 20
107.9047320059
 11
245.4671693214
 21
107.9913345462
  0
LINE
  5
3A1
100
AcDbEntity
  8
0
100
AcDbLine
 62
7
  6
CONTINUOUS
 10
245.4702657162
 20
108.9436380287
 11
245.4702657162
 21
109.1138120205
  0
LINE
  5
3A2
100
AcDbEntity
  8
0
100
AcDbLine
 62
7
  6
CONTINUOUS
 10
245.4702657162
 20
109.4453401478
 11
245.4702657162
 21
109.6155141396
  0
LINE
  5
3A3
100
AcDbEntity
  8
0
100
AcDbLine
 62
7
  6
CONTINUOUS
 10
245.5048017181
 20
107.9420670005
 11
245.5048017181
 21
108.0286695409
  0
LINE
  5
3A4
100
AcDbEntity
  8
0
100
AcDbLine
 62
7
  6
CONTINUOUS
 10
245.6340157211
 20
109.3617231365
 11
245.6340157211
 21
109.5318971283
  0
LINE
  5
3A5
100
AcDbEntity
  8
0
100
AcDbLine
 62
7
  6
CONTINUOUS
 10
245.6749532113
 20
108.8809252647
 11
245.6749532113
 21
109.0272550472
  0
LINE
  5
3A6
100
AcDbEntity
  8
0
100
AcDbLine
 62
7
  6
CONTINUOUS
 10
245.6749532113
 20
109.5498614119
 11
245.6749532113
 21
109.7618439094
  0
LINE
  5
3A7
100
AcDbEntity
  8
0
100
AcDbLine
 62
7
  6
CONTINUOUS
 10
245.703447085
 20
108.1846228457
 11
245.703447085
 21
108.2431453914
  0
LINE
  5
3A8
100
AcDbEntity
  8
0
100
AcDbLine
 62
7
  6
CONTINUOUS
 10
245.7158907016
 20
109.6543827346
 11
245.7158907016
 21
109.8007125007
  0
LINE
  5
3A9
100
AcDbEntity
  8
0
100
AcDbLine
 62
7
  6
CONTINUOUS
 10
245.7977657113
 20
109.3199146308
 11
245.7977657113
 21
109.4592763196
  0
LINE
  5
3AA
100
AcDbEntity
  8
0
100
AcDbLine
 62
7
  6
CONTINUOUS
 10
245.8387032308
 20
109.6961912403
 11
245.8387032308
 21
109.8268428223
  0
LINE
  5
3AB
100
AcDbEntity
  8
0
100
AcDbLine
 62
7
  6
CONTINUOUS
 10
245.8493272767
 20
107.3392799674
 11
245.8493272767
 21
107.4742149413
  0
LINE
  5
3AC
100
AcDbEntity
  8
0
100
AcDbLine
 62
7
  6
CONTINUOUS
 10
245.8796406918
 20
108.8600210101
 11
245.8796406918
 21
108.9854465417
  0
LINE
  5
3AD
100
AcDbEntity
  8
0
100
AcDbLine
 62
7
  6
CONTINUOUS
 10
245.9615157308
 20
109.299010378
 11
245.9615157308
 21
109.4244358949
  0
LINE
  5
3AE
100
AcDbEntity
  8
0
100
AcDbLine
 62
7
  6
CONTINUOUS
 10
245.9615157308
 20
109.7170954931
 11
245.9615157308
 21
109.8425210101
  0
LINE
  5
3AF
100
AcDbEntity
  8
0
100
AcDbLine
 62
7
  6
CONTINUOUS
 10
246.0688523884
 20
108.1182184623
 11
246.0688523884
 21
108.2048210027
  0
LINE
  5
3B0
100
AcDbEntity
  8
_MDL_SMALL
100
AcDbLine
 62
7
  6
CONTINUOUS
 10
246.1145157113
 20
111.2032347529
 11
246.1145157113
 21
110.6304754124
  0
LINE
  5
3B1
100
AcDbEntity
  8
0
100
AcDbLine
 62
7
  6
CONTINUOUS
 10
246.1267578886
 20
108.1079998447
 11
246.1267578886
 21
108.194602385
  0
LINE
  5
3B2
100
AcDbEntity
  8
0
100
AcDbLine
 62
7
  6
CONTINUOUS
 10
246.2071407308
 20
108.8600210101
 11
246.2071407308
 21
108.9854465417
  0
LINE
  5
3B3
100
AcDbEntity
  8
0
100
AcDbLine
 62
7
  6
CONTINUOUS
 10
246.2071407308
 20
109.299010378
 11
246.2071407308
 21
109.4244358949
  0
LINE
  5
3B4
100
AcDbEntity
  8
0
100
AcDbLine
 62
7
  6
CONTINUOUS
 10
246.2071407308
 20
109.7170954931
 11
246.2071407308
 21
109.8383401583
  0
LINE
  5
3B5
100
AcDbEntity
  8
0
100
AcDbLine
 62
7
  6
CONTINUOUS
 10
246.2119130099
 20
108.136384857
 11
246.2119130099
 21
108.2183861838
  0
LINE
  5
3B6
100
AcDbEntity
  8
0
100
AcDbLine
 62
7
  6
CONTINUOUS
 10
246.3299531723
 20
109.6961912403
 11
246.3299531723
 21
109.825797615
  0
LINE
  5
3B7
100
AcDbEntity
  8
0
100
AcDbLine
 62
7
  6
CONTINUOUS
 10
246.3708907504
 20
109.2781061252
 11
246.3708907504
 21
109.4077124891
  0
LINE
  5
3B8
100
AcDbEntity
  8
0
100
AcDbLine
 62
7
  6
CONTINUOUS
 10
246.4118282113
 20
108.8809252647
 11
246.4118282113
 21
109.0202869546
  0
LINE
  5
3B9
100
AcDbEntity
  8
0
100
AcDbLine
 62
7
  6
CONTINUOUS
 10
246.4118282113
 20
109.6543827346
 11
246.4118282113
 21
109.717551263
  0
LINE
  5
3BA
100
AcDbEntity
  8
0
100
AcDbLine
 62
7
  6
CONTINUOUS
 10
246.4527656723
 20
109.612574229
 11
246.4527656723
 21
109.6575415617
  0
LINE
  5
3BB
100
AcDbEntity
  8
0
100
AcDbLine
 62
7
  6
CONTINUOUS
 10
246.4937032504
 20
109.2362976195
 11
246.4937032504
 21
109.3826273743
  0
LINE
  5
3BC
100
AcDbEntity
  8
0
100
AcDbLine
 62
7
  6
CONTINUOUS
 10
246.5755781723
 20
108.9227337759
 11
246.5755781723
 21
109.0929077677
  0
LINE
  5
3BD
100
AcDbEntity
  8
0
100
AcDbLine
 62
7
  6
CONTINUOUS
 10
246.5755781723
 20
109.1108720733
 11
246.5755781723
 21
109.3437588236
  0
LINE
  5
3BE
100
AcDbEntity
  8
0
100
AcDbLine
 62
7
  6
CONTINUOUS
 10
246.7393282504
 20
109.0063507945
 11
246.7393282504
 21
109.1765247863
  0
LINE
  5
3BF
100
AcDbEntity
  8
0
100
AcDbLine
 62
7
  6
CONTINUOUS
 10
246.8212031723
 20
109.0899678204
 11
246.8212031723
 21
109.1944890846
  0
LINE
  5
3C0
100
AcDbEntity
  8
0
100
AcDbLine
 62
7
  6
CONTINUOUS
 10
247.6645157113
 20
107.9740698039
 11
247.6645157113
 21
108.1442437957
  0
LINE
  5
3C1
100
AcDbEntity
  8
0
100
AcDbLine
 62
7
  6
CONTINUOUS
 10
244.7997318631
 20
108.0612160248
 11
244.7986566116
 21
108.0146689342
  0
LINE
  5
3C2
100
AcDbEntity
  8
0
100
AcDbLine
 62
7
  6
CONTINUOUS
 10
244.9083281715
 20
107.9870326396
 11
244.909403423
 21
108.0335797302
  0
LINE
  5
3C3
100
AcDbEntity
  8
0
100
AcDbLine
 62
7
  6
CONTINUOUS
 10
245.5048017181
 20
107.9420670005
 11
245.5152850753
 21
107.9979478463
  0
LINE
  5
3C4
100
AcDbEntity
  8
0
100
AcDbLine
 62
7
  6
CONTINUOUS
 10
245.4139463697
 20
107.9883708055
 11
245.4040006872
 21
107.9557634886
  0
LINE
  5
3C5
100
AcDbEntity
  8
0
100
AcDbLine
 62
7
  6
CONTINUOUS
 10
245.4702657162
 20
109.6961912403
 11
245.4293282113
 21
109.612574229
  0
LINE
  5
3C6
100
AcDbEntity
  8
0
100
AcDbLine
 62
7
  6
CONTINUOUS
 10
243.8413130134
 20
108.283562857
 11
243.8105272905
 21
108.2227685174
  0
LINE
  5
3C7
100
AcDbEntity
  8
0
100
AcDbLine
 62
7
  6
CONTINUOUS
 10
244.4150234
 20
108.4157895488
 11
244.317535286
 21
108.2232741566
  0
LINE
  5
3C8
100
AcDbEntity
  8
0
100
AcDbLine
 62
7
  6
CONTINUOUS
 10
244.2867495631
 20
108.162479817
 11
244.2149162193
 21
108.0206263768
  0
LINE
  5
3C9
100
AcDbEntity
  8
0
100
AcDbLine
 62
7
  6
CONTINUOUS
 10
244.3339717875
 20
108.0921567421
 11
244.4058051313
 21
108.2340101823
  0
LINE
  5
3CA
100
AcDbEntity
  8
0
100
AcDbLine
 62
7
  6
CONTINUOUS
 10
244.4365908541
 20
108.2948045219
 11
244.5339138839
 21
108.4869939128
  0
LINE
  5
3CB
100
AcDbEntity
  8
0
100
AcDbLine
 62
7
  6
CONTINUOUS
 10
244.3339717875
 20
108.0055542017
 11
244.4058051313
 21
108.1474076419
  0
LINE
  5
3CC
100
AcDbEntity
  8
0
100
AcDbLine
 62
7
  6
CONTINUOUS
 10
244.4365908541
 20
108.2082019815
 11
244.5751265891
 21
108.4817764743
  0
LINE
  5
3CD
100
AcDbEntity
  8
0
100
AcDbLine
 62
7
  6
CONTINUOUS
 10
244.6042310592
 20
108.1222873525
 11
244.6350167821
 21
108.1830816921
  0
LINE
  5
3CE
100
AcDbEntity
  8
0
100
AcDbLine
 62
7
  6
CONTINUOUS
 10
245.6749532113
 20
109.7618439094
 11
245.6972127485
 21
109.7959436619
  0
LINE
  5
3CF
100
AcDbEntity
  8
0
100
AcDbLine
 62
7
  6
CONTINUOUS
 10
245.6749532113
 20
109.5916699176
 11
245.7158907016
 21
109.6543827346
  0
LINE
  5
3D0
100
AcDbEntity
  8
0
100
AcDbLine
 62
7
  6
CONTINUOUS
 10
246.0654461695
 20
108.2056443952
 11
246.0381965094
 21
108.16704071
  0
LINE
  5
3D1
100
AcDbEntity
  8
0
100
AcDbLine
 62
7
  6
CONTINUOUS
 10
246.2119130099
 20
108.136384857
 11
246.23916267
 21
108.1749885421
  0
LINE
  5
3D2
100
AcDbEntity
  8
0
100
AcDbLine
 62
7
  6
CONTINUOUS
 10
246.7393282504
 20
109.1765247863
 11
246.7883840829
 21
109.2266244105
  0
LINE
  5
3D3
100
AcDbEntity
  8
0
100
AcDbLine
 62
7
  6
CONTINUOUS
 10
246.7393282504
 20
109.0063507945
 11
246.8212031723
 21
109.0899678204
  0
LINE
  5
3D4
100
AcDbEntity
  8
0
100
AcDbLine
 62
7
  6
CONTINUOUS
 10
252.7817032113
 20
109.2634731365
 11
252.8226407894
 21
109.3052816421
  0
LINE
  5
3D5
100
AcDbEntity
  8
0
100
AcDbLine
 62
7
  6
CONTINUOUS
 10
245.1290153735
 20
108.3878972672
 11
244.8844047688
 21
108.1452197758
  0
LINE
  5
3D6
100
AcDbEntity
  8
0
100
AcDbLine
 62
7
  6
CONTINUOUS
 10
245.0228381963
 20
108.2554608228
 11
245.1507970743
 21
108.382408465
  0
LINE
  5
3D7
100
AcDbEntity
  8
0
100
AcDbLine
 62
7
  6
CONTINUOUS
 10
245.0228381963
 20
108.1688582824
 11
245.1733678093
 21
108.3181982871
  0
LINE
  5
3D8
100
AcDbEntity
  8
0
100
AcDbLine
 62
7
  6
CONTINUOUS
 10
245.4040006872
 20
107.9557634886
 11
245.3851844889
 21
107.9370959912
  0
LINE
  5
3D9
100
AcDbEntity
  8
0
100
AcDbLine
 62
7
  6
CONTINUOUS
 10
245.4671693214
 20
107.9913345462
 11
245.5048017181
 21
108.0286695409
  0
LINE
  5
3DA
100
AcDbEntity
  8
0
100
AcDbLine
 62
7
  6
CONTINUOUS
 10
245.703447085
 20
108.1846228457
 11
245.7504875808
 21
108.231291589
  0
LINE
  5
3DB
100
AcDbEntity
  8
0
100
AcDbLine
 62
7
  6
CONTINUOUS
 10
245.4671693214
 20
107.9047320059
 11
245.5048017181
 21
107.9420670005
  0
LINE
  5
3DC
100
AcDbEntity
  8
0
100
AcDbLine
 62
7
  6
CONTINUOUS
 10
246.5755781723
 20
109.1108720733
 11
246.4937032504
 21
109.0481593148
  0
LINE
  5
3DD
100
AcDbEntity
  8
RUNDUNGEN
100
AcDbLine
 62
7
  6
CONTINUOUS
 10
238.7734884807
 20
102.4207194545
 11
240.4993066778
 21
103.6530813636
  0
LINE
  5
3DE
100
AcDbEntity
  8
RUNDUNGEN
100
AcDbLine
 62
7
  6
CONTINUOUS
 10
255.5181972052
 20
114.3776806487
 11
255.8594751848
 21
114.6213783819
  0
LINE
  5
3DF
100
AcDbEntity
  8
RUNDUNGEN
100
AcDbLine
 62
7
  6
CONTINUOUS
 10
239.3608030107
 20
101.1080546846
 11
240.4993066778
 21
101.921030556
  0
LINE
  5
3E0
100
AcDbEntity
  8
RUNDUNGEN
100
AcDbLine
 62
7
  6
CONTINUOUS
 10
255.5181972052
 20
112.6456298411
 11
255.8594751848
 21
112.8893275743
  0
LINE
  5
3E1
100
AcDbEntity
  8
0
100
AcDbLine
 62
7
  6
CONTINUOUS
 10
250.9395157113
 20
109.7442710101
 11
249.9570157113
 21
109.1798561252
  0
LINE
  5
3E2
100
AcDbEntity
  8
0
100
AcDbLine
 62
7
  6
CONTINUOUS
 10
250.2435782016
 20
109.1798561252
 11
250.9395157113
 21
109.5770369874
  0
LINE
  5
3E3
100
AcDbEntity
  8
0
100
AcDbLine
 62
7
  6
CONTINUOUS
 10
245.6340157211
 20
109.7798082516
 11
245.4702657162
 21
109.6961912403
  0
LINE
  5
3E4
100
AcDbEntity
  8
0
100
AcDbLine
 62
7
  6
CONTINUOUS
 10
246.5755781723
 20
109.0929077677
 11
246.7393282504
 21
109.1765247863
  0
LINE
  5
3E5
100
AcDbEntity
  8
0
100
AcDbLine
 62
7
  6
CONTINUOUS
 10
246.5755781723
 20
108.9227337759
 11
246.7393282504
 21
109.0063507945
  0
LINE
  5
3E6
100
AcDbEntity
  8
0
100
AcDbLine
 62
7
  6
CONTINUOUS
 10
252.2085782894
 20
109.4098029063
 11
252.1267031332
 21
109.3679944006
  0
LINE
  5
3E7
100
AcDbEntity
  8
0
100
AcDbLine
 62
7
  6
CONTINUOUS
 10
252.1267031332
 20
109.2843773893
 11
252.2085782894
 21
109.3261858949
  0
LINE
  5
3E8
100
AcDbEntity
  8
0
100
AcDbLine
 62
7
  6
CONTINUOUS
 10
252.8635781332
 20
109.4098029063
 11
252.7407656332
 21
109.3470901478
  0
LINE
  5
3E9
100
AcDbEntity
  8
0
100
AcDbLine
 62
7
  6
CONTINUOUS
 10
252.8226407894
 20
109.3052816421
 11
252.8635781332
 21
109.3261858949
  0
LINE
  5
3EA
100
AcDbEntity
  8
0
100
AcDbLine
 62
7
  6
CONTINUOUS
 10
254.0507655552
 20
109.4098029063
 11
253.9688908675
 21
109.3679944006
  0
LINE
  5
3EB
100
AcDbEntity
  8
0
100
AcDbLine
 62
7
  6
CONTINUOUS
 10
253.9688908675
 20
109.2843773893
 11
254.0507655552
 21
109.3261858949
  0
LINE
  5
3EC
100
AcDbEntity
  8
0
100
AcDbLine
 62
7
  6
CONTINUOUS
 10
254.7057658675
 20
109.4098029063
 11
254.5829533675
 21
109.3470901478
  0
LINE
  5
3ED
100
AcDbEntity
  8
0
100
AcDbLine
 62
7
  6
CONTINUOUS
 10
254.6648280552
 20
109.3052816421
 11
254.7057658675
 21
109.3261858949
  0
LINE
  5
3EE
100
AcDbEntity
  8
0
100
AcDbLine
 62
7
  6
CONTINUOUS
 10
247.6645157113
 20
108.2528399253
 11
245.987817855
 21
107.4089804152
  0
LINE
  5
3EF
100
AcDbEntity
  8
0
100
AcDbLine
 62
7
  6
CONTINUOUS
 10
245.8493272767
 20
107.3392799674
 11
243.0795157113
 21
105.9452710101
  0
LINE
  5
3F0
100
AcDbEntity
  8
0
100
AcDbLine
 62
7
  6
CONTINUOUS
 10
243.4381982847
 20
106.0171950019
 11
247.6645157113
 21
108.1442437957
  0
LINE
  5
3F1
100
AcDbEntity
  8
0
100
AcDbLine
 62
7
  6
CONTINUOUS
 10
243.4381982847
 20
105.8470210101
 11
247.6645157113
 21
107.9740698039
  0
LINE
  5
3F2
100
AcDbEntity
  8
0
100
AcDbLine
 62
7
  6
CONTINUOUS
 10
245.3851844889
 20
107.9370959912
 11
245.3386815632
 21
107.9137008031
  0
LINE
  5
3F3
100
AcDbEntity
  8
0
100
AcDbLine
 62
7
  6
CONTINUOUS
 10
245.4065683773
 20
107.964181763
 11
245.4671693214
 21
107.9913345462
  0
LINE
  5
3F4
100
AcDbEntity
  8
0
100
AcDbLine
 62
7
  6
CONTINUOUS
 10
245.3835716672
 20
107.8672753454
 11
245.4671693214
 21
107.9047320059
  0
LINE
  5
3F5
100
AcDbEntity
  8
0
100
AcDbLine
 62
7
  6
CONTINUOUS
 10
244.4560710209
 20
108.4968486494
 11
243.8413130134
 21
108.283562857
  0
LINE
  5
3F6
100
AcDbEntity
  8
0
100
AcDbLine
 62
7
  6
CONTINUOUS
 10
243.9802111715
 20
108.2659786533
 11
244.4150234
 21
108.4157895488
  0
LINE
  5
3F7
100
AcDbEntity
  8
0
100
AcDbLine
 62
7
  6
CONTINUOUS
 10
245.7158907016
 20
109.6543827346
 11
245.8387032308
 21
109.6961912403
  0
LINE
  5
3F8
100
AcDbEntity
  8
0
100
AcDbLine
 62
7
  6
CONTINUOUS
 10
246.4937032504
 20
109.0481593148
 11
246.3708907504
 21
109.0063507945
  0
LINE
  5
3F9
100
AcDbEntity
  8
0
100
AcDbLine
 62
7
  6
CONTINUOUS
 10
246.1506013298
 20
108.2340294627
 11
246.0654461695
 21
108.2056443952
  0
LINE
  5
3FA
100
AcDbEntity
  8
0
100
AcDbLine
 62
7
  6
CONTINUOUS
 10
246.1267578886
 20
108.194602385
 11
246.2119130099
 21
108.2229873973
  0
LINE
  5
3FB
100
AcDbEntity
  8
0
100
AcDbLine
 62
7
  6
CONTINUOUS
 10
246.1267578886
 20
108.1079998447
 11
246.2119130099
 21
108.136384857
  0
LINE
  5
3FC
100
AcDbEntity
  8
0
100
AcDbLine
 62
7
  6
CONTINUOUS
 10
245.3386815632
 20
107.9137008031
 11
245.2739001074
 21
107.89491164
  0
LINE
  5
3FD
100
AcDbEntity
  8
0
100
AcDbLine
 62
7
  6
CONTINUOUS
 10
242.9350189139
 20
103.2597710101
 11
242.8830157113
 21
103.2597710101
  0
LINE
  5
3FE
100
AcDbEntity
  8
0
100
AcDbLine
 62
7
  6
CONTINUOUS
 10
242.8830157113
 20
104.1767710101
 11
243.1851377069
 21
104.1767710101
  0
LINE
  5
3FF
100
AcDbEntity
  8
0
100
AcDbLine
 62
7
  6
CONTINUOUS
 10
252.1438937157
 20
104.1767710101
 11
252.4460157113
 21
104.1767710101
  0
LINE
  5
400
100
AcDbEntity
  8
0
100
AcDbLine
 62
7
  6
CONTINUOUS
 10
252.2495157113
 20
104.2750210101
 11
252.1037885753
 21
104.2750210101
  0
LINE
  5
401
100
AcDbEntity
  8
0
100
AcDbLine
 62
7
  6
CONTINUOUS
 10
243.2252428474
 20
104.2750210101
 11
243.0795157113
 21
104.2750210101
  0
LINE
  5
402
100
AcDbEntity
  8
0
100
AcDbLine
 62
7
  6
CONTINUOUS
 10
242.8830157113
 20
104.3469450019
 11
243.0795157113
 21
104.3469450019
  0
LINE
  5
403
100
AcDbEntity
  8
0
100
AcDbLine
 62
7
  6
CONTINUOUS
 10
252.2495157113
 20
104.3469450019
 11
252.4460157113
 21
104.3469450019
  0
LINE
  5
404
100
AcDbEntity
  8
0
100
AcDbLine
 62
7
  6
CONTINUOUS
 10
251.9963385727
 20
105.2123678009
 11
251.8513516488
 21
105.2123678009
  0
LINE
  5
405
100
AcDbEntity
  8
RUNDUNGEN
100
AcDbLine
 62
7
  6
CONTINUOUS
 10
240.4993066778
 20
105.3022636483
 11
238.4145157113
 21
106.79095868
  0
LINE
  5
406
100
AcDbEntity
  8
0
100
AcDbLine
 62
7
  6
CONTINUOUS
 10
244.8158599916
 20
107.963515789
 11
244.8790287279
 21
107.9124842775
  0
LINE
  5
407
100
AcDbEntity
  8
0
100
AcDbLine
 62
7
  6
CONTINUOUS
 10
244.9443477531
 20
107.954546995
 11
244.9083281715
 21
107.9870326396
  0
LINE
  5
408
100
AcDbEntity
  8
0
100
AcDbLine
 62
7
  6
CONTINUOUS
 10
245.5930782016
 20
109.0690635676
 11
245.5521407113
 21
109.1317763261
  0
LINE
  5
409
100
AcDbEntity
  8
0
100
AcDbLine
 62
7
  6
CONTINUOUS
 10
246.0381965094
 20
108.16704071
 11
246.0688523884
 21
108.1182184623
  0
LINE
  5
40A
100
AcDbEntity
  8
0
100
AcDbLine
 62
7
  6
CONTINUOUS
 10
246.23916267
 20
108.1749885421
 11
246.20850683
 21
108.223810845
  0
LINE
  5
40B
100
AcDbEntity
  8
0
100
AcDbLine
 62
7
  6
CONTINUOUS
 10
245.3065157113
 20
109.1317763261
 11
245.3474532125
 21
109.0481593148
  0
LINE
  5
40C
100
AcDbEntity
  8
0
100
AcDbLine
 62
7
  6
CONTINUOUS
 10
245.4293282113
 20
109.5289571591
 11
245.4702657162
 21
109.4453401478
  0
LINE
  5
40D
100
AcDbEntity
  8
0
100
AcDbLine
 62
7
  6
CONTINUOUS
 10
245.4505166296
 20
109.6558526899
 11
245.4702657162
 21
109.6155141396
  0
LINE
  5
40E
100
AcDbEntity
  8
0
100
AcDbLine
 62
7
  6
CONTINUOUS
 10
244.7986566116
 20
108.0146689342
 11
244.8158599916
 21
107.963515789
  0
LINE
  5
40F
100
AcDbEntity
  8
0
100
AcDbLine
 62
7
  6
CONTINUOUS
 10
244.8132755018
 20
108.0578031437
 11
244.8158599916
 21
108.0501183294
  0
LINE
  5
410
100
AcDbEntity
  8
0
100
AcDbLine
 62
7
  6
CONTINUOUS
 10
245.5152850753
 20
107.9979478463
 11
245.4980816921
 21
108.0491009883
  0
LINE
  5
411
100
AcDbEntity
  8
0
100
AcDbLine
 62
7
  6
CONTINUOUS
 10
245.4056135155
 20
108.0255841409
 11
245.4139463697
 21
107.9883708055
  0
LINE
  5
412
100
AcDbEntity
  8
0
100
AcDbLine
 62
7
  6
CONTINUOUS
 10
245.4056135155
 20
108.1121866813
 11
245.4139463697
 21
108.0749733459
  0
LINE
  5
413
100
AcDbEntity
  8
_MDL_SMALL
100
AcDbLine
 62
7
  6
CONTINUOUS
 10
249.2145157113
 20
111.2032347529
 11
249.2145157113
 21
110.6304754124
  0
LINE
  5
414
100
AcDbEntity
  8
0
100
AcDbLine
 62
7
  6
CONTINUOUS
 10
249.9570157113
 20
109.1798561252
 11
249.9570157113
 21
109.0544305789
  0
LINE
  5
415
100
AcDbEntity
  8
0
100
AcDbLine
 62
7
  6
CONTINUOUS
 10
250.2435782016
 20
109.1798561252
 11
250.2435782016
 21
109.3444771276
  0
LINE
  5
416
100
AcDbEntity
  8
0
100
AcDbLine
 62
7
  6
CONTINUOUS
 10
250.9395157113
 20
108.7617710101
 11
250.9395157113
 21
109.7472109793
  0
LINE
  5
417
100
AcDbEntity
  8
FASEN
100
AcDbLine
 62
7
  6
CONTINUOUS
 10
250.9645157113
 20
36.6364766956
 11
250.9645157113
 21
31.5764597543
  0
LINE
  5
418
100
AcDbEntity
  8
FASEN
100
AcDbLine
 62
7
  6
CONTINUOUS
 10
250.9645157113
 20
21.8448375346
 11
250.9645157113
 21
16.7848205934
  0
LINE
  5
419
100
AcDbEntity
  8
0
100
AcDbLine
 62
7
  6
CONTINUOUS
 10
251.1851407113
 20
108.7617710101
 11
251.1851407113
 21
109.7442710101
  0
LINE
  5
41A
100
AcDbEntity
  8
FASEN
100
AcDbLine
 62
7
  6
CONTINUOUS
 10
251.4645157113
 20
44.4941322298
 11
251.4645157113
 21
32.076701789
  0
LINE
  5
41B
100
AcDbEntity
  8
FASEN
100
AcDbLine
 62
7
  6
CONTINUOUS
 10
251.4645157113
 20
29.7024930689
 11
251.4645157113
 21
17.285062561
  0
LINE
  5
41C
100
AcDbEntity
  8
0
100
AcDbLine
 62
7
  6
CONTINUOUS
 10
251.5945156723
 20
109.0544305789
 11
251.5945156723
 21
109.1798561252
  0
LINE
  5
41D
100
AcDbEntity
  8
0
100
AcDbLine
 62
7
  6
CONTINUOUS
 10
251.706364725
 20
105.1078465368
 11
251.706364725
 21
105.1944490772
  0
LINE
  5
41E
100
AcDbEntity
  8
0
100
AcDbLine
 62
7
  6
CONTINUOUS
 10
251.7933569125
 20
105.0730061154
 11
251.7933569125
 21
105.1596086558
  0
LINE
  5
41F
100
AcDbEntity
  8
0
100
AcDbLine
 62
7
  6
CONTINUOUS
 10
251.8513516488
 20
104.7984961109
 11
251.8513516488
 21
105.2123678009
  0
LINE
  5
420
100
AcDbEntity
  8
0
100
AcDbLine
 62
7
  6
CONTINUOUS
 10
251.8919676377
 20
105.8470210101
 11
251.8919676377
 21
106.0171950019
  0
LINE
  5
421
100
AcDbEntity
  8
0
100
AcDbLine
 62
7
  6
CONTINUOUS
 10
251.9220157113
 20
109.4307071591
 11
251.9220157113
 21
108.7617710101
  0
LINE
  5
422
100
AcDbEntity
  8
0
100
AcDbLine
 62
7
  6
CONTINUOUS
 10
251.9963385727
 20
104.6200805856
 11
251.9963385727
 21
105.2123678009
  0
LINE
  5
423
100
AcDbEntity
  8
0
100
AcDbLine
 62
7
  6
CONTINUOUS
 10
252.1267031332
 20
108.7617710101
 11
252.1267031332
 21
109.4307071591
  0
LINE
  5
424
100
AcDbEntity
  8
0
100
AcDbLine
 62
7
  6
CONTINUOUS
 10
252.2085782894
 20
109.3261858949
 11
252.2085782894
 21
109.4098029063
  0
LINE
  5
425
100
AcDbEntity
  8
0
100
AcDbLine
 62
7
  6
CONTINUOUS
 10
252.2495157113
 20
104.2750210101
 11
252.2495157113
 21
105.9189450019
  0
LINE
  5
426
100
AcDbEntity
  8
0
100
AcDbLine
 62
7
  6
CONTINUOUS
 10
252.3313907894
 20
109.3470901478
 11
252.3313907894
 21
109.4307071591
  0
LINE
  5
427
100
AcDbEntity
  8
0
100
AcDbLine
 62
7
  6
CONTINUOUS
 10
252.4132657113
 20
109.3470901478
 11
252.4132657113
 21
109.4307071591
  0
LINE
  5
428
100
AcDbEntity
  8
0
100
AcDbLine
 62
7
  6
CONTINUOUS
 10
252.4460157113
 20
104.1767710101
 11
252.4460157113
 21
105.8470210101
  0
LINE
  5
429
100
AcDbEntity
  8
KONSTRUKTIONSELEMENTE
100
AcDbLine
 62
7
  6
CONTINUOUS
 10
252.4645157113
 20
28.6936551048
 11
252.4645157113
 21
28.4813901971
  0
LINE
  5
42A
100
AcDbEntity
  8
KONSTRUKTIONSELEMENTE
100
AcDbLine
 62
7
  6
CONTINUOUS
 10
252.4645157113
 20
43.273029358
 11
252.4645157113
 21
43.4852942657
  0
LINE
  5
42B
100
AcDbEntity
  8
KONSTRUKTIONSELEMENTE
100
AcDbLine
 62
7
  6
CONTINUOUS
 10
252.4645157113
 20
58.3018661513
 11
252.4645157113
 21
102.3796549597
  0
LINE
  5
42C
100
AcDbEntity
  8
0
100
AcDbLine
 62
7
  6
CONTINUOUS
 10
252.4951406332
 20
109.3261858949
 11
252.4951406332
 21
109.4307071591
  0
LINE
  5
42D
100
AcDbEntity
  8
0
100
AcDbLine
 62
7
  6
CONTINUOUS
 10
252.5360782113
 20
109.3052816421
 11
252.5360782113
 21
109.4237390615
  0
LINE
  5
42E
100
AcDbEntity
  8
0
100
AcDbLine
 62
7
  6
CONTINUOUS
 10
252.5770157894
 20
108.7617710101
 11
252.5770157894
 21
109.416770964
  0
LINE
  5
42F
100
AcDbEntity
  8
0
100
AcDbLine
 62
7
  6
CONTINUOUS
 10
252.7817032113
 20
108.7617710101
 11
252.7817032113
 21
109.3679944405
  0
LINE
  5
430
100
AcDbEntity
  8
0
100
AcDbLine
 62
7
  6
CONTINUOUS
 10
252.8226407894
 20
109.3052816421
 11
252.8226407894
 21
109.3888987332
  0
LINE
  5
431
100
AcDbEntity
  8
0
100
AcDbLine
 62
7
  6
CONTINUOUS
 10
252.8635781332
 20
109.3261858949
 11
252.8635781332
 21
109.4098029063
  0
LINE
  5
432
100
AcDbEntity
  8
0
100
AcDbLine
 62
7
  6
CONTINUOUS
 10
252.9454532894
 20
109.3470901478
 11
252.9454532894
 21
109.4237391014
  0
LINE
  5
433
100
AcDbEntity
  8
KONSTRUKTIONSELEMENTE
100
AcDbLine
 62
7
  6
CONTINUOUS
 10
253.0645157113
 20
187.1740464138
 11
253.0645157113
 21
116.3740464138
  0
LINE
  5
434
100
AcDbEntity
  8
0
100
AcDbLine
 62
7
  6
CONTINUOUS
 10
253.0682657894
 20
109.3470901478
 11
253.0682657894
 21
109.4307071591
  0
LINE
  5
435
100
AcDbEntity
  8
0
100
AcDbLine
 62
7
  6
CONTINUOUS
 10
253.1501407113
 20
109.3261858949
 11
253.1501407113
 21
109.4307071591
  0
LINE
  5
436
100
AcDbEntity
  8
0
100
AcDbLine
 62
7
  6
CONTINUOUS
 10
253.1910782894
 20
109.3052816421
 11
253.1910782894
 21
109.4237390615
  0
LINE
  5
437
100
AcDbEntity
  8
0
100
AcDbLine
 62
7
  6
CONTINUOUS
 10
253.2320156332
 20
108.7617710101
 11
253.2320156332
 21
109.4167710038
  0
LINE
  5
438
100
AcDbEntity
  8
0
100
AcDbLine
 62
7
  6
CONTINUOUS
 10
253.4367032894
 20
108.7617710101
 11
253.4367032894
 21
109.2634731365
  0
LINE
  5
439
100
AcDbEntity
  8
0
100
AcDbLine
 62
7
  6
CONTINUOUS
 10
253.7642032113
 20
109.4307071591
 11
253.7642032113
 21
108.7617710101
  0
LINE
  5
43A
100
AcDbEntity
  8
0
100
AcDbLine
 62
7
  6
CONTINUOUS
 10
253.9688908675
 20
108.7617710101
 11
253.9688908675
 21
109.4307071591
  0
LINE
  5
43B
100
AcDbEntity
  8
0
100
AcDbLine
 62
7
  6
CONTINUOUS
 10
254.0507655552
 20
109.3261858949
 11
254.0507655552
 21
109.4098029063
  0
LINE
  5
43C
100
AcDbEntity
  8
0
100
AcDbLine
 62
7
  6
CONTINUOUS
 10
254.1735780552
 20
109.3470901478
 11
254.1735780552
 21
109.4307071591
  0
LINE
  5
43D
100
AcDbEntity
  8
0
100
AcDbLine
 62
7
  6
CONTINUOUS
 10
254.2554532113
 20
109.3470901478
 11
254.2554532113
 21
109.4307071591
  0
LINE
  5
43E
100
AcDbEntity
  8
0
100
AcDbLine
 62
7
  6
CONTINUOUS
 10
254.3373283675
 20
109.3261858949
 11
254.3373283675
 21
109.4307071591
  0
LINE
  5
43F
100
AcDbEntity
  8
0
100
AcDbLine
 62
7
  6
CONTINUOUS
 10
254.3782657113
 20
109.3052816421
 11
254.3782657113
 21
109.4237391014
  0
LINE
  5
440
100
AcDbEntity
  8
0
100
AcDbLine
 62
7
  6
CONTINUOUS
 10
254.4192030552
 20
108.7617710101
 11
254.4192030552
 21
109.4167710437
  0
LINE
  5
441
100
AcDbEntity
  8
0
100
AcDbLine
 62
7
  6
CONTINUOUS
 10
254.6238907113
 20
108.7617710101
 11
254.6238907113
 21
109.3679943209
  0
LINE
  5
442
100
AcDbEntity
  8
0
100
AcDbLine
 62
7
  6
CONTINUOUS
 10
254.6648280552
 20
109.3052816421
 11
254.6648280552
 21
109.3888984939
  0
LINE
  5
443
100
AcDbEntity
  8
0
100
AcDbLine
 62
7
  6
CONTINUOUS
 10
254.7057658675
 20
109.3261858949
 11
254.7057658675
 21
109.4098029063
  0
LINE
  5
444
100
AcDbEntity
  8
0
100
AcDbLine
 62
7
  6
CONTINUOUS
 10
254.7876405552
 20
109.3470901478
 11
254.7876405552
 21
109.4237390216
  0
LINE
  5
445
100
AcDbEntity
  8
0
100
AcDbLine
 62
7
  6
CONTINUOUS
 10
254.9104530552
 20
109.3470901478
 11
254.9104530552
 21
109.4307071591
  0
LINE
  5
446
100
AcDbEntity
  8
RUNDUNGEN
100
AcDbLine
 62
7
  6
CONTINUOUS
 10
252.4645157113
 20
43.2730407958
 11
252.4645156681
 21
43.2727686862
  0
LINE
  5
447
100
AcDbEntity
  8
RUNDUNGEN
100
AcDbLine
 62
7
  6
CONTINUOUS
 10
252.4645157113
 20
28.4814016932
 11
252.4645156683
 21
28.48113006
  0
LWPOLYLINE
  5
448
100
AcDbEntity
  8
RUNDUNGEN
100
AcDbPolyline
 62
7
  6
CONTINUOUS
 90
5
 70
0
 10
251.4645164297
 20
40.6166955878
 10
251.4704470514
 20
40.7748234932
 10
251.4857720253
 20
40.9161768292
 10
251.5103451207
 20
41.0545810683
 10
251.5437058856
 20
41.1882036873
  0
LWPOLYLINE
  5
449
100
AcDbEntity
  8
RUNDUNGEN
100
AcDbPolyline
 62
7
  6
CONTINUOUS
 90
5
 70
0
 10
251.4645164297
 20
25.8250564269
 10
251.4704470514
 20
25.9831843322
 10
251.4857720253
 20
26.1245376683
 10
251.5103451207
 20
26.2629419074
 10
251.5437058856
 20
26.3965645264
  0
LINE
  5
44A
100
AcDbEntity
  8
0
100
AcDbLine
 62
7
  6
CONTINUOUS
 10
251.9506493785
 20
104.610615637
 11
251.9963385727
 21
104.706683126
  0
LINE
  5
44B
100
AcDbEntity
  8
0
100
AcDbLine
 62
7
  6
CONTINUOUS
 10
251.9723286153
 20
104.5695965191
 11
251.9963385727
 21
104.6200805856
  0
LINE
  5
44C
100
AcDbEntity
  8
0
100
AcDbLine
 62
7
  6
CONTINUOUS
 10
254.6238907113
 20
109.2634731365
 11
254.6648280552
 21
109.3052816421
  0
LINE
  5
44D
100
AcDbEntity
  8
0
100
AcDbLine
 62
7
  6
CONTINUOUS
 10
251.8513516488
 20
104.846543352
 11
251.8341502662
 21
104.8310427153
  0
LINE
  5
44E
100
AcDbEntity
  8
RUNDUNGEN
100
AcDbLine
 62
7
  6
CONTINUOUS
 10
256.9145157113
 20
106.79095868
 11
254.8297247448
 21
105.3022636483
  0
LINE
  5
44F
100
AcDbEntity
  8
0
100
AcDbLine
 62
7
  6
CONTINUOUS
 10
254.7057658675
 20
109.3261858949
 11
254.7876405552
 21
109.3470901478
  0
LINE
  5
450
100
AcDbEntity
  8
0
100
AcDbLine
 62
7
  6
CONTINUOUS
 10
252.8635781332
 20
109.3261858949
 11
252.9454532894
 21
109.3470901478
  0
LINE
  5
451
100
AcDbEntity
  8
0
100
AcDbLine
 62
7
  6
CONTINUOUS
 10
246.4118282113
 20
108.8809252647
 11
246.5755781723
 21
108.9227337759
  0
LINE
  5
452
100
AcDbEntity
  8
0
100
AcDbLine
 62
7
  6
CONTINUOUS
 10
246.5403981135
 20
109.0839256228
 11
246.5755781723
 21
109.0929077677
  0
LINE
  5
453
100
AcDbEntity
  8
0
100
AcDbLine
 62
7
  6
CONTINUOUS
 10
245.7977657113
 20
109.8216167572
 11
245.6340157211
 21
109.7798082516
  0
LINE
  5
454
100
AcDbEntity
  8
0
100
AcDbLine
 62
7
  6
CONTINUOUS
 10
245.2911034873
 20
107.8437584948
 11
245.3835716672
 21
107.8672753454
  0
LINE
  5
455
100
AcDbEntity
  8
0
100
AcDbLine
 62
7
  6
CONTINUOUS
 10
254.8285783675
 20
109.4307071591
 11
254.7057658675
 21
109.4098029063
  0
LINE
  5
456
100
AcDbEntity
  8
0
100
AcDbLine
 62
7
  6
CONTINUOUS
 10
254.0507655552
 20
109.3261858949
 11
254.1735780552
 21
109.3470901478
  0
LINE
  5
457
100
AcDbEntity
  8
0
100
AcDbLine
 62
7
  6
CONTINUOUS
 10
254.1735780552
 20
109.4307071591
 11
254.0507655552
 21
109.4098029063
  0
LINE
  5
458
100
AcDbEntity
  8
0
100
AcDbLine
 62
7
  6
CONTINUOUS
 10
252.9863906332
 20
109.4307071591
 11
252.8635781332
 21
109.4098029063
  0
LINE
  5
459
100
AcDbEntity
  8
0
100
AcDbLine
 62
7
  6
CONTINUOUS
 10
252.2085782894
 20
109.3261858949
 11
252.3313907894
 21
109.3470901478
  0
LINE
  5
45A
100
AcDbEntity
  8
0
100
AcDbLine
 62
7
  6
CONTINUOUS
 10
252.3313907894
 20
109.4307071591
 11
252.2085782894
 21
109.4098029063
  0
LINE
  5
45B
100
AcDbEntity
  8
0
100
AcDbLine
 62
7
  6
CONTINUOUS
 10
245.8387032308
 20
109.6961912403
 11
245.9615157308
 21
109.7170954931
  0
LINE
  5
45C
100
AcDbEntity
  8
0
100
AcDbLine
 62
7
  6
CONTINUOUS
 10
246.3708907504
 20
109.0063507945
 11
246.2071407308
 21
108.9854465417
  0
LINE
  5
45D
100
AcDbEntity
  8
0
100
AcDbLine
 62
7
  6
CONTINUOUS
 10
245.9615157308
 20
109.8425210101
 11
245.7977657113
 21
109.8216167572
  0
LINE
  5
45E
100
AcDbEntity
  8
0
100
AcDbLine
 62
7
  6
CONTINUOUS
 10
246.2071407308
 20
108.8600210101
 11
246.4118282113
 21
108.8809252647
  0
LINE
  5
45F
100
AcDbEntity
  8
0
100
AcDbLine
 62
7
  6
CONTINUOUS
 10
245.0123549568
 20
108.1129774233
 11
245.1136935578
 21
108.1225544905
  0
LINE
  5
460
100
AcDbEntity
  8
0
100
AcDbLine
 62
7
  6
CONTINUOUS
 10
245.0123549568
 20
108.1995799637
 11
245.0198677259
 21
108.2002899626
  0
LINE
  5
461
100
AcDbEntity
  8
0
100
AcDbLine
 62
7
  6
CONTINUOUS
 10
245.2739001074
 20
107.89491164
 11
245.2002481291
 21
107.89006229
  0
LINE
  5
462
100
AcDbEntity
  8
0
100
AcDbLine
 62
7
  6
CONTINUOUS
 10
245.1714861511
 20
107.8387875094
 11
245.2911034873
 21
107.8437584948
  0
LINE
  5
463
100
AcDbEntity
  8
0
100
AcDbLine
 62
7
  6
CONTINUOUS
 10
245.1424555301
 20
108.1738292653
 11
245.0228381963
 21
108.1688582824
  0
LINE
  5
464
100
AcDbEntity
  8
0
100
AcDbLine
 62
7
  6
CONTINUOUS
 10
243.0795157113
 20
105.7487710101
 11
244.1747124353
 21
105.7487710101
  0
LINE
  5
465
100
AcDbEntity
  8
0
100
AcDbLine
 62
7
  6
CONTINUOUS
 10
251.1543189874
 20
105.7487710101
 11
252.2495157113
 21
105.7487710101
  0
LINE
  5
466
100
AcDbEntity
  8
0
100
AcDbLine
 62
7
  6
CONTINUOUS
 10
251.8919676377
 20
105.8470210101
 11
251.0560689874
 21
105.8470210101
  0
LINE
  5
467
100
AcDbEntity
  8
0
100
AcDbLine
 62
7
  6
CONTINUOUS
 10
244.2729624353
 20
105.8470210101
 11
243.4381982847
 21
105.8470210101
  0
LINE
  5
468
100
AcDbEntity
  8
0
100
AcDbLine
 62
7
  6
CONTINUOUS
 10
243.0795157113
 20
105.9189450019
 11
243.4381982847
 21
105.9189450019
  0
LINE
  5
469
100
AcDbEntity
  8
0
100
AcDbLine
 62
7
  6
CONTINUOUS
 10
251.8919676377
 20
105.9189450019
 11
252.2495157113
 21
105.9189450019
  0
LINE
  5
46A
100
AcDbEntity
  8
0
100
AcDbLine
 62
7
  6
CONTINUOUS
 10
243.0795157113
 20
108.2050210101
 11
242.8830157113
 21
108.2050210101
  0
LINE
  5
46B
100
AcDbEntity
  8
0
100
AcDbLine
 62
7
  6
CONTINUOUS
 10
239.6080157113
 20
108.7617710101
 11
244.9135157113
 21
108.7617710101
  0
LINE
  5
46C
100
AcDbEntity
  8
0
100
AcDbLine
 62
7
  6
CONTINUOUS
 10
250.9395157113
 20
108.7617710101
 11
251.1851407113
 21
108.7617710101
  0
LINE
  5
46D
100
AcDbEntity
  8
0
100
AcDbLine
 62
7
  6
CONTINUOUS
 10
251.9220157113
 20
108.7617710101
 11
252.1267031332
 21
108.7617710101
  0
LINE
  5
46E
100
AcDbEntity
  8
0
100
AcDbLine
 62
7
  6
CONTINUOUS
 10
252.5770157894
 20
108.7617710101
 11
252.7817032113
 21
108.7617710101
  0
LINE
  5
46F
100
AcDbEntity
  8
0
100
AcDbLine
 62
7
  6
CONTINUOUS
 10
253.2320156332
 20
108.7617710101
 11
253.4367032894
 21
108.7617710101
  0
LINE
  5
470
100
AcDbEntity
  8
0
100
AcDbLine
 62
7
  6
CONTINUOUS
 10
253.7642032113
 20
108.7617710101
 11
253.9688908675
 21
108.7617710101
  0
LINE
  5
471
100
AcDbEntity
  8
0
100
AcDbLine
 62
7
  6
CONTINUOUS
 10
254.4192030552
 20
108.7617710101
 11
254.6238907113
 21
108.7617710101
  0
LINE
  5
472
100
AcDbEntity
  8
0
100
AcDbLine
 62
7
  6
CONTINUOUS
 10
255.0742033675
 20
108.7617710101
 11
255.2788905552
 21
108.7617710101
  0
LINE
  5
473
100
AcDbEntity
  8
0
100
AcDbLine
 62
7
  6
CONTINUOUS
 10
244.7170157113
 20
108.8600210101
 11
239.8045157113
 21
108.8600210101
  0
LINE
  5
474
100
AcDbEntity
  8
0
100
AcDbLine
 62
7
  6
CONTINUOUS
 10
245.8796406918
 20
108.8600210101
 11
246.2071407308
 21
108.8600210101
  0
LINE
  5
475
100
AcDbEntity
  8
0
100
AcDbLine
 62
7
  6
CONTINUOUS
 10
239.6080157113
 20
108.9319450019
 11
239.8045157113
 21
108.9319450019
  0
LINE
  5
476
100
AcDbEntity
  8
0
100
AcDbLine
 62
7
  6
CONTINUOUS
 10
244.7170157113
 20
108.9319450019
 11
244.9135157113
 21
108.9319450019
  0
LINE
  5
477
100
AcDbEntity
  8
0
100
AcDbLine
 62
7
  6
CONTINUOUS
 10
250.9395157113
 20
108.9319450019
 11
251.1851407113
 21
108.9319450019
  0
LINE
  5
478
100
AcDbEntity
  8
0
100
AcDbLine
 62
7
  6
CONTINUOUS
 10
251.9220157113
 20
108.9319450019
 11
252.1267031332
 21
108.9319450019
  0
LINE
  5
479
100
AcDbEntity
  8
0
100
AcDbLine
 62
7
  6
CONTINUOUS
 10
252.5770157894
 20
108.9319450019
 11
252.7817032113
 21
108.9319450019
  0
LINE
  5
47A
100
AcDbEntity
  8
0
100
AcDbLine
 62
7
  6
CONTINUOUS
 10
253.2320156332
 20
108.9319450019
 11
253.4367032894
 21
108.9319450019
  0
LINE
  5
47B
100
AcDbEntity
  8
0
100
AcDbLine
 62
7
  6
CONTINUOUS
 10
253.7642032113
 20
108.9319450019
 11
253.9688908675
 21
108.9319450019
  0
LINE
  5
47C
100
AcDbEntity
  8
0
100
AcDbLine
 62
7
  6
CONTINUOUS
 10
254.4192030552
 20
108.9319450019
 11
254.6238907113
 21
108.9319450019
  0
LINE
  5
47D
100
AcDbEntity
  8
0
100
AcDbLine
 62
7
  6
CONTINUOUS
 10
255.0742033675
 20
108.9319450019
 11
255.2788905552
 21
108.9319450019
  0
LINE
  5
47E
100
AcDbEntity
  8
0
100
AcDbLine
 62
7
  6
CONTINUOUS
 10
246.2071407308
 20
108.9854465417
 11
245.8796406918
 21
108.9854465417
  0
LINE
  5
47F
100
AcDbEntity
  8
0
100
AcDbLine
 62
7
  6
CONTINUOUS
 10
249.9570157113
 20
109.0544305789
 11
250.9395157113
 21
109.0544305789
  0
LINE
  5
480
100
AcDbEntity
  8
0
100
AcDbLine
 62
7
  6
CONTINUOUS
 10
251.1851407113
 20
109.0544305789
 11
251.5945156723
 21
109.0544305789
  0
LINE
  5
481
100
AcDbEntity
  8
0
100
AcDbLine
 62
7
  6
CONTINUOUS
 10
245.5521407113
 20
109.1317763261
 11
245.3065157113
 21
109.1317763261
  0
LINE
  5
482
100
AcDbEntity
  8
0
100
AcDbLine
 62
7
  6
CONTINUOUS
 10
251.5945156723
 20
109.1798561252
 11
251.1851407113
 21
109.1798561252
  0
LINE
  5
483
100
AcDbEntity
  8
0
100
AcDbLine
 62
7
  6
CONTINUOUS
 10
250.9395157113
 20
109.1798561252
 11
250.2435782016
 21
109.1798561252
  0
LINE
  5
484
100
AcDbEntity
  8
0
100
AcDbLine
 62
7
  6
CONTINUOUS
 10
250.0349111549
 20
109.2246045708
 11
250.2435782016
 21
109.2246045708
  0
LINE
  5
485
100
AcDbEntity
  8
0
100
AcDbLine
 62
7
  6
CONTINUOUS
 10
245.9615157308
 20
109.299010378
 11
246.2071407308
 21
109.299010378
  0
LINE
  5
486
100
AcDbEntity
  8
0
100
AcDbLine
 62
7
  6
CONTINUOUS
 10
252.3313907894
 20
109.3470901478
 11
252.4132657113
 21
109.3470901478
  0
LINE
  5
487
100
AcDbEntity
  8
0
100
AcDbLine
 62
7
  6
CONTINUOUS
 10
252.9454532894
 20
109.3470901478
 11
253.0682657894
 21
109.3470901478
  0
LINE
  5
488
100
AcDbEntity
  8
0
100
AcDbLine
 62
7
  6
CONTINUOUS
 10
254.1735780552
 20
109.3470901478
 11
254.2554532113
 21
109.3470901478
  0
LINE
  5
489
100
AcDbEntity
  8
0
100
AcDbLine
 62
7
  6
CONTINUOUS
 10
254.7876405552
 20
109.3470901478
 11
254.9104530552
 21
109.3470901478
  0
LINE
  5
48A
100
AcDbEntity
  8
0
100
AcDbLine
 62
7
  6
CONTINUOUS
 10
246.2071407308
 20
109.4244358949
 11
245.9615157308
 21
109.4244358949
  0
LINE
  5
48B
100
AcDbEntity
  8
0
100
AcDbLine
 62
7
  6
CONTINUOUS
 10
254.9923282113
 20
109.4307071591
 11
254.8285783675
 21
109.4307071591
  0
LINE
  5
48C
100
AcDbEntity
  8
0
100
AcDbLine
 62
7
  6
CONTINUOUS
 10
254.3373283675
 20
109.4307071591
 11
254.1735780552
 21
109.4307071591
  0
LINE
  5
48D
100
AcDbEntity
  8
0
100
AcDbLine
 62
7
  6
CONTINUOUS
 10
253.9688908675
 20
109.4307071591
 11
253.7642032113
 21
109.4307071591
  0
LINE
  5
48E
100
AcDbEntity
  8
0
100
AcDbLine
 62
7
  6
CONTINUOUS
 10
253.1501407113
 20
109.4307071591
 11
252.9863906332
 21
109.4307071591
  0
LINE
  5
48F
100
AcDbEntity
  8
0
100
AcDbLine
 62
7
  6
CONTINUOUS
 10
252.4951406332
 20
109.4307071591
 11
252.3313907894
 21
109.4307071591
  0
LINE
  5
490
100
AcDbEntity
  8
0
100
AcDbLine
 62
7
  6
CONTINUOUS
 10
252.1267031332
 20
109.4307071591
 11
251.9220157113
 21
109.4307071591
  0
LINE
  5
491
100
AcDbEntity
  8
0
100
AcDbLine
 62
7
  6
CONTINUOUS
 10
246.4527656723
 20
109.612574229
 11
246.4944892597
 21
109.612574229
  0
LINE
  5
492
100
AcDbEntity
  8
0
100
AcDbLine
 62
7
  6
CONTINUOUS
 10
245.9615157308
 20
109.7170954931
 11
246.2071407308
 21
109.7170954931
  0
LINE
  5
493
100
AcDbEntity
  8
0
100
AcDbLine
 62
7
  6
CONTINUOUS
 10
251.1851407113
 20
109.7442710101
 11
250.9395157113
 21
109.7442710101
  0
LINE
  5
494
100
AcDbEntity
  8
0
100
AcDbLine
 62
7
  6
CONTINUOUS
 10
246.1662032113
 20
109.8425210101
 11
245.9615157308
 21
109.8425210101
  0
LINE
  5
495
100
AcDbEntity
  8
0
100
AcDbLine
 62
7
  6
CONTINUOUS
 10
239.8045157113
 20
110.1700210101
 11
244.7170157113
 21
110.1700210101
  0
LINE
  5
496
100
AcDbEntity
  8
0
100
AcDbLine
 62
7
  6
CONTINUOUS
 10
244.9135157113
 20
110.2682710101
 11
239.6080157113
 21
110.2682710101
  0
LINE
  5
497
100
AcDbEntity
  8
0
100
AcDbLine
 62
7
  6
CONTINUOUS
 10
245.6749532113
 20
108.8809252647
 11
245.8796406918
 21
108.8600210101
  0
LINE
  5
498
100
AcDbEntity
  8
0
100
AcDbLine
 62
7
  6
CONTINUOUS
 10
246.4118282113
 20
109.4035316421
 11
246.2071407308
 21
109.4244358949
  0
LINE
  5
499
100
AcDbEntity
  8
0
100
AcDbLine
 62
7
  6
CONTINUOUS
 10
246.3386313551
 20
109.8249113327
 11
246.1662032113
 21
109.8425210101
  0
LINE
  5
49A
100
AcDbEntity
  8
0
100
AcDbLine
 62
7
  6
CONTINUOUS
 10
245.2002481291
 20
107.89006229
 11
245.1177256218
 21
107.8991527465
  0
LINE
  5
49B
100
AcDbEntity
  8
0
100
AcDbLine
 62
7
  6
CONTINUOUS
 10
245.1136935578
 20
108.1225544905
 11
245.1962160651
 21
108.113464034
  0
LINE
  5
49C
100
AcDbEntity
  8
0
100
AcDbLine
 62
7
  6
CONTINUOUS
 10
244.2149162193
 20
108.0206263768
 11
244.3339717875
 21
108.0055542017
  0
LINE
  5
49D
100
AcDbEntity
  8
0
100
AcDbLine
 62
7
  6
CONTINUOUS
 10
244.2561289244
 20
108.1020114787
 11
244.3339717875
 21
108.0921567421
  0
LINE
  5
49E
100
AcDbEntity
  8
0
100
AcDbLine
 62
7
  6
CONTINUOUS
 10
243.8105272905
 20
108.2227685174
 11
244.2867495631
 21
108.162479817
  0
LINE
  5
49F
100
AcDbEntity
  8
0
100
AcDbLine
 62
7
  6
CONTINUOUS
 10
244.4058051313
 20
108.1474076419
 11
244.6042310592
 21
108.1222873525
  0
LINE
  5
4A0
100
AcDbEntity
  8
0
100
AcDbLine
 62
7
  6
CONTINUOUS
 10
244.6350167821
 20
108.1830816921
 11
244.4365908541
 21
108.2082019815
  0
LINE
  5
4A1
100
AcDbEntity
  8
0
100
AcDbLine
 62
7
  6
CONTINUOUS
 10
244.317535286
 20
108.2232741566
 11
243.9802111715
 21
108.2659786533
  0
LINE
  5
4A2
100
AcDbEntity
  8
0
100
AcDbLine
 62
7
  6
CONTINUOUS
 10
243.8875831749
 20
108.299615951
 11
243.982941275
 21
108.2875438236
  0
LINE
  5
4A3
100
AcDbEntity
  8
0
100
AcDbLine
 62
7
  6
CONTINUOUS
 10
244.4058051313
 20
108.2340101823
 11
244.4393209576
 21
108.2297671518
  0
LINE
  5
4A4
100
AcDbEntity
  8
0
100
AcDbLine
 62
7
  6
CONTINUOUS
 10
244.5751265891
 20
108.4817764743
 11
244.4560710209
 21
108.4968486494
  0
LINE
  5
4A5
100
AcDbEntity
  8
0
100
AcDbLine
 62
7
  6
CONTINUOUS
 10
245.8796406918
 20
108.9854465417
 11
245.7158907016
 21
109.0063507945
  0
LINE
  5
4A6
100
AcDbEntity
  8
0
100
AcDbLine
 62
7
  6
CONTINUOUS
 10
245.7977657113
 20
109.3199146308
 11
245.9615157308
 21
109.299010378
  0
LINE
  5
4A7
100
AcDbEntity
  8
0
100
AcDbLine
 62
7
  6
CONTINUOUS
 10
246.2071407308
 20
109.299010378
 11
246.3708907504
 21
109.2781061252
  0
LINE
  5
4A8
100
AcDbEntity
  8
0
100
AcDbLine
 62
7
  6
CONTINUOUS
 10
245.0706851194
 20
107.8524839967
 11
245.1714861511
 21
107.8387875094
  0
LINE
  5
4A9
100
AcDbEntity
  8
0
100
AcDbLine
 62
7
  6
CONTINUOUS
 10
245.2432565609
 20
108.1601327773
 11
245.1424555301
 21
108.1738292653
  0
LINE
  5
4AA
100
AcDbEntity
  8
0
100
AcDbLine
 62
7
  6
CONTINUOUS
 10
251.658066168
 20
105.1151003833
 11
251.706364725
 21
105.1078465368
  0
LINE
  5
4AB
100
AcDbEntity
  8
0
100
AcDbLine
 62
7
  6
CONTINUOUS
 10
251.706364725
 20
105.1949475902
 11
251.5903750863
 21
105.2123678009
  0
LINE
  5
4AC
100
AcDbEntity
  8
0
100
AcDbLine
 62
7
  6
CONTINUOUS
 10
245.9615157308
 20
109.4244358949
 11
245.8387032308
 21
109.4453401478
  0
LINE
  5
4AD
100
AcDbEntity
  8
0
100
AcDbLine
 62
7
  6
CONTINUOUS
 10
246.2071407308
 20
109.7170954931
 11
246.3299531723
 21
109.6961912403
  0
LINE
  5
4AE
100
AcDbEntity
  8
0
100
AcDbLine
 62
7
  6
CONTINUOUS
 10
252.6179531332
 20
109.4098029063
 11
252.4951406332
 21
109.4307071591
  0
LINE
  5
4AF
100
AcDbEntity
  8
0
100
AcDbLine
 62
7
  6
CONTINUOUS
 10
253.2729532113
 20
109.4098029063
 11
253.1501407113
 21
109.4307071591
  0
LINE
  5
4B0
100
AcDbEntity
  8
0
100
AcDbLine
 62
7
  6
CONTINUOUS
 10
254.4601408675
 20
109.4098029063
 11
254.3373283675
 21
109.4307071591
  0
LINE
  5
4B1
100
AcDbEntity
  8
0
100
AcDbLine
 62
7
  6
CONTINUOUS
 10
255.1151407113
 20
109.4098029063
 11
254.9923282113
 21
109.4307071591
  0
LINE
  5
4B2
100
AcDbEntity
  8
0
100
AcDbLine
 62
7
  6
CONTINUOUS
 10
246.0688523884
 20
108.1182184623
 11
246.1267578886
 21
108.1079998447
  0
LINE
  5
4B3
100
AcDbEntity
  8
0
100
AcDbLine
 62
7
  6
CONTINUOUS
 10
246.0688523884
 20
108.2048210027
 11
246.1267578886
 21
108.194602385
  0
LINE
  5
4B4
100
AcDbEntity
  8
0
100
AcDbLine
 62
7
  6
CONTINUOUS
 10
246.20850683
 20
108.223810845
 11
246.1506013298
 21
108.2340294627
  0
LINE
  5
4B5
100
AcDbEntity
  8
0
100
AcDbLine
 62
7
  6
CONTINUOUS
 10
244.9610135596
 20
107.8801202913
 11
245.0706851194
 21
107.8524839967
  0
LINE
  5
4B6
100
AcDbEntity
  8
0
100
AcDbLine
 62
7
  6
CONTINUOUS
 10
245.1177256218
 20
107.8991527465
 11
245.008054062
 21
107.9267890411
  0
LINE
  5
4B7
100
AcDbEntity
  8
0
100
AcDbLine
 62
7
  6
CONTINUOUS
 10
244.909403423
 20
108.0335797302
 11
244.7997318631
 21
108.0612160248
  0
LINE
  5
4B8
100
AcDbEntity
  8
0
100
AcDbLine
 62
7
  6
CONTINUOUS
 10
244.8844047688
 20
108.1452197758
 11
245.0123549568
 21
108.1129774233
  0
LINE
  5
4B9
100
AcDbEntity
  8
0
100
AcDbLine
 62
7
  6
CONTINUOUS
 10
245.1962160651
 20
108.113464034
 11
245.3058876249
 21
108.0858277394
  0
LINE
  5
4BA
100
AcDbEntity
  8
0
100
AcDbLine
 62
7
  6
CONTINUOUS
 10
244.9540159996
 20
108.2142808817
 11
245.0123549568
 21
108.1995799637
  0
LINE
  5
4BB
100
AcDbEntity
  8
0
100
AcDbLine
 62
7
  6
CONTINUOUS
 10
245.3529281208
 20
108.1324964827
 11
245.2432565609
 21
108.1601327773
  0
LINE
  5
4BC
100
AcDbEntity
  8
0
100
AcDbLine
 62
7
  6
CONTINUOUS
 10
245.1733678093
 20
108.3181982871
 11
245.703447085
 21
108.1846228457
  0
LINE
  5
4BD
100
AcDbEntity
  8
0
100
AcDbLine
 62
7
  6
CONTINUOUS
 10
245.7504875808
 20
108.231291589
 11
245.1290153735
 21
108.3878972672
  0
LINE
  5
4BE
100
AcDbEntity
  8
0
100
AcDbLine
 62
7
  6
CONTINUOUS
 10
245.6340157211
 20
109.3617231365
 11
245.7977657113
 21
109.3199146308
  0
LINE
  5
4BF
100
AcDbEntity
  8
0
100
AcDbLine
 62
7
  6
CONTINUOUS
 10
245.6340157211
 20
109.5318971283
 11
245.6972127276
 21
109.5157617234
  0
LINE
  5
4C0
100
AcDbEntity
  8
0
100
AcDbLine
 62
7
  6
CONTINUOUS
 10
246.5755781723
 20
109.3617231365
 11
246.4118282113
 21
109.4035316421
  0
LINE
  5
4C1
100
AcDbEntity
  8
0
100
AcDbLine
 62
7
  6
CONTINUOUS
 10
252.4132657113
 20
109.3470901478
 11
252.4951406332
 21
109.3261858949
  0
LINE
  5
4C2
100
AcDbEntity
  8
0
100
AcDbLine
 62
7
  6
CONTINUOUS
 10
253.0682657894
 20
109.3470901478
 11
253.1501407113
 21
109.3261858949
  0
LINE
  5
4C3
100
AcDbEntity
  8
0
100
AcDbLine
 62
7
  6
CONTINUOUS
 10
254.2554532113
 20
109.3470901478
 11
254.3373283675
 21
109.3261858949
  0
LINE
  5
4C4
100
AcDbEntity
  8
0
100
AcDbLine
 62
7
  6
CONTINUOUS
 10
254.9104530552
 20
109.3470901478
 11
254.9923282113
 21
109.3261858949
  0
LINE
  5
4C5
100
AcDbEntity
  8
0
100
AcDbLine
 62
7
  6
CONTINUOUS
 10
251.7643594613
 20
105.1775273795
 11
251.706364725
 21
105.1949475902
  0
LINE
  5
4C6
100
AcDbEntity
  8
0
100
AcDbLine
 62
7
  6
CONTINUOUS
 10
245.4702657162
 20
108.9436380287
 11
245.6749532113
 21
108.8809252647
  0
LINE
  5
4C7
100
AcDbEntity
  8
0
100
AcDbLine
 62
7
  6
CONTINUOUS
 10
245.4702657162
 20
109.1138120205
 11
245.587267829
 21
109.077964565
  0
LINE
  5
4C8
100
AcDbEntity
  8
0
100
AcDbLine
 62
7
  6
CONTINUOUS
 10
245.8387032308
 20
109.4453401478
 11
245.7158907016
 21
109.4871486534
  0
LINE
  5
4C9
100
AcDbEntity
  8
0
100
AcDbLine
 62
7
  6
CONTINUOUS
 10
246.3708907504
 20
109.2781061252
 11
246.4937032504
 21
109.2362976195
  0
LINE
  5
4CA
100
AcDbEntity
  8
0
100
AcDbLine
 62
7
  6
CONTINUOUS
 10
244.8790287279
 20
107.9124842775
 11
244.9610135596
 21
107.8801202913
  0
LINE
  5
4CB
100
AcDbEntity
  8
0
100
AcDbLine
 62
7
  6
CONTINUOUS
 10
244.8790287279
 20
107.9990868178
 11
244.9084948583
 21
107.9874548926
  0
LINE
  5
4CC
100
AcDbEntity
  8
0
100
AcDbLine
 62
7
  6
CONTINUOUS
 10
245.4349129533
 20
108.1001324973
 11
245.3529281208
 21
108.1324964827
  0
LINE
  5
4CD
100
AcDbEntity
  8
0
100
AcDbLine
 62
7
  6
CONTINUOUS
 10
251.706364725
 20
105.1078465368
 11
251.7933569125
 21
105.0730061154
  0
LINE
  5
4CE
100
AcDbEntity
  8
0
100
AcDbLine
 62
7
  6
CONTINUOUS
 10
251.706364725
 20
105.1944490772
 11
251.7933569125
 21
105.1596086558
  0
LINE
  5
4CF
100
AcDbEntity
  8
0
100
AcDbLine
 62
7
  6
CONTINUOUS
 10
245.008054062
 20
107.9267890411
 11
244.9443477531
 21
107.954546995
  0
LINE
  5
4D0
100
AcDbEntity
  8
0
100
AcDbLine
 62
7
  6
CONTINUOUS
 10
245.3058876249
 20
108.0858277394
 11
245.3695939339
 21
108.0580697855
  0
LINE
  5
4D1
100
AcDbEntity
  8
0
100
AcDbLine
 62
7
  6
CONTINUOUS
 10
247.6645157113
 20
107.9740698039
 11
251.8919676377
 21
105.8470210101
  0
LINE
  5
4D2
100
AcDbEntity
  8
0
100
AcDbLine
 62
7
  6
CONTINUOUS
 10
247.6645157113
 20
108.1442437957
 11
251.8919676377
 21
106.0171950019
  0
LINE
  5
4D3
100
AcDbEntity
  8
0
100
AcDbLine
 62
7
  6
CONTINUOUS
 10
252.4460157113
 20
105.8470210101
 11
247.6645157113
 21
108.2528399253
  0
LINE
  5
4D4
100
AcDbEntity
  8
0
100
AcDbLine
 62
7
  6
CONTINUOUS
 10
245.7158907016
 20
109.0063507945
 11
245.5930782016
 21
109.0690635676
  0
LINE
  5
4D5
100
AcDbEntity
  8
0
100
AcDbLine
 62
7
  6
CONTINUOUS
 10
245.4702657162
 20
109.4453401478
 11
245.6340157211
 21
109.3617231365
  0
LINE
  5
4D6
100
AcDbEntity
  8
0
100
AcDbLine
 62
7
  6
CONTINUOUS
 10
245.4702657162
 20
109.6155141396
 11
245.6340157211
 21
109.5318971283
  0
LINE
  5
4D7
100
AcDbEntity
  8
0
100
AcDbLine
 62
7
  6
CONTINUOUS
 10
246.7393282504
 20
109.2781061252
 11
246.5755781723
 21
109.3617231365
  0
LINE
  5
4D8
100
AcDbEntity
  8
0
100
AcDbLine
 62
7
  6
CONTINUOUS
 10
246.3299531723
 20
109.6961912403
 11
246.4118282113
 21
109.6543827346
  0
LINE
  5
4D9
100
AcDbEntity
  8
0
100
AcDbLine
 62
7
  6
CONTINUOUS
 10
252.4951406332
 20
109.3261858949
 11
252.5360782113
 21
109.3052816421
  0
LINE
  5
4DA
100
AcDbEntity
  8
0
100
AcDbLine
 62
7
  6
CONTINUOUS
 10
252.7407656332
 20
109.3470901478
 11
252.6179531332
 21
109.4098029063
  0
LINE
  5
4DB
100
AcDbEntity
  8
0
100
AcDbLine
 62
7
  6
CONTINUOUS
 10
253.1501407113
 20
109.3261858949
 11
253.1910782894
 21
109.3052816421
  0
LINE
  5
4DC
100
AcDbEntity
  8
0
100
AcDbLine
 62
7
  6
CONTINUOUS
 10
253.3548281332
 20
109.3679944006
 11
253.2729532113
 21
109.4098029063
  0
LINE
  5
4DD
100
AcDbEntity
  8
0
100
AcDbLine
 62
7
  6
CONTINUOUS
 10
254.3373283675
 20
109.3261858949
 11
254.3782657113
 21
109.3052816421
  0
LINE
  5
4DE
100
AcDbEntity
  8
0
100
AcDbLine
 62
7
  6
CONTINUOUS
 10
251.8223541977
 20
105.1426869582
 11
251.7643594613
 21
105.1775273795
  0
LINE
  5
4DF
100
AcDbEntity
  8
RUNDUNGEN
100
AcDbLine
 62
7
  6
CONTINUOUS
 10
254.8297247448
 20
101.921030556
 11
255.9681822161
 21
101.1080876718
  0
LINE
  5
4E0
100
AcDbEntity
  8
RUNDUNGEN
100
AcDbLine
 62
7
  6
CONTINUOUS
 10
254.8297247448
 20
103.6530813636
 11
256.5556346086
 21
102.4206539977
  0
LINE
  5
4E1
100
AcDbEntity
  8
0
100
AcDbLine
 62
7
  6
CONTINUOUS
 10
246.4937032504
 20
109.2362976195
 11
246.5755781723
 21
109.1735848317
  0
LINE
  5
4E2
100
AcDbEntity
  8
0
100
AcDbLine
 62
7
  6
CONTINUOUS
 10
246.5403981261
 20
109.370705277
 11
246.5755781723
 21
109.3437588236
  0
LINE
  5
4E3
100
AcDbEntity
  8
0
100
AcDbLine
 62
7
  6
CONTINUOUS
 10
244.8158599916
 20
108.0501183294
 11
244.8790287279
 21
107.9990868178
  0
LINE
  5
4E4
100
AcDbEntity
  8
0
100
AcDbLine
 62
7
  6
CONTINUOUS
 10
245.4980816921
 20
108.0491009883
 11
245.4349129533
 21
108.1001324973
  0
LINE
  5
4E5
100
AcDbEntity
  8
0
100
AcDbLine
 62
7
  6
CONTINUOUS
 10
245.3474532125
 20
109.0481593148
 11
245.4702657162
 21
108.9436380287
  0
LINE
  5
4E6
100
AcDbEntity
  8
0
100
AcDbLine
 62
7
  6
CONTINUOUS
 10
245.4491576585
 20
109.1317763261
 11
245.4702657162
 21
109.1138120205
  0
LINE
  5
4E7
100
AcDbEntity
  8
0
100
AcDbLine
 62
7
  6
CONTINUOUS
 10
251.7933569125
 20
105.0730061154
 11
251.8513516488
 21
105.0207454833
  0
LINE
  5
4E8
100
AcDbEntity
  8
0
100
AcDbLine
 62
7
  6
CONTINUOUS
 10
251.7933569125
 20
105.1596086558
 11
251.8513516488
 21
105.1073480237
  0
LINE
  5
4E9
100
AcDbEntity
  8
0
100
AcDbLine
 62
7
  6
CONTINUOUS
 10
245.3695939339
 20
108.0580697855
 11
245.4056135155
 21
108.0255841409
  0
LINE
  5
4EA
100
AcDbEntity
  8
0
100
AcDbLine
 62
7
  6
CONTINUOUS
 10
246.8212031723
 20
109.1944890846
 11
246.7393282504
 21
109.2781061252
  0
LINE
  5
4EB
100
AcDbEntity
  8
0
100
AcDbLine
 62
7
  6
CONTINUOUS
 10
246.4118282113
 20
109.6543827346
 11
246.4527656723
 21
109.612574229
  0
LINE
  5
4EC
100
AcDbEntity
  8
0
100
AcDbLine
 62
7
  6
CONTINUOUS
 10
252.5360782113
 20
109.3052816421
 11
252.5770157894
 21
109.2634731365
  0
LINE
  5
4ED
100
AcDbEntity
  8
0
100
AcDbLine
 62
7
  6
CONTINUOUS
 10
253.1910782894
 20
109.3052816421
 11
253.2320156332
 21
109.2634731365
  0
LINE
  5
4EE
100
AcDbEntity
  8
0
100
AcDbLine
 62
7
  6
CONTINUOUS
 10
251.8513516488
 20
105.1078465368
 11
251.8223541977
 21
105.1426869582
  0
LINE
  5
4EF
100
AcDbEntity
  8
0
100
AcDbLine
 62
7
  6
CONTINUOUS
 10
245.7158907016
 20
109.4871486534
 11
245.6749532113
 21
109.5498614119
  0
LWPOLYLINE
  5
4F0
100
AcDbEntity
  8
KONSTRUKTIONSELEMENTE
100
AcDbPolyline
 62
7
  6
CONTINUOUS
 90
3
 70
0
 10
267.1577492193
 20
39.4003780613
 10
267.1651372033
 20
39.3701696707
 10
267.1668678082
 20
39.3610896492
  0
LINE
  5
4F1
100
AcDbEntity
  8
KONSTRUKTIONSELEMENTE
100
AcDbLine
 62
7
  6
CONTINUOUS
 10
267.2100498169
 20
38.5503150254
 11
267.0494632833
 21
39.401356834
  0
LINE
  5
4F2
100
AcDbEntity
  8
0
100
AcDbLine
 62
7
  6
CONTINUOUS
 10
254.9923282113
 20
109.3261858949
 11
254.9923282113
 21
109.4307071591
  0
LINE
  5
4F3
100
AcDbEntity
  8
0
100
AcDbLine
 62
7
  6
CONTINUOUS
 10
255.0332655552
 20
109.3052816421
 11
255.0332655552
 21
109.4237391014
  0
LINE
  5
4F4
100
AcDbEntity
  8
0
100
AcDbLine
 62
7
  6
CONTINUOUS
 10
255.0742033675
 20
108.7617710101
 11
255.0742033675
 21
109.416770964
  0
LINE
  5
4F5
100
AcDbEntity
  8
0
100
AcDbLine
 62
7
  6
CONTINUOUS
 10
255.2788905552
 20
108.7617710101
 11
255.2788905552
 21
109.2634731365
  0
LINE
  5
4F6
100
AcDbEntity
  8
KONSTRUKTIONSELEMENTE
100
AcDbLine
 62
7
  6
CONTINUOUS
 10
256.9145157113
 20
115.0303131106
 11
256.9145157113
 21
104.6077735597
  0
LINE
  5
4F7
100
AcDbEntity
  8
AUSFORMSCHRAEGEN
100
AcDbLine
 62
7
  6
CONTINUOUS
 10
259.8850168492
 20
37.7205506723
 11
259.8850168492
 21
37.3103991684
  0
LINE
  5
4F8
100
AcDbEntity
  8
AUSFORMSCHRAEGEN
100
AcDbLine
 62
7
  6
CONTINUOUS
 10
259.8850168492
 20
33.6932104279
 11
259.8850168492
 21
33.283058924
  0
LINE
  5
4F9
100
AcDbEntity
  8
RUNDUNGEN
100
AcDbLine
 62
7
  6
CONTINUOUS
 10
251.6970333093
 20
112.78402269
 11
252.7814857408
 21
112.4043518063
  0
LINE
  5
4FA
100
AcDbEntity
  8
RUNDUNGEN
100
AcDbLine
 62
7
  6
CONTINUOUS
 10
252.6034405757
 20
114.1987368972
 11
252.7814857408
 21
114.1364026139
  0
LINE
  5
4FB
100
AcDbEntity
  8
0
100
AcDbLine
 62
7
  6
CONTINUOUS
 10
254.5829533675
 20
109.3470901478
 11
254.4601408675
 21
109.4098029063
  0
LINE
  5
4FC
100
AcDbEntity
  8
0
100
AcDbLine
 62
7
  6
CONTINUOUS
 10
254.9923282113
 20
109.3261858949
 11
255.0332655552
 21
109.3052816421
  0
LINE
  5
4FD
100
AcDbEntity
  8
0
100
AcDbLine
 62
7
  6
CONTINUOUS
 10
255.1970158675
 20
109.3679944006
 11
255.1151407113
 21
109.4098029063
  0
LINE
  5
4FE
100
AcDbEntity
  8
0
100
AcDbLine
 62
7
  6
CONTINUOUS
 10
254.3782657113
 20
109.3052816421
 11
254.4192030552
 21
109.2634731365
  0
LINE
  5
4FF
100
AcDbEntity
  8
0
100
AcDbLine
 62
7
  6
CONTINUOUS
 10
255.0332655552
 20
109.3052816421
 11
255.0742033675
 21
109.2634731365
  0
LINE
  5
500
100
AcDbEntity
  8
0
100
AcDbLine
 62
7
  6
CONTINUOUS
 10
253.4367032894
 20
109.2634731365
 11
253.3548281332
 21
109.3679944006
  0
LINE
  5
501
100
AcDbEntity
  8
0
100
AcDbLine
 62
7
  6
CONTINUOUS
 10
255.2788905552
 20
109.2634731365
 11
255.1970158675
 21
109.3679944006
  0
LINE
  5
502
100
AcDbEntity
  8
KONSTRUKTIONSELEMENTE
100
AcDbLine
 62
7
  6
CONTINUOUS
 10
267.1669417104
 20
39.360752576
 11
267.1668972069
 21
39.3610066488
  0
LINE
  5
503
100
AcDbEntity
  8
KONSTRUKTIONSELEMENTE
100
AcDbLine
 62
7
  6
CONTINUOUS
 10
267.2100498169
 20
35.1308818423
 11
267.0602606037
 21
36.0513096593
  0
LINE
  5
504
100
AcDbEntity
  8
KONSTRUKTIONSELEMENTE
100
AcDbLine
 62
7
  6
CONTINUOUS
 10
265.2738634053
 20
34.8756031671
 11
265.2738634053
 21
38.6124059024
  0
LINE
  5
505
100
AcDbEntity
  8
KONSTRUKTIONSELEMENTE
100
AcDbLine
 62
7
  6
CONTINUOUS
 10
265.3145157113
 20
115.0303131106
 11
265.3145157113
 21
104.6077735597
  0
LINE
  5
506
100
AcDbEntity
  8
KONSTRUKTIONSELEMENTE
100
AcDbLine
 62
7
  6
CONTINUOUS
 10
267.1645157113
 20
38.7916268385
 11
267.1645157113
 21
38.5503150254
  0
LINE
  5
507
100
AcDbEntity
  8
KONSTRUKTIONSELEMENTE
100
AcDbLine
 62
7
  6
CONTINUOUS
 10
259.8951517102
 20
37.8374462078
 11
259.8850168492
 21
37.7205506723
  0
LINE
  5
508
100
AcDbEntity
  8
KONSTRUKTIONSELEMENTE
100
AcDbLine
 62
7
  6
CONTINUOUS
 10
238.7495113493
 20
55.127019613
 11
239.5791943306
 21
56.4356228455
  0
LINE
  5
509
100
AcDbEntity
  8
KONSTRUKTIONSELEMENTE
100
AcDbLine
 62
7
  6
CONTINUOUS
 10
273.9613381821
 20
36.4989264416
 11
273.9613381821
 21
34.5046840118
  0
LINE
  5
50A
100
AcDbEntity
  8
KONSTRUKTIONSELEMENTE
100
AcDbLine
 62
7
  6
CONTINUOUS
 10
273.9613381821
 20
28.9579897115
 11
273.9613381821
 21
30.5822687641
  0
LINE
  5
50B
100
AcDbEntity
  8
KONSTRUKTIONSELEMENTE
100
AcDbLine
 62
7
  6
CONTINUOUS
 10
273.9613381821
 20
40.4213399869
 11
273.9613381821
 21
42.0456198848
  0
LINE
  5
50C
100
AcDbEntity
  8
AUSFORMSCHRAEGEN
100
AcDbLine
 62
7
  6
CONTINUOUS
 10
259.8850168492
 20
33.6932104279
 11
260.7017842163
 21
38.7120992278
  0
LINE
  5
50D
100
AcDbEntity
  8
AUSFORMSCHRAEGEN
100
AcDbLine
 62
7
  6
CONTINUOUS
 10
259.8850168492
 20
37.3103991684
 11
260.0505690977
 21
38.1877571992
  0
LWPOLYLINE
  5
50E
100
AcDbEntity
  8
RUNDUNGEN
100
AcDbPolyline
 62
7
  6
CONTINUOUS
 90
4
 70
0
 10
251.5437058856
 20
41.1882036873
 10
251.5843260071
 20
41.3131815977
 10
251.6307616257
 20
41.4280507834
 10
251.6684956412
 20
41.5070585843
  0
LINE
  5
50F
100
AcDbEntity
  8
AUSFORMSCHRAEGEN
100
AcDbLine
 62
7
  6
CONTINUOUS
 10
238.0392777781
 20
50.2494030094
 11
238.8689607536
 21
51.5580062327
  0
LINE
  5
510
100
AcDbEntity
  8
KONSTRUKTIONSELEMENTE
100
AcDbLine
 62
7
  6
CONTINUOUS
 10
280.3263740641
 20
50.4790980413
 11
280.2612137364
 21
54.5377815488
  0
LINE
  5
511
100
AcDbEntity
  8
KONSTRUKTIONSELEMENTE
100
AcDbLine
 62
7
  6
CONTINUOUS
 10
275.1645157113
 20
33.9344777497
 11
275.1645157113
 21
41.8582354588
  0
LINE
  5
512
100
AcDbEntity
  8
KONSTRUKTIONSELEMENTE
100
AcDbLine
 62
7
  6
CONTINUOUS
 10
275.3845157113
 20
41.8582354588
 11
275.3845157113
 21
41.1488823427
  0
LINE
  5
513
100
AcDbEntity
  8
KONSTRUKTIONSELEMENTE
100
AcDbLine
 62
7
  6
CONTINUOUS
 10
275.3845157113
 20
41.0711332461
 11
275.3845157113
 21
35.2322266783
  0
LINE
  5
514
100
AcDbEntity
  8
KONSTRUKTIONSELEMENTE
100
AcDbLine
 62
7
  6
CONTINUOUS
 10
277.1645157113
 20
33.9344777497
 11
277.1645157113
 21
41.8582354588
  0
LWPOLYLINE
  5
515
100
AcDbEntity
  8
RUNDUNGEN
100
AcDbPolyline
 62
7
  6
CONTINUOUS
 90
4
 70
0
 10
251.5437058856
 20
26.3965645264
 10
251.5843260071
 20
26.5215424367
 10
251.6307616257
 20
26.6364116224
 10
251.6684956413
 20
26.7154194235
  0
LINE
  5
516
100
AcDbEntity
  8
RUNDUNGEN
100
AcDbLine
 62
7
  6
CONTINUOUS
 10
251.6684956412
 20
41.5070585843
 11
251.6684618087
 21
41.506992325
  0
LINE
  5
517
100
AcDbEntity
  8
AUSFORMSCHRAEGEN
100
AcDbLine
 62
7
  6
CONTINUOUS
 10
287.6400692114
 20
34.4117181932
 11
287.1645157113
 21
38.5074607156
  0
LINE
  5
518
100
AcDbEntity
  8
KONSTRUKTIONSELEMENTE
100
AcDbLine
 62
7
  6
CONTINUOUS
 10
285.9645157113
 20
33.9344775817
 11
285.9645157113
 21
42.3617890345
  0
LINE
  5
519
100
AcDbEntity
  8
KONSTRUKTIONSELEMENTE
100
AcDbLine
 62
7
  6
CONTINUOUS
 10
280.2612137364
 20
46.0020716246
 11
280.3263740641
 21
50.4790980413
  0
LINE
  5
51A
100
AcDbEntity
  8
KONSTRUKTIONSELEMENTE
100
AcDbLine
 62
7
  6
CONTINUOUS
 10
274.1495738842
 20
31.4217415945
 11
274.4273605276
 21
33.9344775817
  0
LINE
  5
51B
100
AcDbEntity
  8
RUNDUNGEN
100
AcDbLine
 62
7
  6
CONTINUOUS
 10
251.6684956413
 20
26.7154194235
 11
251.6684615348
 21
26.7153526287
  0
LWPOLYLINE
  5
51C
100
AcDbEntity
  8
RUNDUNGEN
100
AcDbPolyline
 62
7
  6
CONTINUOUS
 90
5
 70
0
 10
251.6684340414
 20
41.5070064769
 10
251.7211737724
 20
41.6062682931
 10
251.7798196084
 20
41.709528172
 10
251.8408171625
 20
41.8116578115
 10
251.9029776356
 20
41.9123135997
  0
LWPOLYLINE
  5
51D
100
AcDbEntity
  8
RUNDUNGEN
100
AcDbPolyline
 62
7
  6
CONTINUOUS
 90
13
 70
0
 10
251.9029776356
 20
41.9123135997
 10
252.0252162507
 20
42.1070058722
 10
252.0840085736
 20
42.2019690322
 10
252.1408960717
 20
42.2967172652
 10
252.1950186121
 20
42.3911991142
 10
252.2461536183
 20
42.4864818618
 10
252.2947286515
 20
42.5852537488
 10
252.3396907719
 20
42.6878714139
 10
252.3799616744
 20
42.7949596814
 10
252.4149042387
 20
42.9095306398
 10
252.4427757117
 20
43.0343053477
 10
252.4601704745
 20
43.1672117036
 10
252.4645156699
 20
43.2727543735
  0
LINE
  5
51E
100
AcDbEntity
  8
AUSFORMSCHRAEGEN
100
AcDbLine
 62
7
  6
CONTINUOUS
 10
287.6400692114
 20
48.5271681353
 11
287.1457221839
 21
52.7847714142
  0
LINE
  5
51F
100
AcDbEntity
  8
KONSTRUKTIONSELEMENTE
100
AcDbLine
 62
7
  6
CONTINUOUS
 10
287.1645157113
 20
36.0698937587
 11
287.1645157113
 21
40.7990614047
  0
LINE
  5
520
100
AcDbEntity
  8
KONSTRUKTIONSELEMENTE
100
AcDbLine
 62
7
  6
CONTINUOUS
 10
287.1645157113
 20
41.9865494231
 11
287.1645157113
 21
44.2781501122
  0
LWPOLYLINE
  5
521
100
AcDbEntity
  8
RUNDUNGEN
100
AcDbPolyline
 62
7
  6
CONTINUOUS
 90
5
 70
0
 10
251.6684343207
 20
26.7153664992
 10
251.7211740977
 20
26.8146277703
 10
251.7798160717
 20
26.9178848827
 10
251.8408143401
 20
27.0200134325
 10
251.9029740399
 20
27.120668189
  0
LWPOLYLINE
  5
522
100
AcDbEntity
  8
RUNDUNGEN
100
AcDbPolyline
 62
7
  6
CONTINUOUS
 90
13
 70
0
 10
251.9029740399
 20
27.120668189
 10
252.0252103516
 20
27.3153571099
 10
252.084002871
 20
27.4103204315
 10
252.1408901334
 20
27.5050682739
 10
252.1950120922
 20
27.5995481521
 10
252.2461466503
 20
27.6948291821
 10
252.2947212905
 20
27.7935987977
 10
252.3396841356
 20
27.8962160364
 10
252.3799561936
 20
28.0033044542
 10
252.4148981371
 20
28.1178686016
 10
252.4427675041
 20
28.2426202654
 10
252.4601643105
 20
28.3754965538
 10
252.4645156702
 20
28.4811154969
  0
LINE
  5
523
100
AcDbEntity
  8
AUSFORMSCHRAEGEN
100
AcDbLine
 62
7
  6
CONTINUOUS
 10
287.1457221839
 20
44.1162893557
 11
287.6400692114
 21
48.3738926346
  0
LINE
  5
524
100
AcDbEntity
  8
AUSFORMSCHRAEGEN
100
AcDbLine
 62
7
  6
CONTINUOUS
 10
287.1457221839
 20
30.0008394136
 11
287.6400692114
 21
34.2584426924
  0
LINE
  5
525
100
AcDbEntity
  8
KONSTRUKTIONSELEMENTE
100
AcDbLine
 62
7
  6
CONTINUOUS
 10
255.7498370979
 20
26.3499879915
 11
256.5795200736
 21
27.6585912151
  0
LINE
  5
526
100
AcDbEntity
  8
FASEN
100
AcDbLine
 62
7
  6
CONTINUOUS
 10
251.4645157113
 20
32.0764597543
 11
250.9645157113
 21
31.5764597543
  0
LINE
  5
527
100
AcDbEntity
  8
FASEN
100
AcDbLine
 62
7
  6
CONTINUOUS
 10
251.4645157113
 20
17.2848205934
 11
250.9645157113
 21
16.7848205934
  0
LINE
  5
528
100
AcDbEntity
  8
FASEN
100
AcDbLine
 62
7
  6
CONTINUOUS
 10
251.4645157124
 20
36.9418607045
 11
250.9645157124
 21
36.6364767425
  0
LINE
  5
529
100
AcDbEntity
  8
FASEN
100
AcDbLine
 62
7
  6
CONTINUOUS
 10
251.4645157125
 20
22.1502214741
 11
250.9645157126
 21
21.8448375093
  0
LINE
  5
52A
100
AcDbEntity
  8
KONSTRUKTIONSELEMENTE
100
AcDbLine
 62
7
  6
CONTINUOUS
 10
273.9349719931
 20
30.7793804061
 11
273.9406467659
 21
30.7823399123
  0
LINE
  5
52B
100
AcDbEntity
  8
KONSTRUKTIONSELEMENTE
100
AcDbLine
 62
7
  6
CONTINUOUS
 10
273.9349716799
 20
36.6960357401
 11
273.9406492162
 21
36.6989953322
  0
LINE
  5
52C
100
AcDbEntity
  8
KONSTRUKTIONSELEMENTE
100
AcDbLine
 62
7
  6
CONTINUOUS
 10
273.9143328988
 20
36.6857181206
 11
273.9349716799
 21
36.6960357401
  0
LINE
  5
52D
100
AcDbEntity
  8
KONSTRUKTIONSELEMENTE
100
AcDbLine
 62
7
  6
CONTINUOUS
 10
273.9143328988
 20
30.7690624563
 11
273.9349719931
 21
30.7793804061
  0
ARC
  5
52E
100
AcDbEntity
  8
FASEN
100
AcDbCircle
 62
7
  6
CONTINUOUS
 10
22.569475042
 20
44.5764597543
 40
13.0
100
AcDbArc
 50
215.2539886208
 51
274.7460113792
  0
ARC
  5
52F
100
AcDbEntity
  8
FASEN
100
AcDbCircle
 62
7
  6
CONTINUOUS
 10
22.569475042
 20
44.5764597543
 40
12.5
100
AcDbArc
 50
217.6450498644
 51
272.3549501356
  0
CIRCLE
  5
530
100
AcDbEntity
  8
KONSTRUKTIONSELEMENTE
100
AcDbCircle
 62
7
  6
CONTINUOUS
 10
34.0498717148
 20
44.3511332461
 40
4.5
  0
ARC
  5
531
100
AcDbEntity
  8
KONSTRUKTIONSELEMENTE
100
AcDbCircle
 62
7
  6
CONTINUOUS
 10
38.8779317669
 20
32.562999322
 40
2.1432519764
100
AcDbArc
 50
37.0008354814
 51
64.9519638569
  0
ARC
  5
532
100
AcDbEntity
  8
KONSTRUKTIONSELEMENTE
100
AcDbCircle
 62
7
  6
CONTINUOUS
 10
26.1896266153
 20
38.4796597577
 40
2.1432460185
100
AcDbArc
 50
37.0006470845
 51
64.9519479072
  0
ARC
  5
533
100
AcDbEntity
  8
KONSTRUKTIONSELEMENTE
100
AcDbCircle
 62
7
  6
CONTINUOUS
 10
34.6045306865
 20
34.5557280981
 40
2.1432437047
100
AcDbArc
 50
65.048008136
 51
92.9993980287
  0
ARC
  5
534
100
AcDbEntity
  8
KONSTRUKTIONSELEMENTE
100
AcDbCircle
 62
7
  6
CONTINUOUS
 10
33.4952127147
 20
54.1465382483
 40
2.1432435606
100
AcDbArc
 50
245.0480075233
 51
272.9993977482
  0
ARC
  5
535
100
AcDbEntity
  8
KONSTRUKTIONSELEMENTE
100
AcDbCircle
 62
7
  6
CONTINUOUS
 10
21.2578821332
 20
45.3509353156
 40
2.0
100
AcDbArc
 50
161.0
 51
245.0
  0
ARC
  5
536
100
AcDbEntity
  8
KONSTRUKTIONSELEMENTE
100
AcDbCircle
 62
7
  6
CONTINUOUS
 10
24.4589873064
 20
43.8582354588
 40
2.0
100
AcDbArc
 50
245.0
 51
329.0
  0
ARC
  5
537
100
AcDbEntity
  8
KONSTRUKTIONSELEMENTE
100
AcDbCircle
 62
7
  6
CONTINUOUS
 10
28.2625516621
 20
52.0150055422
 40
2.0
100
AcDbArc
 50
341.0
 51
65.0
  0
ARC
  5
538
100
AcDbEntity
  8
KONSTRUKTIONSELEMENTE
100
AcDbCircle
 62
7
  6
CONTINUOUS
 10
14.913727624
 20
48.3092631478
 40
2.0
100
AcDbArc
 50
161.0
 51
245.0
  0
ARC
  5
539
100
AcDbEntity
  8
KONSTRUKTIONSELEMENTE
100
AcDbCircle
 62
7
  6
CONTINUOUS
 10
25.0614464889
 20
53.507705399
 40
2.0
100
AcDbArc
 50
65.0
 51
149.0
  0
ARC
  5
53A
100
AcDbEntity
  8
KONSTRUKTIONSELEMENTE
100
AcDbCircle
 62
7
  6
CONTINUOUS
 10
18.7172919796
 20
56.4660332312
 40
2.0
100
AcDbArc
 50
65.0
 51
148.9999999998
  0
ARC
  5
53B
100
AcDbEntity
  8
KONSTRUKTIONSELEMENTE
100
AcDbCircle
 62
7
  6
CONTINUOUS
 10
19.2440788627
 20
60.6339001492
 40
14.6
100
AcDbArc
 50
335.0
 51
357.8620374455
  0
ARC
  5
53C
100
AcDbEntity
  8
KONSTRUKTIONSELEMENTE
100
AcDbCircle
 62
7
  6
CONTINUOUS
 10
19.2440788627
 20
60.6339001492
 40
5.0
100
AcDbArc
 50
335.0
 51
357.8620374455
  0
ARC
  5
53D
100
AcDbEntity
  8
KONSTRUKTIONSELEMENTE
100
AcDbCircle
 62
7
  6
CONTINUOUS
 10
68.7284840349
 20
37.5589430582
 40
14.6
100
AcDbArc
 50
132.1379625545
 51
155.0
  0
ARC
  5
53E
100
AcDbEntity
  8
FASEN
100
AcDbCircle
 62
7
  6
CONTINUOUS
 10
54.2902475883
 20
29.7848205934
 40
13.0
100
AcDbArc
 50
215.2539886208
 51
274.7460113792
  0
ARC
  5
53F
100
AcDbEntity
  8
FASEN
100
AcDbCircle
 62
7
  6
CONTINUOUS
 10
54.2902475883
 20
29.7848205934
 40
12.5
100
AcDbArc
 50
217.6450498644
 51
272.3549501356
  0
ARC
  5
540
100
AcDbEntity
  8
KONSTRUKTIONSELEMENTE
100
AcDbCircle
 62
7
  6
CONTINUOUS
 10
46.6987878618
 20
38.349999296
 40
7.7500670366
100
AcDbArc
 50
37.0182475725
 51
92.981632645
  0
ARC
  5
541
100
AcDbEntity
  8
KONSTRUKTIONSELEMENTE
100
AcDbCircle
 62
7
  6
CONTINUOUS
 10
46.7775736047
 20
38.5189558671
 40
7.7500670363
100
AcDbArc
 50
217.0183641
 51
272.9816334804
  0
ARC
  5
542
100
AcDbEntity
  8
KONSTRUKTIONSELEMENTE
100
AcDbCircle
 62
7
  6
CONTINUOUS
 10
68.7284840349
 20
37.5589430582
 40
5.0
100
AcDbArc
 50
132.1379625545
 51
155.0
  0
CIRCLE
  5
543
100
AcDbEntity
  8
KONSTRUKTIONSELEMENTE
100
AcDbCircle
 62
7
  6
CONTINUOUS
 10
46.7381807333
 20
38.4344775817
 40
4.5
  0
ARC
  5
544
100
AcDbEntity
  8
KONSTRUKTIONSELEMENTE
100
AcDbCircle
 62
7
  6
CONTINUOUS
 10
54.5984472826
 20
44.3059774709
 40
2.143279031
100
AcDbArc
 50
217.0014357452
 51
244.9513057891
  0
ARC
  5
545
100
AcDbEntity
  8
KONSTRUKTIONSELEMENTE
100
AcDbCircle
 62
7
  6
CONTINUOUS
 10
47.2928381231
 20
28.6390642646
 40
2.1432517778
100
AcDbArc
 50
65.0480369515
 51
92.9991745883
  0
ARC
  5
546
100
AcDbEntity
  8
KONSTRUKTIONSELEMENTE
100
AcDbCircle
 62
7
  6
CONTINUOUS
 10
46.1835232081
 20
48.2298901999
 40
2.143251087
100
AcDbArc
 50
245.0480303549
 51
272.9991821977
  0
ARC
  5
547
100
AcDbEntity
  8
KONSTRUKTIONSELEMENTE
100
AcDbCircle
 62
7
  6
CONTINUOUS
 10
41.910117047
 20
50.222607022
 40
2.1432463774
100
AcDbArc
 50
217.00064805
 51
244.951948684
  0
ARC
  5
548
100
AcDbEntity
  8
KONSTRUKTIONSELEMENTE
100
AcDbCircle
 62
7
  6
CONTINUOUS
 10
62.0707604684
 20
26.3195775966
 40
2.0
100
AcDbArc
 50
245.0
 51
328.9999999993
  0
ARC
  5
549
100
AcDbEntity
  8
KONSTRUKTIONSELEMENTE
100
AcDbCircle
 62
7
  6
CONTINUOUS
 10
55.7266059592
 20
29.2779054288
 40
2.0
100
AcDbArc
 50
245.0
 51
329.0
  0
ARC
  5
54A
100
AcDbEntity
  8
KONSTRUKTIONSELEMENTE
100
AcDbCircle
 62
7
  6
CONTINUOUS
 10
52.525500786
 20
30.7706052856
 40
2.0
100
AcDbArc
 50
161.0
 51
245.0
  0
ARC
  5
54B
100
AcDbEntity
  8
KONSTRUKTIONSELEMENTE
100
AcDbCircle
 62
7
  6
CONTINUOUS
 10
65.8743248241
 20
34.4763476799
 40
2.0
100
AcDbArc
 50
341.0
 51
65.0
  0
ARC
  5
54C
100
AcDbEntity
  8
KONSTRUKTIONSELEMENTE
100
AcDbCircle
 62
7
  6
CONTINUOUS
 10
56.3290651417
 20
38.9273753689
 40
2.0
100
AcDbArc
 50
65.0
 51
149.0
  0
ARC
  5
54D
100
AcDbEntity
  8
KONSTRUKTIONSELEMENTE
100
AcDbCircle
 62
7
  6
CONTINUOUS
 10
59.5301703148
 20
37.4346755121
 40
2.0
100
AcDbArc
 50
341.0
 51
65.0
  0
ARC
  5
54E
100
AcDbEntity
  8
KONSTRUKTIONSELEMENTE
100
AcDbCircle
 62
7
  6
CONTINUOUS
 10
59.6231571332
 20
82.629809724
 40
24.625286436
100
AcDbArc
 50
74.8252216354
 51
155.0
  0
ARC
  5
54F
100
AcDbEntity
  8
KONSTRUKTIONSELEMENTE
100
AcDbCircle
 62
7
  6
CONTINUOUS
 10
59.6231571332
 20
82.629809724
 40
24.625286436
100
AcDbArc
 50
335.0
 51
55.1747794818
  0
ARC
  5
550
100
AcDbEntity
  8
KONSTRUKTIONSELEMENTE
100
AcDbCircle
 62
7
  6
CONTINUOUS
 10
48.823474165
 20
59.5296476642
 40
24.6
100
AcDbArc
 50
155.0
 51
177.8620374455
  0
ARC
  5
551
100
AcDbEntity
  8
KONSTRUKTIONSELEMENTE
100
AcDbCircle
 62
7
  6
CONTINUOUS
 10
48.8693087527
 20
59.508274645
 40
24.6
100
AcDbArc
 50
312.1379625545
 51
335.0
  0
ARC
  5
552
100
AcDbEntity
  8
KONSTRUKTIONSELEMENTE
100
AcDbCircle
 62
7
  6
CONTINUOUS
 10
59.6231571332
 20
82.629809724
 40
15.025286436
100
AcDbArc
 50
335.0
 51
48.7648925289
  0
ARC
  5
553
100
AcDbEntity
  8
KONSTRUKTIONSELEMENTE
100
AcDbCircle
 62
7
  6
CONTINUOUS
 10
59.6231571332
 20
82.629809724
 40
15.025286436
100
AcDbArc
 50
81.2351074711
 51
155.0
  0
ARC
  5
554
100
AcDbEntity
  8
KONSTRUKTIONSELEMENTE
100
AcDbCircle
 62
7
  6
CONTINUOUS
 10
48.823474165
 20
59.5296476642
 40
15.0
100
AcDbArc
 50
155.0
 51
177.8620374455
  0
ARC
  5
555
100
AcDbEntity
  8
KONSTRUKTIONSELEMENTE
100
AcDbCircle
 62
7
  6
CONTINUOUS
 10
48.8693087527
 20
59.508274645
 40
15.0
100
AcDbArc
 50
312.1379625545
 51
335.0
  0
ARC
  5
556
100
AcDbEntity
  8
KONSTRUKTIONSELEMENTE
100
AcDbCircle
 62
7
  6
CONTINUOUS
 10
64.18743436
 20
92.417933824
 40
4.2
100
AcDbArc
 50
155.0
 51
335.0
  0
ARC
  5
557
100
AcDbEntity
  8
KONSTRUKTIONSELEMENTE
100
AcDbCircle
 62
7
  6
CONTINUOUS
 10
80.4159756109
 20
127.2201528462
 40
4.2
100
AcDbArc
 50
335.0
 51
155.0
  0
ARC
  5
558
100
AcDbEntity
  8
KONSTRUKTIONSELEMENTE
100
AcDbCircle
 62
7
  6
CONTINUOUS
 10
103.3451129491
 20
37.5589430582
 40
14.6
100
AcDbArc
 50
25.0
 51
47.8620374455
  0
ARC
  5
559
100
AcDbEntity
  8
FASEN
100
AcDbCircle
 62
7
  6
CONTINUOUS
 10
117.7833493957
 20
29.7848205934
 40
13.0
100
AcDbArc
 50
265.2539886208
 51
324.7460113792
  0
ARC
  5
55A
100
AcDbEntity
  8
FASEN
100
AcDbCircle
 62
7
  6
CONTINUOUS
 10
117.7833493957
 20
29.7848205934
 40
12.5
100
AcDbArc
 50
267.6450498644
 51
322.3549501356
  0
ARC
  5
55B
100
AcDbEntity
  8
KONSTRUKTIONSELEMENTE
100
AcDbCircle
 62
7
  6
CONTINUOUS
 10
103.3451129491
 20
37.5589430582
 40
5.0
100
AcDbArc
 50
25.0
 51
47.8620374455
  0
CIRCLE
  5
55C
100
AcDbEntity
  8
KONSTRUKTIONSELEMENTE
100
AcDbCircle
 62
7
  6
CONTINUOUS
 10
125.3354162508
 20
38.4344775817
 40
4.5
  0
ARC
  5
55D
100
AcDbEntity
  8
KONSTRUKTIONSELEMENTE
100
AcDbCircle
 62
7
  6
CONTINUOUS
 10
125.8900747283
 20
48.2298852902
 40
2.1432462354
100
AcDbArc
 50
267.0006474195
 51
294.9519485575
  0
ARC
  5
55E
100
AcDbEntity
  8
KONSTRUKTIONSELEMENTE
100
AcDbCircle
 62
7
  6
CONTINUOUS
 10
124.7807576975
 20
28.6390702621
 40
2.143245851
100
AcDbArc
 50
87.0006461666
 51
114.9519480518
  0
ARC
  5
55F
100
AcDbEntity
  8
KONSTRUKTIONSELEMENTE
100
AcDbCircle
 62
7
  6
CONTINUOUS
 10
117.4751726299
 20
44.3059492496
 40
2.1432437423
100
AcDbArc
 50
295.0480096057
 51
322.9993952414
  0
ARC
  5
560
100
AcDbEntity
  8
KONSTRUKTIONSELEMENTE
100
AcDbCircle
 62
7
  6
CONTINUOUS
 10
116.3469910249
 20
29.2779054288
 40
2.0
100
AcDbArc
 50
211.0
 51
295.0
  0
ARC
  5
561
100
AcDbEntity
  8
KONSTRUKTIONSELEMENTE
100
AcDbCircle
 62
7
  6
CONTINUOUS
 10
115.7445318424
 20
38.9273753689
 40
2.0
100
AcDbArc
 50
31.0
 51
115.0
  0
ARC
  5
562
100
AcDbEntity
  8
KONSTRUKTIONSELEMENTE
100
AcDbCircle
 62
7
  6
CONTINUOUS
 10
119.5480961981
 20
30.7706052856
 40
2.0
100
AcDbArc
 50
295.0
 51
19.0
  0
ARC
  5
563
100
AcDbEntity
  8
KONSTRUKTIONSELEMENTE
100
AcDbCircle
 62
7
  6
CONTINUOUS
 10
112.5434266692
 20
37.4346755121
 40
2.0
100
AcDbArc
 50
115.0
 51
199.0
  0
ARC
  5
564
100
AcDbEntity
  8
KONSTRUKTIONSELEMENTE
100
AcDbCircle
 62
7
  6
CONTINUOUS
 10
106.19927216
 20
34.4763476799
 40
2.0
100
AcDbArc
 50
115.0
 51
198.9999999998
  0
ARC
  5
565
100
AcDbEntity
  8
KONSTRUKTIONSELEMENTE
100
AcDbCircle
 62
7
  6
CONTINUOUS
 10
110.0028365156
 20
26.3195775966
 40
2.0
100
AcDbArc
 50
211.0
 51
295.0
  0
ARC
  5
566
100
AcDbEntity
  8
KONSTRUKTIONSELEMENTE
100
AcDbCircle
 62
7
  6
CONTINUOUS
 10
112.4504398508
 20
82.629809724
 40
24.625286436
100
AcDbArc
 50
25.0
 51
105.1747783646
  0
ARC
  5
567
100
AcDbEntity
  8
KONSTRUKTIONSELEMENTE
100
AcDbCircle
 62
7
  6
CONTINUOUS
 10
112.4504398508
 20
82.629809724
 40
24.625286436
100
AcDbArc
 50
124.8252205182
 51
205.0
  0
ARC
  5
568
100
AcDbEntity
  8
KONSTRUKTIONSELEMENTE
100
AcDbCircle
 62
7
  6
CONTINUOUS
 10
123.250122819
 20
59.5296476642
 40
24.6
100
AcDbArc
 50
2.1379625545
 51
25.0
  0
ARC
  5
569
100
AcDbEntity
  8
KONSTRUKTIONSELEMENTE
100
AcDbCircle
 62
7
  6
CONTINUOUS
 10
123.2042882314
 20
59.508274645
 40
24.6
100
AcDbArc
 50
205.0
 51
227.8620374455
  0
ARC
  5
56A
100
AcDbEntity
  8
KONSTRUKTIONSELEMENTE
100
AcDbCircle
 62
7
  6
CONTINUOUS
 10
112.4504398508
 20
82.629809724
 40
15.025286436
100
AcDbArc
 50
131.2351074711
 51
205.0
  0
ARC
  5
56B
100
AcDbEntity
  8
KONSTRUKTIONSELEMENTE
100
AcDbCircle
 62
7
  6
CONTINUOUS
 10
112.4504398508
 20
82.629809724
 40
15.025286436
100
AcDbArc
 50
25.0
 51
98.7648925289
  0
ARC
  5
56C
100
AcDbEntity
  8
KONSTRUKTIONSELEMENTE
100
AcDbCircle
 62
7
  6
CONTINUOUS
 10
123.250122819
 20
59.5296476642
 40
15.0
100
AcDbArc
 50
2.1379625545
 51
25.0
  0
ARC
  5
56D
100
AcDbEntity
  8
KONSTRUKTIONSELEMENTE
100
AcDbCircle
 62
7
  6
CONTINUOUS
 10
123.2042882314
 20
59.508274645
 40
15.0
100
AcDbArc
 50
205.0
 51
227.8620374455
  0
ARC
  5
56E
100
AcDbEntity
  8
KONSTRUKTIONSELEMENTE
100
AcDbCircle
 62
7
  6
CONTINUOUS
 10
107.886162624
 20
92.417933824
 40
4.2
100
AcDbArc
 50
205.0
 51
25.0
  0
ARC
  5
56F
100
AcDbEntity
  8
0
100
AcDbCircle
 62
7
  6
CONTINUOUS
 10
97.4956665185
 20
67.7119633727
 40
1.7999999964
100
AcDbArc
 50
295.0
 51
25.0
  0
ARC
  5
570
100
AcDbEntity
  8
0
100
AcDbCircle
 62
7
  6
CONTINUOUS
 10
97.0343603768
 20
68.7012375861
 40
1.7999999964
100
AcDbArc
 50
25.0
 51
115.0
  0
ARC
  5
571
100
AcDbEntity
  8
0
100
AcDbCircle
 62
7
  6
CONTINUOUS
 10
97.4956665185
 20
67.7119633727
 40
1.472727409
100
AcDbArc
 50
295.0
 51
25.0
  0
ARC
  5
572
100
AcDbEntity
  8
0
100
AcDbCircle
 62
7
  6
CONTINUOUS
 10
97.0343603768
 20
68.7012375861
 40
1.4727272724
100
AcDbArc
 50
25.0
 51
114.6001990135
  0
ARC
  5
573
100
AcDbEntity
  8
0
100
AcDbCircle
 62
7
  6
CONTINUOUS
 10
97.2348634964
 20
66.9892062194
 40
1.2551796801
100
AcDbArc
 50
265.0
 51
295.0
  0
ARC
  5
574
100
AcDbEntity
  8
0
100
AcDbCircle
 62
7
  6
CONTINUOUS
 10
96.312787289
 20
68.9666050273
 40
1.254545454
100
AcDbArc
 50
115.0
 51
145.0
  0
ARC
  5
575
100
AcDbEntity
  8
0
100
AcDbCircle
 62
7
  6
CONTINUOUS
 10
96.312787289
 20
68.9666050273
 40
0.9436363632
100
AcDbArc
 50
124.7620538147
 51
145.0
  0
ARC
  5
576
100
AcDbEntity
  8
0
100
AcDbCircle
 62
7
  6
CONTINUOUS
 10
97.2348634964
 20
66.9892062194
 40
0.9416005377
100
AcDbArc
 50
265.0
 51
285.2166324244
  0
ARC
  5
577
100
AcDbEntity
  8
FASEN
100
AcDbCircle
 62
7
  6
CONTINUOUS
 10
149.504121942
 20
44.5764597543
 40
13.0
100
AcDbArc
 50
265.2539886208
 51
324.7460113792
  0
ARC
  5
578
100
AcDbEntity
  8
FASEN
100
AcDbCircle
 62
7
  6
CONTINUOUS
 10
149.504121942
 20
44.5764597543
 40
12.5
100
AcDbArc
 50
267.6450498644
 51
322.3549501356
  0
ARC
  5
579
100
AcDbEntity
  8
KONSTRUKTIONSELEMENTE
100
AcDbCircle
 62
7
  6
CONTINUOUS
 10
138.0631181409
 20
44.2666549604
 40
7.7500670366
100
AcDbArc
 50
87.0182475725
 51
142.981632645
  0
ARC
  5
57A
100
AcDbEntity
  8
KONSTRUKTIONSELEMENTE
100
AcDbCircle
 62
7
  6
CONTINUOUS
 10
137.9843323978
 20
44.4356115315
 40
7.7500670363
100
AcDbArc
 50
267.0183641
 51
322.9816334804
  0
CIRCLE
  5
57B
100
AcDbEntity
  8
KONSTRUKTIONSELEMENTE
100
AcDbCircle
 62
7
  6
CONTINUOUS
 10
138.0237252693
 20
44.3511332461
 40
4.5
  0
ARC
  5
57C
100
AcDbEntity
  8
KONSTRUKTIONSELEMENTE
100
AcDbCircle
 62
7
  6
CONTINUOUS
 10
138.5783773531
 20
54.1465741366
 40
2.143279031
100
AcDbArc
 50
267.0014357451
 51
294.9513057892
  0
ARC
  5
57D
100
AcDbEntity
  8
KONSTRUKTIONSELEMENTE
100
AcDbCircle
 62
7
  6
CONTINUOUS
 10
137.4690679184
 20
34.555719728
 40
2.1432519764
100
AcDbArc
 50
87.0008354814
 51
114.9519638569
  0
ARC
  5
57E
100
AcDbEntity
  8
KONSTRUKTIONSELEMENTE
100
AcDbCircle
 62
7
  6
CONTINUOUS
 10
145.8839741067
 20
38.4796551454
 40
2.1432517778
100
AcDbArc
 50
115.0480369515
 51
142.9991745883
  0
ARC
  5
57F
100
AcDbEntity
  8
KONSTRUKTIONSELEMENTE
100
AcDbCircle
 62
7
  6
CONTINUOUS
 10
130.1634768802
 20
50.2226107938
 40
2.143251087
100
AcDbArc
 50
295.0480303549
 51
322.9991821977
  0
ARC
  5
580
100
AcDbEntity
  8
KONSTRUKTIONSELEMENTE
100
AcDbCircle
 62
7
  6
CONTINUOUS
 10
133.1956599588
 20
32.5630058062
 40
2.1432438767
100
AcDbArc
 50
115.0480100687
 51
142.9993956128
  0
ARC
  5
581
100
AcDbEntity
  8
KONSTRUKTIONSELEMENTE
100
AcDbCircle
 62
7
  6
CONTINUOUS
 10
157.1598693601
 20
48.3092631478
 40
2.0
100
AcDbArc
 50
295.0
 51
18.9999999993
  0
ARC
  5
582
100
AcDbEntity
  8
KONSTRUKTIONSELEMENTE
100
AcDbCircle
 62
7
  6
CONTINUOUS
 10
153.3563050044
 20
56.4660332312
 40
2.0
100
AcDbArc
 50
31.0
 51
115.0
  0
ARC
  5
583
100
AcDbEntity
  8
KONSTRUKTIONSELEMENTE
100
AcDbCircle
 62
7
  6
CONTINUOUS
 10
150.8157148508
 20
45.3509353156
 40
2.0
100
AcDbArc
 50
295.0
 51
19.0
  0
ARC
  5
584
100
AcDbEntity
  8
KONSTRUKTIONSELEMENTE
100
AcDbCircle
 62
7
  6
CONTINUOUS
 10
143.811045322
 20
52.0150055422
 40
2.0
100
AcDbArc
 50
115.0
 51
199.0
  0
ARC
  5
585
100
AcDbEntity
  8
KONSTRUKTIONSELEMENTE
100
AcDbCircle
 62
7
  6
CONTINUOUS
 10
147.0121504952
 20
53.507705399
 40
2.0
100
AcDbArc
 50
31.0
 51
115.0
  0
ARC
  5
586
100
AcDbEntity
  8
KONSTRUKTIONSELEMENTE
100
AcDbCircle
 62
7
  6
CONTINUOUS
 10
147.6146096777
 20
43.8582354588
 40
2.0
100
AcDbArc
 50
211.0
 51
295.0
  0
ARC
  5
587
100
AcDbEntity
  8
KONSTRUKTIONSELEMENTE
100
AcDbCircle
 62
7
  6
CONTINUOUS
 10
152.8295181213
 20
60.6339001492
 40
14.6
100
AcDbArc
 50
182.1379625545
 51
205.0
  0
ARC
  5
588
100
AcDbEntity
  8
KONSTRUKTIONSELEMENTE
100
AcDbCircle
 62
7
  6
CONTINUOUS
 10
152.8295181213
 20
60.6339001492
 40
5.0
100
AcDbArc
 50
182.1379625545
 51
205.0
  0
ARC
  5
589
100
AcDbEntity
  8
KONSTRUKTIONSELEMENTE
100
AcDbCircle
 62
7
  6
CONTINUOUS
 10
86.036798492
 20
164.2740464138
 40
28.3
100
AcDbArc
 50
0.0
 51
180.0
  0
ARC
  5
58A
100
AcDbEntity
  8
KONSTRUKTIONSELEMENTE
100
AcDbCircle
 62
7
  6
CONTINUOUS
 10
86.036798492
 20
139.2740464138
 40
28.3
100
AcDbArc
 50
180.0
 51
236.463705566
  0
ARC
  5
58B
100
AcDbEntity
  8
KONSTRUKTIONSELEMENTE
100
AcDbCircle
 62
7
  6
CONTINUOUS
 10
86.036798492
 20
139.2740464138
 40
28.3
100
AcDbArc
 50
253.5376007921
 51
286.4623992079
  0
ARC
  5
58C
100
AcDbEntity
  8
KONSTRUKTIONSELEMENTE
100
AcDbCircle
 62
7
  6
CONTINUOUS
 10
86.036798492
 20
139.2740464138
 40
28.3
100
AcDbArc
 50
303.536294434
 51
325.9465582654
  0
ARC
  5
58D
100
AcDbEntity
  8
KONSTRUKTIONSELEMENTE
100
AcDbCircle
 62
7
  6
CONTINUOUS
 10
86.036798492
 20
139.2740464138
 40
28.3
100
AcDbArc
 50
334.0534417346
 51
360.0
  0
ARC
  5
58E
100
AcDbEntity
  8
KONSTRUKTIONSELEMENTE
100
AcDbCircle
 62
7
  6
CONTINUOUS
 10
86.036798492
 20
139.2740464138
 40
17.5
100
AcDbArc
 50
180.0
 51
231.106770684
  0
ARC
  5
58F
100
AcDbEntity
  8
KONSTRUKTIONSELEMENTE
100
AcDbCircle
 62
7
  6
CONTINUOUS
 10
86.036798492
 20
139.2740464138
 40
17.5
100
AcDbArc
 50
258.8928301656
 51
281.1071698344
  0
ARC
  5
590
100
AcDbEntity
  8
KONSTRUKTIONSELEMENTE
100
AcDbCircle
 62
7
  6
CONTINUOUS
 10
86.036798492
 20
139.2740464138
 40
17.5
100
AcDbArc
 50
308.893229316
 51
323.4345452856
  0
ARC
  5
591
100
AcDbEntity
  8
KONSTRUKTIONSELEMENTE
100
AcDbCircle
 62
7
  6
CONTINUOUS
 10
86.036798492
 20
139.2740464138
 40
17.5
100
AcDbArc
 50
336.5654547144
 51
360.0
  0
ARC
  5
592
100
AcDbEntity
  8
KONSTRUKTIONSELEMENTE
100
AcDbCircle
 62
7
  6
CONTINUOUS
 10
86.036798492
 20
164.2740464138
 40
17.5
100
AcDbArc
 50
0.0
 51
180.0
  0
ARC
  5
593
100
AcDbEntity
  8
_MDL_SMALL
100
AcDbCircle
 62
7
  6
CONTINUOUS
 10
124.7481340412
 20
116.9240464138
 40
5.35
100
AcDbArc
 50
60.0
 51
128.0239565721
  0
ARC
  5
594
100
AcDbEntity
  8
_MDL_SMALL
100
AcDbCircle
 62
7
  6
CONTINUOUS
 10
124.7481340412
 20
116.9240464138
 40
5.35
100
AcDbArc
 50
171.9760434279
 51
240.0
  0
ARC
  5
595
100
AcDbEntity
  8
_MDL_SMALL
100
AcDbCircle
 62
7
  6
CONTINUOUS
 10
129.0782610601
 20
114.4240464138
 40
5.35
100
AcDbArc
 50
240.0
 51
319.218316838
  0
ARC
  5
596
100
AcDbEntity
  8
_MDL_SMALL
100
AcDbCircle
 62
7
  6
CONTINUOUS
 10
129.0782610601
 20
114.4240464138
 40
5.35
100
AcDbArc
 50
340.781683162
 51
60.0
  0
ARC
  5
597
100
AcDbEntity
  8
KONSTRUKTIONSELEMENTE
100
AcDbCircle
 62
7
  6
CONTINUOUS
 10
91.6576213732
 20
127.2201528462
 40
4.2
100
AcDbArc
 50
25.0
 51
205.0
  0
ARC
  5
598
100
AcDbEntity
  8
_MDL_SMALL
100
AcDbCircle
 62
7
  6
CONTINUOUS
 10
124.7481340412
 20
116.9240464138
 40
2.25
100
AcDbArc
 50
60.0
 51
86.896382674
  0
ARC
  5
599
100
AcDbEntity
  8
_MDL_SMALL
100
AcDbCircle
 62
7
  6
CONTINUOUS
 10
124.7481340412
 20
116.9240464138
 40
2.25
100
AcDbArc
 50
213.103617326
 51
240.0
  0
ARC
  5
59A
100
AcDbEntity
  8
_MDL_SMALL
100
AcDbCircle
 62
7
  6
CONTINUOUS
 10
129.0782610601
 20
114.4240464138
 40
2.25
100
AcDbArc
 50
240.0
 51
303.5166227344
  0
ARC
  5
59B
100
AcDbEntity
  8
_MDL_SMALL
100
AcDbCircle
 62
7
  6
CONTINUOUS
 10
129.0782610601
 20
114.4240464138
 40
2.25
100
AcDbArc
 50
356.4833772656
 51
60.0
  0
ARC
  5
59C
100
AcDbEntity
  8
KONSTRUKTIONSELEMENTE
100
AcDbCircle
 62
7
  6
CONTINUOUS
 10
124.5749289604
 20
117.0240464138
 40
2.0
100
AcDbArc
 50
240.0
 51
60.0
  0
ARC
  5
59D
100
AcDbEntity
  8
KONSTRUKTIONSELEMENTE
100
AcDbCircle
 62
7
  6
CONTINUOUS
 10
99.4601922507
 20
131.5240464138
 40
2.0
100
AcDbArc
 50
60.0
 51
240.0
  0
ARC
  5
59E
100
AcDbEntity
  8
KONSTRUKTIONSELEMENTE
100
AcDbCircle
 62
7
  6
CONTINUOUS
 10
227.7085839863
 20
32.5483370505
 40
6.841383401
100
AcDbArc
 50
91.6596103621
 51
96.9791070591
  0
ARC
  5
59F
100
AcDbEntity
  8
KONSTRUKTIONSELEMENTE
100
AcDbCircle
 62
7
  6
CONTINUOUS
 10
229.927020932
 20
59.3511780596
 40
5.3780378127
100
AcDbArc
 50
243.177713172
 51
244.9079995837
  0
ARC
  5
5A0
100
AcDbEntity
  8
KONSTRUKTIONSELEMENTE
100
AcDbCircle
 62
7
  6
CONTINUOUS
 10
229.874981542
 20
23.5413711077
 40
5.2591239364
100
AcDbArc
 50
115.0828331888
 51
116.8418754052
  0
ARC
  5
5A1
100
AcDbEntity
  8
KONSTRUKTIONSELEMENTE
100
AcDbCircle
 62
7
  6
CONTINUOUS
 10
229.7186101645
 20
23.8521651089
 40
4.9112098417
100
AcDbArc
 50
116.8513185851
 51
117.1378528927
  0
ARC
  5
5A2
100
AcDbEntity
  8
KONSTRUKTIONSELEMENTE
100
AcDbCircle
 62
7
  6
CONTINUOUS
 10
225.1697416475
 20
31.977620408
 40
4.4121143741
100
AcDbArc
 50
301.5905790017
 51
301.9172324389
  0
ARC
  5
5A3
100
AcDbEntity
  8
KONSTRUKTIONSELEMENTE
100
AcDbCircle
 62
7
  6
CONTINUOUS
 10
225.1698984949
 20
50.8081769552
 40
4.4118723261
100
AcDbArc
 50
58.0833262226
 51
58.4099127699
  0
ARC
  5
5A4
100
AcDbEntity
  8
KONSTRUKTIONSELEMENTE
100
AcDbCircle
 62
7
  6
CONTINUOUS
 10
225.2182345777
 20
50.8853845802
 40
4.3207825395
100
AcDbArc
 50
56.9506018411
 51
58.086110781
  0
ARC
  5
5A5
100
AcDbEntity
  8
KONSTRUKTIONSELEMENTE
100
AcDbCircle
 62
7
  6
CONTINUOUS
 10
245.7749705211
 20
40.402459593
 40
4.3145308856
100
AcDbArc
 50
116.3283789513
 51
117.9107381172
  0
ARC
  5
5A6
100
AcDbEntity
  8
KONSTRUKTIONSELEMENTE
100
AcDbCircle
 62
7
  6
CONTINUOUS
 10
245.7749705211
 20
25.6108204321
 40
4.3145308856
100
AcDbArc
 50
116.3283789513
 51
117.9107381172
  0
ARC
  5
5A7
100
AcDbEntity
  8
KONSTRUKTIONSELEMENTE
100
AcDbCircle
 62
7
  6
CONTINUOUS
 10
210.6645157113
 20
40.7990619313
 40
2.5
100
AcDbArc
 50
166.2538860528
 51
180.0
  0
ARC
  5
5A8
100
AcDbEntity
  8
KONSTRUKTIONSELEMENTE
100
AcDbCircle
 62
7
  6
CONTINUOUS
 10
210.6645157113
 20
36.0698932321
 40
2.5
100
AcDbArc
 50
180.0
 51
238.6677485024
  0
ARC
  5
5A9
100
AcDbEntity
  8
KONSTRUKTIONSELEMENTE
100
AcDbCircle
 62
7
  6
CONTINUOUS
 10
210.6645157113
 20
41.9865488965
 40
2.5
100
AcDbArc
 50
180.0
 51
238.6677485024
  0
ARC
  5
5AA
100
AcDbEntity
  8
KONSTRUKTIONSELEMENTE
100
AcDbCircle
 62
7
  6
CONTINUOUS
 10
226.5790930571
 20
39.3426346353
 40
1.8614989773
100
AcDbArc
 50
295.6859330711
 51
296.6660962669
  0
ARC
  5
5AB
100
AcDbEntity
  8
KONSTRUKTIONSELEMENTE
100
AcDbCircle
 62
7
  6
CONTINUOUS
 10
226.7056718544
 20
35.3379567372
 40
1.4085632088
100
AcDbArc
 50
298.8782353676
 51
300.2145189412
  0
ARC
  5
5AC
100
AcDbEntity
  8
KONSTRUKTIONSELEMENTE
100
AcDbCircle
 62
7
  6
CONTINUOUS
 10
226.9834102268
 20
53.6010968681
 40
1.081750776
100
AcDbArc
 50
51.2305964079
 51
56.8717714417
  0
ARC
  5
5AD
100
AcDbEntity
  8
KONSTRUKTIONSELEMENTE
100
AcDbCircle
 62
7
  6
CONTINUOUS
 10
226.9875330661
 20
29.1786742048
 40
1.0746178491
100
AcDbArc
 50
293.5229227106
 51
297.1816092221
  0
ARC
  5
5AE
100
AcDbEntity
  8
KONSTRUKTIONSELEMENTE
100
AcDbCircle
 62
7
  6
CONTINUOUS
 10
219.0545157113
 20
35.1544775817
 40
0.89
100
AcDbArc
 50
180.0
 51
360.0
  0
ARC
  5
5AF
100
AcDbEntity
  8
KONSTRUKTIONSELEMENTE
100
AcDbCircle
 62
7
  6
CONTINUOUS
 10
219.0545157113
 20
41.0711332461
 40
0.89
100
AcDbArc
 50
180.0
 51
360.0
  0
ARC
  5
5B0
100
AcDbEntity
  8
KONSTRUKTIONSELEMENTE
100
AcDbCircle
 62
7
  6
CONTINUOUS
 10
243.7335273545
 20
84.2376561445
 40
0.8690118689
100
AcDbArc
 50
170.3035763569
 51
179.9627842869
  0
ARC
  5
5B1
100
AcDbEntity
  8
KONSTRUKTIONSELEMENTE
100
AcDbCircle
 62
7
  6
CONTINUOUS
 10
243.7335273545
 20
88.7691950796
 40
0.8690118689
100
AcDbArc
 50
170.3035763569
 51
179.9627842869
  0
ARC
  5
5B2
100
AcDbEntity
  8
KONSTRUKTIONSELEMENTE
100
AcDbCircle
 62
7
  6
CONTINUOUS
 10
243.7295430314
 20
88.7700590939
 40
0.8650274143
100
AcDbArc
 50
180.0198415394
 51
187.8827026368
  0
ARC
  5
5B3
100
AcDbEntity
  8
AUSFORMSCHRAEGEN
100
AcDbCircle
 62
7
  6
CONTINUOUS
 10
208.3525434337
 20
34.3350452695
 40
0.667970237
100
AcDbArc
 50
173.4088255261
 51
186.5851148265
  0
ARC
  5
5B4
100
AcDbEntity
  8
AUSFORMSCHRAEGEN
100
AcDbCircle
 62
7
  6
CONTINUOUS
 10
208.3525434337
 20
48.4505655582
 40
0.667970237
100
AcDbArc
 50
173.4148851736
 51
186.5911744739
  0
ARC
  5
5B5
100
AcDbEntity
  8
KONSTRUKTIONSELEMENTE
100
AcDbCircle
 62
7
  6
CONTINUOUS
 10
219.6645157113
 20
41.4344775817
 40
0.5
100
AcDbArc
 50
303.5015629419
 51
352.5
  0
ARC
  5
5B6
100
AcDbEntity
  8
KONSTRUKTIONSELEMENTE
100
AcDbCircle
 62
7
  6
CONTINUOUS
 10
219.6645157113
 20
35.4344775817
 40
0.5
100
AcDbArc
 50
0.0
 51
55.8625037929
  0
ARC
  5
5B7
100
AcDbEntity
  8
KONSTRUKTIONSELEMENTE
100
AcDbCircle
 62
7
  6
CONTINUOUS
 10
219.6645157113
 20
41.3511332461
 40
0.5
100
AcDbArc
 50
0.0
 51
55.8625037929
  0
ARC
  5
5B8
100
AcDbEntity
  8
KONSTRUKTIONSELEMENTE
100
AcDbCircle
 62
7
  6
CONTINUOUS
 10
247.6791282303
 20
18.8231267448
 40
11.3959591501
100
AcDbArc
 50
83.0615347825
 51
90.0734677866
  0
ARC
  5
5B9
100
AcDbEntity
  8
KONSTRUKTIONSELEMENTE
100
AcDbCircle
 62
7
  6
CONTINUOUS
 10
247.6791282303
 20
33.6147659057
 40
11.3959591501
100
AcDbArc
 50
83.0615347829
 51
90.0734677866
  0
ARC
  5
5BA
100
AcDbEntity
  8
KONSTRUKTIONSELEMENTE
100
AcDbCircle
 62
7
  6
CONTINUOUS
 10
267.6202884268
 20
32.5468523776
 40
6.8428772794
100
AcDbArc
 50
83.0177104545
 51
88.339526388
  0
ARC
  5
5BB
100
AcDbEntity
  8
KONSTRUKTIONSELEMENTE
100
AcDbCircle
 62
7
  6
CONTINUOUS
 10
265.4020104906
 20
23.4344327681
 40
5.3780378128
100
AcDbArc
 50
63.1777131721
 51
64.9079995837
  0
ARC
  5
5BC
100
AcDbEntity
  8
KONSTRUKTIONSELEMENTE
100
AcDbCircle
 62
7
  6
CONTINUOUS
 10
265.4540498806
 20
59.2442397202
 40
5.2591239365
100
AcDbArc
 50
295.0828331888
 51
296.8418754051
  0
ARC
  5
5BD
100
AcDbEntity
  8
KONSTRUKTIONSELEMENTE
100
AcDbCircle
 62
7
  6
CONTINUOUS
 10
265.611068519
 20
23.8533959168
 40
4.9098192345
100
AcDbArc
 50
62.8622773882
 51
63.148761164
  0
ARC
  5
5BE
100
AcDbEntity
  8
KONSTRUKTIONSELEMENTE
100
AcDbCircle
 62
7
  6
CONTINUOUS
 10
247.6645157113
 20
102.45509616
 40
4.8
100
AcDbArc
 50
0.0
 51
180.0
  0
ARC
  5
5BF
100
AcDbEntity
  8
KONSTRUKTIONSELEMENTE
100
AcDbCircle
 62
7
  6
CONTINUOUS
 10
270.1592897779
 20
50.8079904153
 40
4.4121143794
100
AcDbArc
 50
121.590579002
 51
121.9172324388
  0
ARC
  5
5C0
100
AcDbEntity
  8
KONSTRUKTIONSELEMENTE
100
AcDbCircle
 62
7
  6
CONTINUOUS
 10
270.1591329266
 20
31.9774338707
 40
4.411872324
100
AcDbArc
 50
238.0833262224
 51
238.40991277
  0
ARC
  5
5C1
100
AcDbEntity
  8
KONSTRUKTIONSELEMENTE
100
AcDbCircle
 62
7
  6
CONTINUOUS
 10
270.111139202
 20
50.8849003896
 40
4.3213753166
100
AcDbArc
 50
121.9144612917
 51
123.049522169
  0
ARC
  5
5C2
100
AcDbEntity
  8
KONSTRUKTIONSELEMENTE
100
AcDbCircle
 62
7
  6
CONTINUOUS
 10
249.5540609015
 20
25.610820432
 40
4.3145308856
100
AcDbArc
 50
62.0892618828
 51
63.6716210487
  0
ARC
  5
5C3
100
AcDbEntity
  8
KONSTRUKTIONSELEMENTE
100
AcDbCircle
 62
7
  6
CONTINUOUS
 10
249.5540609015
 20
40.402459593
 40
4.3145308856
100
AcDbArc
 50
62.0892618828
 51
63.6716210487
  0
ARC
  5
5C4
100
AcDbEntity
  8
KONSTRUKTIONSELEMENTE
100
AcDbCircle
 62
7
  6
CONTINUOUS
 10
284.6645157113
 20
40.7990619313
 40
2.5
100
AcDbArc
 50
0.0
 51
13.7461139472
  0
ARC
  5
5C5
100
AcDbEntity
  8
KONSTRUKTIONSELEMENTE
100
AcDbCircle
 62
7
  6
CONTINUOUS
 10
284.6645157113
 20
36.0698932321
 40
2.5
100
AcDbArc
 50
301.3322514976
 51
360.0
  0
ARC
  5
5C6
100
AcDbEntity
  8
KONSTRUKTIONSELEMENTE
100
AcDbCircle
 62
7
  6
CONTINUOUS
 10
284.6645157113
 20
41.9865488965
 40
2.5
100
AcDbArc
 50
301.3322514976
 51
360.0
  0
ARC
  5
5C7
100
AcDbEntity
  8
KONSTRUKTIONSELEMENTE
100
AcDbCircle
 62
7
  6
CONTINUOUS
 10
268.7499383656
 20
39.3426346353
 40
1.8614989773
100
AcDbArc
 50
243.3339037331
 51
244.3140669289
  0
ARC
  5
5C8
100
AcDbEntity
  8
KONSTRUKTIONSELEMENTE
100
AcDbCircle
 62
7
  6
CONTINUOUS
 10
268.6233595683
 20
35.3379567372
 40
1.4085632088
100
AcDbArc
 50
239.7854810588
 51
241.1217646324
  0
ARC
  5
5C9
100
AcDbEntity
  8
KONSTRUKTIONSELEMENTE
100
AcDbCircle
 62
7
  6
CONTINUOUS
 10
268.3456209287
 20
53.6010972065
 40
1.0817503449
100
AcDbArc
 50
123.1274952587
 51
128.7694605452
  0
ARC
  5
5CA
100
AcDbEntity
  8
KONSTRUKTIONSELEMENTE
100
AcDbCircle
 62
7
  6
CONTINUOUS
 10
268.3414983724
 20
29.1786742412
 40
1.0746178889
100
AcDbArc
 50
242.8185764988
 51
246.4770772932
  0
ARC
  5
5CB
100
AcDbEntity
  8
KONSTRUKTIONSELEMENTE
100
AcDbCircle
 62
7
  6
CONTINUOUS
 10
276.2745157113
 20
35.1544775817
 40
0.89
100
AcDbArc
 50
180.0
 51
360.0
  0
ARC
  5
5CC
100
AcDbEntity
  8
KONSTRUKTIONSELEMENTE
100
AcDbCircle
 62
7
  6
CONTINUOUS
 10
276.2745157113
 20
41.0711332461
 40
0.89
100
AcDbArc
 50
180.0
 51
360.0
  0
ARC
  5
5CD
100
AcDbEntity
  8
AUSFORMSCHRAEGEN
100
AcDbCircle
 62
7
  6
CONTINUOUS
 10
286.976487989
 20
48.4505655582
 40
0.667970237
100
AcDbArc
 50
353.4088255262
 51
6.5851148264
  0
ARC
  5
5CE
100
AcDbEntity
  8
AUSFORMSCHRAEGEN
100
AcDbCircle
 62
7
  6
CONTINUOUS
 10
286.976487989
 20
34.3350452695
 40
0.667970237
100
AcDbArc
 50
353.4148851736
 51
6.5911744739
  0
ARC
  5
5CF
100
AcDbEntity
  8
KONSTRUKTIONSELEMENTE
100
AcDbCircle
 62
7
  6
CONTINUOUS
 10
275.6645157113
 20
41.4344775817
 40
0.5
100
AcDbArc
 50
187.5
 51
236.498437058
  0
ARC
  5
5D0
100
AcDbEntity
  8
KONSTRUKTIONSELEMENTE
100
AcDbCircle
 62
7
  6
CONTINUOUS
 10
275.6645157113
 20
35.4344775817
 40
0.5
100
AcDbArc
 50
124.1374962071
 51
180.0
  0
ARC
  5
5D1
100
AcDbEntity
  8
KONSTRUKTIONSELEMENTE
100
AcDbCircle
 62
7
  6
CONTINUOUS
 10
275.6645157113
 20
41.3511332461
 40
0.5
100
AcDbArc
 50
124.1374962071
 51
180.0
  0
ARC
  5
5D2
100
AcDbEntity
  8
RUNDUNGEN
100
AcDbCircle
 62
7
  6
CONTINUOUS
 10
259.1985441571
 20
109.3643444293
 40
6.2469639298
100
AcDbArc
 50
111.5177040571
 51
111.9570299234
  0
ARC
  5
5D3
100
AcDbEntity
  8
RUNDUNGEN
100
AcDbCircle
 62
7
  6
CONTINUOUS
 10
259.1443194814
 20
109.4984328766
 40
6.1023264423
100
AcDbArc
 50
111.9555811645
 51
112.7620933194
  0
ARC
  5
5D4
100
AcDbEntity
  8
KONSTRUKTIONSELEMENTE
100
AcDbCircle
 62
7
  6
CONTINUOUS
 10
247.6645157113
 20
187.1740464138
 40
5.4
100
AcDbArc
 50
0.0
 51
180.0
  0
ARC
  5
5D5
100
AcDbEntity
  8
KONSTRUKTIONSELEMENTE
100
AcDbCircle
 62
7
  6
CONTINUOUS
 10
247.6645157113
 20
116.3740464138
 40
5.4
100
AcDbArc
 50
180.0
 51
360.0
  0
ARC
  5
5D6
100
AcDbEntity
  8
_MDL_SMALL
100
AcDbCircle
 62
7
  6
CONTINUOUS
 10
247.6645157113
 20
110.6240464138
 40
1.55
100
AcDbArc
 50
180.0
 51
360.0
  0
SPLINE
  5
5D7
100
AcDbEntity
  8
FASEN
100
AcDbSpline
 62
7
  6
CONTINUOUS
 70
0
 71
3
 72
22
 73
18
 74
0
 42
0.0000001
 43
0.0000001
 44
0.0000000001
 40
0.0
 40
0.0
 40
0.0
 40
0.0
 40
0.1939711198
 40
0.3808421441
 40
0.5533116306
 40
0.7049914645
 40
0.7711227744
 40
0.8298971118
 40
0.8807128611
 40
0.923035491
 40
0.9564487568
 40
0.9696881459
 40
0.9805597218
 40
0.9890439856
 40
0.9951235881
 40
0.9987812253
 40
1.0
 40
1.0
 40
1.0
 40
1.0
 10
23.0831008182
 20
32.0870166697
 30
0.0
 10
23.1482060763
 20
32.0811591775
 30
0.0
 10
23.2760533931
 20
32.0698782998
 30
0.0
 10
23.4618566698
 20
32.0541678409
 30
0.0
 10
23.6335146634
 20
32.0403357745
 30
0.0
 10
23.7646546679
 20
32.0302879711
 30
0.0
 10
23.857607257
 20
32.0233663829
 30
0.0
 10
23.9166664064
 20
32.0190530798
 30
0.0
 10
23.9677366814
 20
32.0154167738
 30
0.0
 10
24.010267508
 20
32.0124562605
 30
0.0
 10
24.0402176445
 20
32.0104432357
 30
0.0
 10
24.0595047858
 20
32.0090879399
 30
0.0
 10
24.0705767505
 20
32.0084109953
 30
0.0
 10
24.0788337326
 20
32.0076118255
 30
0.0
 10
24.0856262801
 20
32.0076306418
 30
0.0
 10
24.0881337233
 20
32.0065479237
 30
0.0
 10
24.0909878658
 20
32.0072436177
 30
0.0
 10
24.0908954724
 20
32.0068434179
 30
0.0
  0
SPLINE
  5
5D8
100
AcDbEntity
  8
FASEN
100
AcDbSpline
 62
7
  6
CONTINUOUS
 70
0
 71
3
 72
22
 73
18
 74
0
 42
0.0000001
 43
0.0000001
 44
0.0000000001
 40
0.0
 40
0.0
 40
0.0
 40
0.0
 40
0.0012187747
 40
0.0048764119
 40
0.0109560144
 40
0.0194402782
 40
0.0303118541
 40
0.0435512432
 40
0.076964509
 40
0.1192871389
 40
0.1701028882
 40
0.2288772256
 40
0.2950085355
 40
0.4466883694
 40
0.6191578559
 40
0.8060288802
 40
1.0
 40
1.0
 40
1.0
 40
1.0
 10
43.6834126399
 20
22.8707026201
 30
0.0
 10
43.6836598215
 20
22.8710306411
 30
0.0
 10
43.6849614964
 20
22.8683970575
 30
0.0
 10
43.68740266
 20
22.8671722024
 30
0.0
 10
43.6917544113
 20
22.8619567143
 30
0.0
 10
43.6976740966
 20
22.8561451954
 30
0.0
 10
43.7053095879
 20
22.84809871
 30
0.0
 10
43.7187453402
 20
22.8341950699
 30
0.0
 10
43.7395389833
 20
22.8125458817
 30
0.0
 10
43.7691451565
 20
22.7818683596
 30
0.0
 10
43.8047580684
 20
22.7450836317
 30
0.0
 10
43.8460247398
 20
22.7026142363
 30
0.0
 10
43.9110757566
 20
22.635857533
 30
0.0
 10
44.0030679905
 20
22.5418570649
 30
0.0
 10
44.1240035995
 20
22.4192504937
 30
0.0
 10
44.2554705534
 20
22.2870154143
 30
0.0
 10
44.3462908782
 20
22.1963298961
 30
0.0
 10
44.3926268308
 20
22.1502214984
 30
0.0
  0
SPLINE
  5
5D9
100
AcDbEntity
  8
FASEN
100
AcDbSpline
 62
7
  6
CONTINUOUS
 70
0
 71
3
 72
22
 73
18
 74
0
 42
0.0000001
 43
0.0000001
 44
0.0000000001
 40
0.0
 40
0.0
 40
0.0
 40
0.0
 40
0.1939711198
 40
0.3808421441
 40
0.5533116306
 40
0.7049914645
 40
0.7711227744
 40
0.8298971118
 40
0.8807128611
 40
0.923035491
 40
0.9564487568
 40
0.9696881459
 40
0.9805597218
 40
0.9890439856
 40
0.9951235881
 40
0.9987812253
 40
1.0
 40
1.0
 40
1.0
 40
1.0
 10
54.8038733645
 20
17.2953775088
 30
0.0
 10
54.8689786225
 20
17.2895200166
 30
0.0
 10
54.9968259393
 20
17.2782391388
 30
0.0
 10
55.1826292161
 20
17.2625286799
 30
0.0
 10
55.3542872097
 20
17.2486966136
 30
0.0
 10
55.4854272141
 20
17.2386488102
 30
0.0
 10
55.5783798033
 20
17.231727222
 30
0.0
 10
55.6374389527
 20
17.2274139189
 30
0.0
 10
55.6885092277
 20
17.2237776129
 30
0.0
 10
55.7310400543
 20
17.2208170996
 30
0.0
 10
55.7609901908
 20
17.2188040747
 30
0.0
 10
55.7802773321
 20
17.2174487789
 30
0.0
 10
55.7913492967
 20
17.2167718344
 30
0.0
 10
55.7996062789
 20
17.2159726646
 30
0.0
 10
55.8063988264
 20
17.2159914809
 30
0.0
 10
55.8089062695
 20
17.2149087627
 30
0.0
 10
55.8117604121
 20
17.2156044568
 30
0.0
 10
55.8116680187
 20
17.2152042569
 30
0.0
  0
SPLINE
  5
5DA
100
AcDbEntity
  8
FASEN
100
AcDbSpline
 62
7
  6
CONTINUOUS
 70
0
 71
3
 72
22
 73
18
 74
0
 42
0.0000001
 43
0.0000001
 44
0.0000000001
 40
0.0
 40
0.0
 40
0.0
 40
0.0
 40
0.0012187747
 40
0.0048764119
 40
0.0109560144
 40
0.0194402782
 40
0.0303118541
 40
0.0435512432
 40
0.076964509
 40
0.1192871389
 40
0.1701028882
 40
0.2288772256
 40
0.2950085355
 40
0.4466883694
 40
0.6191578559
 40
0.8060288802
 40
1.0
 40
1.0
 40
1.0
 40
1.0
 10
11.9626400936
 20
37.662341781
 30
0.0
 10
11.9628872752
 20
37.662669802
 30
0.0
 10
11.9641889501
 20
37.6600362185
 30
0.0
 10
11.9666301137
 20
37.6588113634
 30
0.0
 10
11.970981865
 20
37.6535958752
 30
0.0
 10
11.9769015503
 20
37.6477843564
 30
0.0
 10
11.9845370416
 20
37.639737871
 30
0.0
 10
11.9979727939
 20
37.6258342308
 30
0.0
 10
12.0187664371
 20
37.6041850426
 30
0.0
 10
12.0483726102
 20
37.5735075205
 30
0.0
 10
12.0839855222
 20
37.5367227926
 30
0.0
 10
12.1252521935
 20
37.4942533972
 30
0.0
 10
12.1903032103
 20
37.4274966939
 30
0.0
 10
12.2822954442
 20
37.3334962258
 30
0.0
 10
12.4032310532
 20
37.2108896546
 30
0.0
 10
12.5346980071
 20
37.0786545752
 30
0.0
 10
12.625518332
 20
36.987969057
 30
0.0
 10
12.6718542845
 20
36.9418606594
 30
0.0
  0
SPLINE
  5
5DB
100
AcDbEntity
  8
0
100
AcDbSpline
 62
7
  6
CONTINUOUS
 70
0
 71
3
 72
15
 73
11
 74
0
 42
0.0000001
 43
0.0000001
 44
0.0000000001
 40
0.0
 40
0.0
 40
0.0
 40
0.0
 40
0.125
 40
0.25
 40
0.375
 40
0.5
 40
0.625
 40
0.75
 40
0.875
 40
1.0
 40
1.0
 40
1.0
 40
1.0
 10
100.9324946037
 20
67.4488708787
 30
0.0
 10
100.6005709971
 20
68.1606833501
 30
0.0
 10
99.7953092687
 20
69.5179616358
 30
0.0
 10
98.3464901307
 20
71.0461194179
 30
0.0
 10
96.8774679464
 20
71.8335393043
 30
0.0
 10
95.6118460487
 20
71.7604337769
 30
0.0
 10
94.7423178913
 20
70.8379024823
 30
0.0
 10
94.4012472612
 20
69.2064224546
 30
0.0
 10
94.6406010479
 20
67.1142817169
 30
0.0
 10
95.1627242748
 20
65.6249737796
 30
0.0
 10
95.4946478814
 20
64.9131613082
 30
0.0
  0
SPLINE
  5
5DC
100
AcDbEntity
  8
0
100
AcDbSpline
 62
7
  6
CONTINUOUS
 70
0
 71
3
 72
15
 73
11
 74
0
 42
0.0000001
 43
0.0000001
 44
0.0000000001
 40
0.0
 40
0.0
 40
0.0
 40
0.0
 40
0.125
 40
0.25
 40
0.375
 40
0.5
 40
0.625
 40
0.75
 40
0.875
 40
1.0
 40
1.0
 40
1.0
 40
1.0
 10
95.4946478814
 20
64.9131613082
 30
0.0
 10
95.826571488
 20
64.2013488368
 30
0.0
 10
96.6318332164
 20
62.8440705511
 30
0.0
 10
98.0806523544
 20
61.3159127689
 30
0.0
 10
99.5496745387
 20
60.5284928826
 30
0.0
 10
100.8152964364
 20
60.60159841
 30
0.0
 10
101.6848245938
 20
61.5241297046
 30
0.0
 10
102.0258952239
 20
63.1556097323
 30
0.0
 10
101.7865414372
 20
65.24775047
 30
0.0
 10
101.2644182102
 20
66.7370584072
 30
0.0
 10
100.9324946037
 20
67.4488708787
 30
0.0
  0
SPLINE
  5
5DD
100
AcDbEntity
  8
0
100
AcDbSpline
 62
7
  6
CONTINUOUS
 70
0
 71
3
 72
15
 73
11
 74
0
 42
0.0000001
 43
0.0000001
 44
0.0000000001
 40
0.0
 40
0.0
 40
0.0
 40
0.0
 40
0.125
 40
0.25
 40
0.375
 40
0.5
 40
0.625
 40
0.75
 40
0.875
 40
1.0
 40
1.0
 40
1.0
 40
1.0
 10
100.6358845353
 20
67.3105593323
 30
0.0
 10
100.9497032178
 20
66.6375729957
 30
0.0
 10
101.451068968
 20
65.2331008516
 30
0.0
 10
101.7103525672
 20
63.2704582605
 30
0.0
 10
101.4372520396
 20
61.750987913
 30
0.0
 10
100.6733841529
 20
60.905930284
 30
0.0
 10
99.5350276391
 20
60.8639661075
 30
0.0
 10
98.1955001876
 20
61.6314556786
 30
0.0
 10
96.8586930218
 20
63.0916407788
 30
0.0
 10
96.1050766324
 20
64.378486518
 30
0.0
 10
95.7912579498
 20
65.0514728546
 30
0.0
  0
SPLINE
  5
5DE
100
AcDbEntity
  8
0
100
AcDbSpline
 62
7
  6
CONTINUOUS
 70
0
 71
3
 72
15
 73
11
 74
0
 42
0.0000001
 43
0.0000001
 44
0.0000000001
 40
0.0
 40
0.0
 40
0.0
 40
0.0
 40
0.125
 40
0.25
 40
0.375
 40
0.5
 40
0.625
 40
0.75
 40
0.875
 40
1.0
 40
1.0
 40
1.0
 40
1.0
 10
95.7912579498
 20
65.0514728546
 30
0.0
 10
95.4774392672
 20
65.7244591912
 30
0.0
 10
94.9760735171
 20
67.1289313352
 30
0.0
 10
94.7167899179
 20
69.0915739264
 30
0.0
 10
94.9898904455
 20
70.6110442739
 30
0.0
 10
95.7537583322
 20
71.4561019029
 30
0.0
 10
96.892114846
 20
71.4980660794
 30
0.0
 10
98.2316422975
 20
70.7305765083
 30
0.0
 10
99.5684494633
 20
69.2703914081
 30
0.0
 10
100.3220658527
 20
67.9835456689
 30
0.0
 10
100.6358845353
 20
67.3105593323
 30
0.0
  0
SPLINE
  5
5DF
100
AcDbEntity
  8
FASEN
100
AcDbSpline
 62
7
  6
CONTINUOUS
 70
0
 71
3
 72
22
 73
18
 74
0
 42
0.0000001
 43
0.0000001
 44
0.0000000001
 40
0.0
 40
0.0
 40
0.0
 40
0.0
 40
0.1939711198
 40
0.3808421441
 40
0.5533116306
 40
0.7049914645
 40
0.7711227744
 40
0.8298971118
 40
0.8807128611
 40
0.923035491
 40
0.9564487568
 40
0.9696881459
 40
0.9805597218
 40
0.9890439856
 40
0.9951235881
 40
0.9987812253
 40
1.0
 40
1.0
 40
1.0
 40
1.0
 10
159.4017426995
 20
36.9418606594
 30
0.0
 10
159.4480786521
 20
36.987969057
 30
0.0
 10
159.538898977
 20
37.0786545752
 30
0.0
 10
159.6703659309
 20
37.2108896546
 30
0.0
 10
159.7913015398
 20
37.3334962258
 30
0.0
 10
159.8832937737
 20
37.4274966939
 30
0.0
 10
159.9483447906
 20
37.4942533972
 30
0.0
 10
159.9896114619
 20
37.5367227926
 30
0.0
 10
160.0252243738
 20
37.5735075205
 30
0.0
 10
160.054830547
 20
37.6041850426
 30
0.0
 10
160.0756241901
 20
37.6258342308
 30
0.0
 10
160.0890599425
 20
37.639737871
 30
0.0
 10
160.0966954337
 20
37.6477843564
 30
0.0
 10
160.1026151191
 20
37.6535958752
 30
0.0
 10
160.1069668703
 20
37.6588113634
 30
0.0
 10
160.109408034
 20
37.6600362185
 30
0.0
 10
160.1107097089
 20
37.662669802
 30
0.0
 10
160.1109568904
 20
37.662341781
 30
0.0
  0
SPLINE
  5
5E0
100
AcDbEntity
  8
FASEN
100
AcDbSpline
 62
7
  6
CONTINUOUS
 70
0
 71
3
 72
22
 73
18
 74
0
 42
0.0000001
 43
0.0000001
 44
0.0000000001
 40
0.0
 40
0.0
 40
0.0
 40
0.0
 40
0.0012187747
 40
0.0048764119
 40
0.0109560144
 40
0.0194402782
 40
0.0303118541
 40
0.0435512432
 40
0.076964509
 40
0.1192871389
 40
0.1701028882
 40
0.2288772256
 40
0.2950085355
 40
0.4466883694
 40
0.6191578559
 40
0.8060288802
 40
1.0
 40
1.0
 40
1.0
 40
1.0
 10
147.9827015117
 20
32.0068434179
 30
0.0
 10
147.9826091182
 20
32.0072436177
 30
0.0
 10
147.9854632608
 20
32.0065479237
 30
0.0
 10
147.987970704
 20
32.0076306418
 30
0.0
 10
147.9947632515
 20
32.0076118255
 30
0.0
 10
148.0030202336
 20
32.0084109953
 30
0.0
 10
148.0140921982
 20
32.0090879399
 30
0.0
 10
148.0333793396
 20
32.0104432357
 30
0.0
 10
148.0633294761
 20
32.0124562605
 30
0.0
 10
148.1058603027
 20
32.0154167738
 30
0.0
 10
148.1569305776
 20
32.0190530798
 30
0.0
 10
148.2159897271
 20
32.0233663829
 30
0.0
 10
148.3089423162
 20
32.0302879711
 30
0.0
 10
148.4400823206
 20
32.0403357745
 30
0.0
 10
148.6117403142
 20
32.0541678409
 30
0.0
 10
148.797543591
 20
32.0698782998
 30
0.0
 10
148.9253909078
 20
32.0811591775
 30
0.0
 10
148.9904961658
 20
32.0870166697
 30
0.0
  0
SPLINE
  5
5E1
100
AcDbEntity
  8
FASEN
100
AcDbSpline
 62
7
  6
CONTINUOUS
 70
0
 71
3
 72
22
 73
18
 74
0
 42
0.0000001
 43
0.0000001
 44
0.0000000001
 40
0.0
 40
0.0
 40
0.0
 40
0.0
 40
0.1939711198
 40
0.3808421441
 40
0.5533116306
 40
0.7049914645
 40
0.7711227744
 40
0.8298971118
 40
0.8807128611
 40
0.923035491
 40
0.9564487568
 40
0.9696881459
 40
0.9805597218
 40
0.9890439856
 40
0.9951235881
 40
0.9987812253
 40
1.0
 40
1.0
 40
1.0
 40
1.0
 10
127.6809701533
 20
22.1502214984
 30
0.0
 10
127.7273061058
 20
22.1963298961
 30
0.0
 10
127.8181264307
 20
22.2870154143
 30
0.0
 10
127.9495933846
 20
22.4192504937
 30
0.0
 10
128.0705289935
 20
22.5418570649
 30
0.0
 10
128.1625212275
 20
22.635857533
 30
0.0
 10
128.2275722443
 20
22.7026142363
 30
0.0
 10
128.2688389156
 20
22.7450836317
 30
0.0
 10
128.3044518276
 20
22.7818683596
 30
0.0
 10
128.3340580007
 20
22.8125458817
 30
0.0
 10
128.3548516439
 20
22.8341950699
 30
0.0
 10
128.3682873962
 20
22.84809871
 30
0.0
 10
128.3759228875
 20
22.8561451954
 30
0.0
 10
128.3818425728
 20
22.8619567143
 30
0.0
 10
128.3861943241
 20
22.8671722024
 30
0.0
 10
128.3886354877
 20
22.8683970575
 30
0.0
 10
128.3899371626
 20
22.8710306411
 30
0.0
 10
128.3901843442
 20
22.8707026201
 30
0.0
  0
SPLINE
  5
5E2
100
AcDbEntity
  8
FASEN
100
AcDbSpline
 62
7
  6
CONTINUOUS
 70
0
 71
3
 72
22
 73
18
 74
0
 42
0.0000001
 43
0.0000001
 44
0.0000000001
 40
0.0
 40
0.0
 40
0.0
 40
0.0
 40
0.0012187747
 40
0.0048764119
 40
0.0109560144
 40
0.0194402782
 40
0.0303118541
 40
0.0435512432
 40
0.076964509
 40
0.1192871389
 40
0.1701028882
 40
0.2288772256
 40
0.2950085355
 40
0.4466883694
 40
0.6191578559
 40
0.8060288802
 40
1.0
 40
1.0
 40
1.0
 40
1.0
 10
116.2619289654
 20
17.2152042569
 30
0.0
 10
116.261836572
 20
17.2156044568
 30
0.0
 10
116.2646907145
 20
17.2149087627
 30
0.0
 10
116.2671981577
 20
17.2159914809
 30
0.0
 10
116.2739907052
 20
17.2159726646
 30
0.0
 10
116.2822476873
 20
17.2167718344
 30
0.0
 10
116.2933196519
 20
17.2174487789
 30
0.0
 10
116.3126067933
 20
17.2188040747
 30
0.0
 10
116.3425569298
 20
17.2208170996
 30
0.0
 10
116.3850877564
 20
17.2237776129
 30
0.0
 10
116.4361580313
 20
17.2274139189
 30
0.0
 10
116.4952171808
 20
17.231727222
 30
0.0
 10
116.5881697699
 20
17.2386488102
 30
0.0
 10
116.7193097743
 20
17.2486966136
 30
0.0
 10
116.8909677679
 20
17.2625286799
 30
0.0
 10
117.0767710447
 20
17.2782391388
 30
0.0
 10
117.2046183615
 20
17.2895200166
 30
0.0
 10
117.2697236195
 20
17.2953775088
 30
0.0
  0
SPLINE
  5
5E3
100
AcDbEntity
  8
BEZUGSACHSEN
100
AcDbSpline
 62
7
  6
CONTINUOUS
 70
0
 71
3
 72
17
 73
13
 74
0
 42
0.0000001
 43
0.0000001
 44
0.0000000001
 40
0.0
 40
0.0
 40
0.0
 40
0.0
 40
0.1225863357
 40
0.247882633
 40
0.3736954755
 40
0.436822019
 40
0.4999792392
 40
0.5631341826
 40
0.6262772649
 40
0.752109048
 40
0.8774075773
 40
1.0
 40
1.0
 40
1.0
 40
1.0
 10
213.6470962165
 20
39.8509175
 30
0.0
 10
213.588329612
 20
39.6376416422
 30
0.0
 10
213.3969384061
 20
39.2240015727
 30
0.0
 10
212.9429006494
 20
38.7134616402
 30
0.0
 10
212.4465884347
 20
38.4167467958
 30
0.0
 10
212.0070581371
 20
38.2910056315
 30
0.0
 10
211.6646429626
 20
38.259099009
 30
0.0
 10
211.3221902875
 20
38.2909553938
 30
0.0
 10
210.8826006585
 20
38.4167077605
 30
0.0
 10
210.3861859074
 20
38.7133848707
 30
0.0
 10
209.932115397
 20
39.2239717963
 30
0.0
 10
209.7407104826
 20
39.6376199026
 30
0.0
 10
209.6819385841
 20
39.850905696
 30
0.0
  0
SPLINE
  5
5E4
100
AcDbEntity
  8
KONSTRUKTIONSELEMENTE
100
AcDbSpline
 62
7
  6
CONTINUOUS
 70
0
 71
3
 72
19
 73
15
 74
0
 42
0.0000001
 43
0.0000001
 44
0.0000000001
 40
0.0
 40
0.0
 40
0.0
 40
0.0
 40
0.0603466214
 40
0.1144930877
 40
0.1647240228
 40
0.2144364684
 40
0.266071714
 40
0.3208603717
 40
0.3791566494
 40
0.4408632383
 40
0.572888908
 40
0.7130299606
 40
0.8567532217
 40
1.0
 40
1.0
 40
1.0
 40
1.0
 10
232.4557249981
 20
34.35609254
 30
0.0
 10
232.563935929
 20
34.3835143825
 30
0.0
 10
232.7661003292
 20
34.4508101436
 30
0.0
 10
233.0319261789
 20
34.6052714579
 30
0.0
 10
233.2369739829
 20
34.8076206511
 30
0.0
 10
233.3855152811
 20
35.0480126833
 30
0.0
 10
233.4883980179
 20
35.3192045621
 30
0.0
 10
233.5578000114
 20
35.6165338413
 30
0.0
 10
233.6006664704
 20
35.937373085
 30
0.0
 10
233.6307181482
 20
36.4028630994
 30
0.0
 10
233.6202217212
 20
37.0214142727
 30
0.0
 10
233.5334735589
 20
37.7875241408
 30
0.0
 10
233.3340604393
 20
38.5553993852
 30
0.0
 10
233.07067256
 20
39.0301989607
 30
0.0
 10
232.8970737576
 20
39.2303975973
 30
0.0
  0
SPLINE
  5
5E5
100
AcDbEntity
  8
KONSTRUKTIONSELEMENTE
100
AcDbSpline
 62
7
  6
CONTINUOUS
 70
0
 71
3
 72
15
 73
11
 74
0
 42
0.0000001
 43
0.0000001
 44
0.0000000001
 40
0.0
 40
0.0
 40
0.0
 40
0.0
 40
0.0989375968
 40
0.2029264741
 40
0.3170691084
 40
0.4438594972
 40
0.5817152714
 40
0.7251016036
 40
0.866885885
 40
1.0
 40
1.0
 40
1.0
 40
1.0
 10
230.0551680174
 20
34.8756031671
 30
0.0
 10
230.1039516637
 20
34.8056834922
 30
0.0
 10
230.2198407709
 20
34.6724690945
 30
0.0
 10
230.4435500578
 20
34.5116587061
 30
0.0
 10
230.7179858153
 20
34.392814848
 30
0.0
 10
231.035738336
 20
34.3136228862
 30
0.0
 10
231.3854509728
 20
34.2711823717
 30
0.0
 10
231.7503984843
 20
34.262223267
 30
0.0
 10
232.1104839441
 20
34.2868634753
 30
0.0
 10
232.3445330952
 20
34.3279152864
 30
0.0
 10
232.4557249981
 20
34.35609254
 30
0.0
  0
SPLINE
  5
5E6
100
AcDbEntity
  8
KONSTRUKTIONSELEMENTE
100
AcDbSpline
 62
7
  6
CONTINUOUS
 70
0
 71
3
 72
9
 73
5
 74
0
 42
0.0000001
 43
0.0000001
 44
0.0000000001
 40
0.0
 40
0.0
 40
0.0
 40
0.0
 40
0.4988597259
 40
1.0
 40
1.0
 40
1.0
 40
1.0
 10
230.5469553387
 20
39.3517284933
 30
0.0
 10
230.4401081271
 20
39.2487471691
 30
0.0
 10
230.2513505243
 20
39.0149600296
 30
0.0
 10
230.1137476027
 20
38.7494887807
 30
0.0
 10
230.0551680174
 20
38.6124059024
 30
0.0
  0
SPLINE
  5
5E7
100
AcDbEntity
  8
BEZUGSACHSEN
100
AcDbSpline
 62
7
  6
CONTINUOUS
 70
0
 71
3
 72
15
 73
11
 74
0
 42
0.0000001
 43
0.0000001
 44
0.0000000001
 40
0.0
 40
0.0
 40
0.0
 40
0.0
 40
0.1228681591
 40
0.2483652731
 40
0.3742932232
 40
0.5001128295
 40
0.6259465599
 40
0.7518513808
 40
0.8772652767
 40
1.0
 40
1.0
 40
1.0
 40
1.0
 10
285.6470514035
 20
39.8507517189
 30
0.0
 10
285.5882035244
 20
39.637224442
 30
0.0
 10
285.3966039437
 20
39.2232654274
 30
0.0
 10
284.941669502
 20
38.71274279
 30
0.0
 10
284.3478957343
 20
38.3570251965
 30
0.0
 10
283.6638414971
 20
38.2256930556
 30
0.0
 10
282.9799251899
 20
38.3574954066
 30
0.0
 10
282.3865076764
 20
38.7134714696
 30
0.0
 10
281.932143198
 20
39.2238868988
 30
0.0
 10
281.7407354882
 20
39.6374786336
 30
0.0
 10
281.6819705312
 20
39.850779257
 30
0.0
  0
SPLINE
  5
5E8
100
AcDbEntity
  8
KONSTRUKTIONSELEMENTE
100
AcDbSpline
 62
7
  6
CONTINUOUS
 70
0
 71
3
 72
9
 73
5
 74
0
 42
0.0000001
 43
0.0000001
 44
0.0000000001
 40
0.0
 40
0.0
 40
0.0
 40
0.0
 40
0.5010883873
 40
1.0
 40
1.0
 40
1.0
 40
1.0
 10
265.2738634053
 20
38.6124059024
 30
0.0
 10
265.2151386236
 20
38.7498285566
 30
0.0
 10
265.0770748655
 20
39.0159245037
 30
0.0
 10
264.887719757
 20
39.2502714398
 30
0.0
 10
264.7803975754
 20
39.353334131
 30
0.0
  0
SPLINE
  5
5E9
100
AcDbEntity
  8
KONSTRUKTIONSELEMENTE
100
AcDbSpline
 62
7
  6
CONTINUOUS
 70
0
 71
3
 72
15
 73
11
 74
0
 42
0.0000001
 43
0.0000001
 44
0.0000000001
 40
0.0
 40
0.0
 40
0.0
 40
0.0
 40
0.1361323428
 40
0.2730117589
 40
0.4089213468
 40
0.5417237449
 40
0.6690318695
 40
0.7887409953
 40
0.8991672778
 40
1.0
 40
1.0
 40
1.0
 40
1.0
 10
262.4344635127
 20
39.2330039034
 30
0.0
 10
262.3068407713
 20
39.0859981407
 30
0.0
 10
262.0949489444
 20
38.7516728476
 30
0.0
 10
261.8960219571
 20
38.1990305213
 30
0.0
 10
261.777731996
 20
37.6298743671
 30
0.0
 10
261.7168780989
 20
37.0661871739
 30
0.0
 10
261.6986571372
 20
36.5229443746
 30
0.0
 10
261.7173747304
 20
36.0115109228
 30
0.0
 10
261.7796286163
 20
35.5416372386
 30
0.0
 10
261.8638159521
 20
35.2488923571
 30
0.0
 10
261.921521199
 20
35.1167474971
 30
0.0
  0
SPLINE
  5
5EA
100
AcDbEntity
  8
KONSTRUKTIONSELEMENTE
100
AcDbSpline
 62
7
  6
CONTINUOUS
 70
0
 71
3
 72
15
 73
11
 74
0
 42
0.0000001
 43
0.0000001
 44
0.0000000001
 40
0.0
 40
0.0
 40
0.0
 40
0.0
 40
0.133114427
 40
0.2748992963
 40
0.4182861274
 40
0.5561419675
 40
0.6829328847
 40
0.7970751037
 40
0.9010632362
 40
1.0
 40
1.0
 40
1.0
 40
1.0
 10
262.8733064245
 20
34.35609254
 30
0.0
 10
262.9844985941
 20
34.3279152188
 30
0.0
 10
263.21854856
 20
34.286863459
 30
0.0
 10
263.5786352263
 20
34.2622231372
 30
0.0
 10
263.9435837874
 20
34.2711824214
 30
0.0
 10
264.2932972319
 20
34.3136237487
 30
0.0
 10
264.6110500374
 20
34.3928160666
 30
0.0
 10
264.8854840414
 20
34.5116619099
 30
0.0
 10
265.1091937593
 20
34.6724689853
 30
0.0
 10
265.2250801671
 20
34.8056840772
 30
0.0
 10
265.2738634053
 20
34.8756031671
 30
0.0
  0
SPLINE
  5
5EB
100
AcDbEntity
  8
KONSTRUKTIONSELEMENTE
100
AcDbSpline
 62
7
  6
CONTINUOUS
 70
0
 71
3
 72
10
 73
6
 74
0
 42
0.0000001
 43
0.0000001
 44
0.0000000001
 40
0.0
 40
0.0
 40
0.0
 40
0.0
 40
0.2346911494
 40
0.4691176286
 40
1.0
 40
1.0
 40
1.0
 40
1.0
 10
261.921521199
 20
35.1167474971
 30
0.0
 10
261.960986792
 20
35.0263713954
 30
0.0
 10
262.056943731
 20
34.8521400807
 30
0.0
 10
262.346191811
 20
34.5408742505
 30
0.0
 10
262.6570646507
 20
34.4108905887
 30
0.0
 10
262.8733064245
 20
34.35609254
 30
0.0
  0
SPLINE
  5
5EC
100
AcDbEntity
  8
BEZUGSACHSEN
100
AcDbSpline
 62
7
  6
CONTINUOUS
 70
0
 71
3
 72
9
 73
5
 74
0
 42
0.0000001
 43
0.0000001
 44
0.0000000001
 40
0.0
 40
0.0
 40
0.0
 40
0.0
 40
0.4913075036
 40
1.0
 40
1.0
 40
1.0
 40
1.0
 10
245.0445157113
 20
111.3338858281
 30
0.0
 10
245.0445157113
 20
111.381864329
 30
0.0
 10
245.0554557593
 20
111.4797947115
 30
0.0
 10
245.0868683842
 20
111.5730489051
 30
0.0
 10
245.1070671616
 20
111.6184332303
 30
0.0
  0
SPLINE
  5
5ED
100
AcDbEntity
  8
BEZUGSACHSEN
100
AcDbSpline
 62
7
  6
CONTINUOUS
 70
0
 71
3
 72
9
 73
5
 74
0
 42
0.0000001
 43
0.0000001
 44
0.0000000001
 40
0.0
 40
0.0
 40
0.0
 40
0.0
 40
0.5086924964
 40
1.0
 40
1.0
 40
1.0
 40
1.0
 10
250.2219642611
 20
111.6184332303
 30
0.0
 10
250.2421630385
 20
111.5730489051
 30
0.0
 10
250.2735756634
 20
111.4797947115
 30
0.0
 10
250.2845157113
 20
111.381864329
 30
0.0
 10
250.2845157113
 20
111.3338858281
 30
0.0
  0
SPLINE
  5
5EE
100
AcDbEntity
  8
0
100
AcDbSpline
 62
7
  6
CONTINUOUS
 70
0
 71
3
 72
11
 73
7
 74
0
 42
0.0000001
 43
0.0000001
 44
0.0000000001
 40
0.0
 40
0.0
 40
0.0
 40
0.0
 40
0.225263665
 40
0.4711746578
 40
0.7317731488
 40
1.0
 40
1.0
 40
1.0
 40
1.0
 10
245.987817855
 20
107.4089804152
 30
0.0
 10
245.7865661222
 20
107.5089491734
 30
0.0
 10
245.3484223134
 20
107.6841077656
 30
0.0
 10
244.6407545598
 20
107.8690850718
 30
0.0
 10
243.8749891422
 20
107.9830178854
 30
0.0
 10
243.3470870848
 20
108.0085210101
 30
0.0
 10
243.0795157113
 20
108.0085210101
 30
0.0
  0
SPLINE
  5
5EF
100
AcDbEntity
  8
RUNDUNGEN
100
AcDbSpline
 62
7
  6
CONTINUOUS
 70
0
 71
3
 72
9
 73
5
 74
0
 42
0.0000001
 43
0.0000001
 44
0.0000000001
 40
0.0
 40
0.0
 40
0.0
 40
0.0
 40
0.4709267459
 40
1.0
 40
1.0
 40
1.0
 40
1.0
 10
254.0239018927
 20
104.4775430324
 30
0.0
 10
254.1191508842
 20
104.3226181602
 30
0.0
 10
254.3647548612
 20
104.0197373552
 30
0.0
 10
254.6634477967
 20
103.7718154096
 30
0.0
 10
254.8297247448
 20
103.6530813636
 30
0.0
  0
SPLINE
  5
5F0
100
AcDbEntity
  8
RUNDUNGEN
100
AcDbSpline
 62
7
  6
CONTINUOUS
 70
0
 71
3
 72
12
 73
8
 74
0
 42
0.0000001
 43
0.0000001
 44
0.0000000001
 40
0.0
 40
0.0
 40
0.0
 40
0.0
 40
0.1087795593
 40
0.2194283065
 40
0.4525288315
 40
0.7107052044
 40
1.0
 40
1.0
 40
1.0
 40
1.0
 10
253.7636260459
 20
103.6116472282
 30
0.0
 10
253.763626055
 20
103.6868147434
 30
0.0
 10
253.7753531864
 20
103.8386959768
 30
0.0
 10
253.8461765795
 20
104.1443008543
 30
0.0
 10
254.0286569046
 20
104.5242094964
 30
0.0
 10
254.3740466594
 20
104.94343025
 30
0.0
 10
254.6670391178
 20
105.1860940714
 30
0.0
 10
254.8297247448
 20
105.3022636483
 30
0.0
  0
SPLINE
  5
5F1
100
AcDbEntity
  8
RUNDUNGEN
100
AcDbSpline
 62
7
  6
CONTINUOUS
 70
0
 71
3
 72
9
 73
5
 74
0
 42
0.0000001
 43
0.0000001
 44
0.0000000001
 40
0.0
 40
0.0
 40
0.0
 40
0.0
 40
0.4793581267
 40
1.0
 40
1.0
 40
1.0
 40
1.0
 10
255.8594751848
 20
114.6213783819
 30
0.0
 10
255.996537454
 20
114.7192509851
 30
0.0
 10
256.2965573946
 20
114.9039894595
 30
0.0
 10
256.6146197764
 20
115.0547255624
 30
0.0
 10
256.7832952057
 20
115.1255060393
 30
0.0
  0
SPLINE
  5
5F2
100
AcDbEntity
  8
RUNDUNGEN
100
AcDbSpline
 62
7
  6
CONTINUOUS
 70
0
 71
3
 72
12
 73
8
 74
0
 42
0.0000001
 43
0.0000001
 44
0.0000000001
 40
0.0
 40
0.0
 40
0.0
 40
0.0
 40
0.2892947756
 40
0.5474711323
 40
0.7805716732
 40
0.8912204304
 40
1.0
 40
1.0
 40
1.0
 40
1.0
 10
240.4993066778
 20
105.3022636483
 30
0.0
 10
240.6619923132
 20
105.1860940654
 30
0.0
 10
240.9549847918
 20
104.9434302337
 30
0.0
 10
241.3003745616
 20
104.5242094272
 30
0.0
 10
241.4828549029
 20
104.1443007243
 30
0.0
 10
241.5536782638
 20
103.838695775
 30
0.0
 10
241.5654053858
 20
103.6868145075
 30
0.0
 10
241.5654053767
 20
103.6116469762
 30
0.0
  0
SPLINE
  5
5F3
100
AcDbEntity
  8
RUNDUNGEN
100
AcDbSpline
 62
7
  6
CONTINUOUS
 70
0
 71
3
 72
9
 73
5
 74
0
 42
0.0000001
 43
0.0000001
 44
0.0000000001
 40
0.0
 40
0.0
 40
0.0
 40
0.0
 40
0.5290731306
 40
1.0
 40
1.0
 40
1.0
 40
1.0
 10
240.4993066778
 20
103.6530813636
 30
0.0
 10
240.6655829133
 20
103.7718149007
 30
0.0
 10
240.9642746956
 20
104.0197357435
 30
0.0
 10
241.2098780701
 20
104.3226149405
 30
0.0
 10
241.305127058
 20
104.4775390056
 30
0.0
  0
SPLINE
  5
5F4
100
AcDbEntity
  8
RUNDUNGEN
100
AcDbSpline
 62
7
  6
CONTINUOUS
 70
0
 71
3
 72
10
 73
6
 74
0
 42
0.0000001
 43
0.0000001
 44
0.0000000001
 40
0.0
 40
0.0
 40
0.0
 40
0.0
 40
0.5169260008
 40
0.7654769808
 40
1.0
 40
1.0
 40
1.0
 40
1.0
 10
238.414425287
 20
112.9701971513
 30
0.0
 10
238.6411209155
 20
112.9602521618
 30
0.0
 10
238.979196366
 20
112.9742403344
 30
0.0
 10
239.4116654256
 20
113.0519001786
 30
0.0
 10
239.6161144601
 20
113.1100974943
 30
0.0
 10
239.7132796087
 20
113.144115379
 30
0.0
  0
SPLINE
  5
5F5
100
AcDbEntity
  8
RUNDUNGEN
100
AcDbSpline
 62
7
  6
CONTINUOUS
 70
0
 71
3
 72
15
 73
11
 74
0
 42
0.0000001
 43
0.0000001
 44
0.0000000001
 40
0.0
 40
0.0
 40
0.0
 40
0.0
 40
0.1231331582
 40
0.2541238119
 40
0.389406782
 40
0.5251295485
 40
0.6573971855
 40
0.7825553287
 40
0.8974960316
 40
1.0
 40
1.0
 40
1.0
 40
1.0
 10
252.7814857408
 20
114.1364026139
 30
0.0
 10
252.8911962622
 20
114.0979925468
 30
0.0
 10
253.1230760253
 20
114.0338623179
 30
0.0
 10
253.4866052093
 20
113.9752830455
 30
0.0
 10
253.8660524595
 20
113.9527340732
 30
0.0
 10
254.2470815238
 20
113.9671048434
 30
0.0
 10
254.6153855205
 20
114.0178290477
 30
0.0
 10
254.9572485624
 20
114.1030160432
 30
0.0
 10
255.2599161349
 20
114.2194006073
 30
0.0
 10
255.4394478814
 20
114.3214478038
 30
0.0
 10
255.5181972052
 20
114.3776806487
 30
0.0
  0
SPLINE
  5
5F6
100
AcDbEntity
  8
RUNDUNGEN
100
AcDbSpline
 62
7
  6
CONTINUOUS
 70
0
 71
3
 72
9
 73
5
 74
0
 42
0.0000001
 43
0.0000001
 44
0.0000000001
 40
0.0
 40
0.0
 40
0.0
 40
0.0
 40
0.5227196044
 40
1.0
 40
1.0
 40
1.0
 40
1.0
 10
256.9134573641
 20
113.4463230323
 30
0.0
 10
256.7197826925
 20
113.370198749
 30
0.0
 10
256.3560579409
 20
113.2063049765
 30
0.0
 10
256.014106844
 20
112.9997460222
 30
0.0
 10
255.8594751848
 20
112.8893275743
 30
0.0
  0
SPLINE
  5
5F7
100
AcDbEntity
  8
RUNDUNGEN
100
AcDbSpline
 62
7
  6
CONTINUOUS
 70
0
 71
3
 72
12
 73
8
 74
0
 42
0.0000001
 43
0.0000001
 44
0.0000000001
 40
0.0
 40
0.0
 40
0.0
 40
0.0
 40
0.1087795593
 40
0.2194283065
 40
0.4525288315
 40
0.7107052044
 40
1.0
 40
1.0
 40
1.0
 40
1.0
 10
241.5654053767
 20
103.6116469762
 30
0.0
 10
241.5654053677
 20
103.536479461
 30
0.0
 10
241.5536782362
 20
103.3845982276
 30
0.0
 10
241.4828548431
 20
103.07899335
 30
0.0
 10
241.3003745181
 20
102.6990847079
 30
0.0
 10
240.9549847633
 20
102.2798639544
 30
0.0
 10
240.6619923048
 20
102.037200133
 30
0.0
 10
240.4993066778
 20
101.921030556
 30
0.0
  0
SPLINE
  5
5F8
100
AcDbEntity
  8
BEZUGSACHSEN
100
AcDbSpline
 62
7
  6
CONTINUOUS
 70
0
 71
3
 72
14
 73
10
 74
0
 42
0.0000001
 43
0.0000001
 44
0.0000000001
 40
0.0
 40
0.0
 40
0.0
 40
0.0
 40
0.0961920239
 40
0.1964053917
 40
0.3038658035
 40
0.4209572448
 40
0.5490044587
 40
0.6884768588
 40
1.0
 40
1.0
 40
1.0
 40
1.0
 10
250.2845157113
 20
111.3338858281
 30
0.0
 10
250.2845157113
 20
111.2813567297
 30
0.0
 10
250.271313445
 20
111.1737037922
 30
0.0
 10
250.2132208608
 20
111.0169064411
 30
0.0
 10
250.118307728
 20
110.8658087599
 30
0.0
 10
249.9886267246
 20
110.7224022817
 30
0.0
 10
249.8262383743
 20
110.5882089932
 30
0.0
 10
249.5593435834
 20
110.4175914402
 30
0.0
 10
249.331805415
 20
110.3186189441
 30
0.0
 10
249.1713113566
 20
110.262210478
 30
0.0
  0
SPLINE
  5
5F9
100
AcDbEntity
  8
BEZUGSACHSEN
100
AcDbSpline
 62
7
  6
CONTINUOUS
 70
0
 71
3
 72
14
 73
10
 74
0
 42
0.0000001
 43
0.0000001
 44
0.0000000001
 40
0.0
 40
0.0
 40
0.0
 40
0.0
 40
0.3115231412
 40
0.4509955413
 40
0.5790427552
 40
0.6961341965
 40
0.8035946083
 40
0.9038079761
 40
1.0
 40
1.0
 40
1.0
 40
1.0
 10
246.1577200661
 20
110.262210478
 30
0.0
 10
245.9972260076
 20
110.3186189441
 30
0.0
 10
245.7696878392
 20
110.4175914402
 30
0.0
 10
245.5027930483
 20
110.5882089932
 30
0.0
 10
245.3404046981
 20
110.7224022817
 30
0.0
 10
245.2107236946
 20
110.8658087599
 30
0.0
 10
245.1158105618
 20
111.0169064411
 30
0.0
 10
245.0577179776
 20
111.1737037922
 30
0.0
 10
245.0445157113
 20
111.2813567297
 30
0.0
 10
245.0445157113
 20
111.3338858281
 30
0.0
  0
SPLINE
  5
5FA
100
AcDbEntity
  8
0
100
AcDbSpline
 62
7
  6
CONTINUOUS
 70
0
 71
3
 72
11
 73
7
 74
0
 42
0.0000001
 43
0.0000001
 44
0.0000000001
 40
0.0
 40
0.0
 40
0.0
 40
0.0
 40
0.225263665
 40
0.4711746578
 40
0.7317731488
 40
1.0
 40
1.0
 40
1.0
 40
1.0
 10
245.8493272767
 20
107.3392799674
 30
0.0
 10
245.6576589597
 20
107.4344883084
 30
0.0
 10
245.2403791419
 20
107.6013060153
 30
0.0
 10
244.5664098528
 20
107.7774748784
 30
0.0
 10
243.837109455
 20
107.8859823199
 30
0.0
 10
243.3343455909
 20
107.9102710101
 30
0.0
 10
243.0795157113
 20
107.9102710101
 30
0.0
  0
SPLINE
  5
5FB
100
AcDbEntity
  8
RUNDUNGEN
100
AcDbSpline
 62
7
  6
CONTINUOUS
 70
0
 71
3
 72
12
 73
8
 74
0
 42
0.0000001
 43
0.0000001
 44
0.0000000001
 40
0.0
 40
0.0
 40
0.0
 40
0.0
 40
0.2892947756
 40
0.5474711323
 40
0.7805716732
 40
0.8912204304
 40
1.0
 40
1.0
 40
1.0
 40
1.0
 10
254.8297247448
 20
101.921030556
 30
0.0
 10
254.6670391094
 20
102.037200139
 30
0.0
 10
254.3740466309
 20
102.2798639706
 30
0.0
 10
254.0286568611
 20
102.6990847771
 30
0.0
 10
253.8461765197
 20
103.07899348
 30
0.0
 10
253.7753531588
 20
103.3845984293
 30
0.0
 10
253.7636260368
 20
103.5364796968
 30
0.0
 10
253.7636260459
 20
103.6116472282
 30
0.0
  0
SPLINE
  5
5FC
100
AcDbEntity
  8
RUNDUNGEN
100
AcDbSpline
 62
7
  6
CONTINUOUS
 70
0
 71
3
 72
10
 73
6
 74
0
 42
0.0000001
 43
0.0000001
 44
0.0000000001
 40
0.0
 40
0.0
 40
0.0
 40
0.0
 40
0.2345226478
 40
0.4830742693
 40
1.0
 40
1.0
 40
1.0
 40
1.0
 10
239.7132796087
 20
111.4120645714
 30
0.0
 10
239.6161143429
 20
111.3780466457
 30
0.0
 10
239.4116645825
 20
111.319849271
 30
0.0
 10
238.9791943259
 20
111.2421892437
 30
0.0
 10
238.6411177168
 20
111.2282010612
 30
0.0
 10
238.4144215959
 20
111.2381465649
 30
0.0
  0
SPLINE
  5
5FD
100
AcDbEntity
  8
RUNDUNGEN
100
AcDbSpline
 62
7
  6
CONTINUOUS
 70
0
 71
3
 72
15
 73
11
 74
0
 42
0.0000001
 43
0.0000001
 44
0.0000000001
 40
0.0
 40
0.0
 40
0.0
 40
0.0
 40
0.1025045176
 40
0.2174488397
 40
0.3426076578
 40
0.4748744951
 40
0.6105962352
 40
0.7458782512
 40
0.8768676696
 40
1.0
 40
1.0
 40
1.0
 40
1.0
 10
255.5181972052
 20
112.6456298411
 30
0.0
 10
255.4394474595
 20
112.5893966949
 30
0.0
 10
255.2599121646
 20
112.4873477323
 30
0.0
 10
254.9572400083
 20
112.3709621543
 30
0.0
 10
254.6153733465
 20
112.2857760163
 30
0.0
 10
254.2470702914
 20
112.2350531369
 30
0.0
 10
253.8660438184
 20
112.2206834127
 30
0.0
 10
253.4865996656
 20
112.2432330202
 30
0.0
 10
253.1230733509
 20
112.3018121097
 30
0.0
 10
252.8911955247
 20
112.3659419974
 30
0.0
 10
252.7814857408
 20
112.4043518063
 30
0.0
  0
SPLINE
  5
5FE
100
AcDbEntity
  8
KONSTRUKTIONSELEMENTE
100
AcDbSpline
 62
7
  6
CONTINUOUS
 70
0
 71
3
 72
9
 73
5
 74
0
 42
0.0000001
 43
0.0000001
 44
0.0000000001
 40
0.0
 40
0.0
 40
0.0
 40
0.0
 40
0.2575250318
 40
1.0
 40
1.0
 40
1.0
 40
1.0
 10
252.991868901
 20
115.4954057521
 30
0.0
 10
253.3205144927
 20
115.5553410717
 30
0.0
 10
254.5921729494
 20
115.8115348372
 30
0.0
 10
255.8455312432
 20
116.1632510166
 30
0.0
 10
256.7527879551
 20
116.4865880853
 30
0.0
  0
SPLINE
  5
5FF
100
AcDbEntity
  8
KONSTRUKTIONSELEMENTE
100
AcDbSpline
 62
7
  6
CONTINUOUS
 70
0
 71
3
 72
9
 73
5
 74
0
 42
0.0000001
 43
0.0000001
 44
0.0000000001
 40
0.0
 40
0.0
 40
0.0
 40
0.0
 40
0.5015561077
 40
1.0
 40
1.0
 40
1.0
 40
1.0
 10
263.6699449572
 20
121.9415207066
 30
0.0
 10
263.8295976533
 20
122.3094323197
 30
0.0
 10
264.0781026811
 20
123.0756325834
 30
0.0
 10
264.1647506949
 20
123.8774142746
 30
0.0
 10
264.1645018846
 20
124.2759841035
 30
0.0
  0
SPLINE
  5
600
100
AcDbEntity
  8
KONSTRUKTIONSELEMENTE
100
AcDbSpline
 62
7
  6
CONTINUOUS
 70
0
 71
3
 72
9
 73
5
 74
0
 42
0.0000001
 43
0.0000001
 44
0.0000000001
 40
0.0
 40
0.0
 40
0.0
 40
0.0
 40
0.2563899578
 40
1.0
 40
1.0
 40
1.0
 40
1.0
 10
253.0675892151
 20
119.5898027029
 30
0.0
 10
253.2202716559
 20
119.623352597
 30
0.0
 10
253.8143464476
 20
119.7605943494
 30
0.0
 10
254.4025837757
 20
119.9235264316
 30
0.0
 10
254.8347008784
 20
120.0607785551
 30
0.0
  0
SPLINE
  5
601
100
AcDbEntity
  8
KONSTRUKTIONSELEMENTE
100
AcDbSpline
 62
7
  6
CONTINUOUS
 70
0
 71
3
 72
15
 73
11
 74
0
 42
0.0000001
 43
0.0000001
 44
0.0000000001
 40
0.0
 40
0.0
 40
0.0
 40
0.0
 40
0.1507993453
 40
0.2942361914
 40
0.4290872508
 40
0.5550643739
 40
0.6730225279
 40
0.784871382
 40
0.8931226994
 40
1.0
 40
1.0
 40
1.0
 40
1.0
 10
242.2629474422
 20
133.0390461339
 30
0.0
 10
241.5090743905
 20
132.8994005493
 30
0.0
 10
240.0486235389
 20
132.5646668046
 30
0.0
 10
237.9743716311
 20
131.8774696984
 30
0.0
 10
236.10037478
 20
131.0218079345
 30
0.0
 10
234.4599275501
 20
130.0009357022
 30
0.0
 10
233.0849335247
 20
128.8117549652
 30
0.0
 10
232.0189494184
 20
127.4462599948
 30
0.0
 10
231.3266926721
 20
125.9153647108
 30
0.0
 10
231.1641903239
 20
124.8154968384
 30
0.0
 10
231.1645295381
 20
124.2721087242
 30
0.0
  0
SPLINE
  5
602
100
AcDbEntity
  8
KONSTRUKTIONSELEMENTE
100
AcDbSpline
 62
7
  6
CONTINUOUS
 70
0
 71
3
 72
15
 73
11
 74
0
 42
0.0000001
 43
0.0000001
 44
0.0000000001
 40
0.0
 40
0.0
 40
0.0
 40
0.0
 40
0.1068800567
 40
0.215134772
 40
0.3269820821
 40
0.4449498017
 40
0.5709302093
 40
0.7057803173
 40
0.849211569
 40
1.0
 40
1.0
 40
1.0
 40
1.0
 10
264.1645018846
 20
124.2759841035
 30
0.0
 10
264.164162745
 20
124.819252579
 30
0.0
 10
264.0016020597
 20
125.9188003279
 30
0.0
 10
263.3082985134
 20
127.4488701752
 30
0.0
 10
262.2422033893
 20
128.8137191018
 30
0.0
 10
260.867196106
 20
130.0023116876
 30
0.0
 10
259.2269412877
 20
131.0226809843
 30
0.0
 10
257.3533476709
 20
131.8779594426
 30
0.0
 10
255.2796569383
 20
132.5648501962
 30
0.0
 10
253.8196438858
 20
132.8994606592
 30
0.0
 10
253.0660103939
 20
133.0390596009
 30
0.0
  0
SPLINE
  5
603
100
AcDbEntity
  8
KONSTRUKTIONSELEMENTE
100
AcDbSpline
 62
7
  6
CONTINUOUS
 70
0
 71
3
 72
9
 73
5
 74
0
 42
0.0000001
 43
0.0000001
 44
0.0000000001
 40
0.0
 40
0.0
 40
0.0
 40
0.0
 40
0.2433453753
 40
1.0
 40
1.0
 40
1.0
 40
1.0
 10
240.4942381851
 20
120.0608072889
 30
0.0
 10
240.635656451
 20
120.015887424
 30
0.0
 10
241.2190631923
 20
119.8384666066
 30
0.0
 10
241.8108282622
 20
119.6888192223
 30
0.0
 10
242.2614513791
 20
119.5898013445
 30
0.0
  0
SPLINE
  5
604
100
AcDbEntity
  8
KONSTRUKTIONSELEMENTE
100
AcDbSpline
 62
7
  6
CONTINUOUS
 70
0
 71
3
 72
9
 73
5
 74
0
 42
0.0000001
 43
0.0000001
 44
0.0000000001
 40
0.0
 40
0.0
 40
0.0
 40
0.0
 40
0.4985164515
 40
1.0
 40
1.0
 40
1.0
 40
1.0
 10
231.1645295381
 20
124.2721087242
 30
0.0
 10
231.1647782488
 20
123.8736983867
 30
0.0
 10
231.2514954116
 20
123.0724068143
 30
0.0
 10
231.5004279393
 20
122.3067741404
 30
0.0
 10
231.6601535106
 20
121.9391959727
 30
0.0
  0
SPLINE
  5
605
100
AcDbEntity
  8
KONSTRUKTIONSELEMENTE
100
AcDbSpline
 62
7
  6
CONTINUOUS
 70
0
 71
3
 72
9
 73
5
 74
0
 42
0.0000001
 43
0.0000001
 44
0.0000000001
 40
0.0
 40
0.0
 40
0.0
 40
0.0
 40
0.2421558949
 40
1.0
 40
1.0
 40
1.0
 40
1.0
 10
238.575710091
 20
116.486779596
 30
0.0
 10
238.8716675517
 20
116.38129487
 30
0.0
 10
240.1036939919
 20
115.9735244238
 30
0.0
 10
241.3699442074
 20
115.6717936021
 30
0.0
 10
242.3372825843
 20
115.4953840303
 30
0.0
  0
SPLINE
  5
606
100
AcDbEntity
  8
KONSTRUKTIONSELEMENTE
100
AcDbSpline
 62
7
  6
CONTINUOUS
 70
0
 71
3
 72
9
 73
5
 74
0
 42
0.0000001
 43
0.0000001
 44
0.0000000001
 40
0.0
 40
0.0
 40
0.0
 40
0.0
 40
0.4908649389
 40
1.0
 40
1.0
 40
1.0
 40
1.0
 10
242.8645157666
 20
82.6990107449
 30
0.0
 10
242.8645146287
 20
82.7612101315
 30
0.0
 10
242.8785319174
 20
82.8882810063
 30
0.0
 10
242.9188915109
 20
83.0093879247
 30
0.0
 10
242.944787667
 20
83.0684768847
 30
0.0
  0
SPLINE
  5
607
100
AcDbEntity
  8
KONSTRUKTIONSELEMENTE
100
AcDbSpline
 62
7
  6
CONTINUOUS
 70
0
 71
3
 72
9
 73
5
 74
0
 42
0.0000001
 43
0.0000001
 44
0.0000000001
 40
0.0
 40
0.0
 40
0.0
 40
0.0
 40
0.4908649389
 40
1.0
 40
1.0
 40
1.0
 40
1.0
 10
242.8645157666
 20
78.7459660729
 30
0.0
 10
242.8645146287
 20
78.8081654595
 30
0.0
 10
242.8785319174
 20
78.9352363343
 30
0.0
 10
242.9188915109
 20
79.0563432527
 30
0.0
 10
242.944787667
 20
79.1154322127
 30
0.0
  0
SPLINE
  5
608
100
AcDbEntity
  8
KONSTRUKTIONSELEMENTE
100
AcDbSpline
 62
7
  6
CONTINUOUS
 70
0
 71
3
 72
9
 73
5
 74
0
 42
0.0000001
 43
0.0000001
 44
0.0000000001
 40
0.0
 40
0.0
 40
0.0
 40
0.0
 40
0.2467674392
 40
1.0
 40
1.0
 40
1.0
 40
1.0
 10
242.8645234526
 20
77.8486588862
 30
0.0
 10
242.8645259959
 20
77.8243751538
 30
0.0
 10
242.8686824762
 20
77.7259893471
 30
0.0
 10
242.8899409613
 20
77.6285091957
 30
0.0
 10
242.9139585868
 20
77.5583845494
 30
0.0
  0
SPLINE
  5
609
100
AcDbEntity
  8
KONSTRUKTIONSELEMENTE
100
AcDbSpline
 62
7
  6
CONTINUOUS
 70
0
 71
3
 72
11
 73
7
 74
0
 42
0.0000001
 43
0.0000001
 44
0.0000000001
 40
0.0
 40
0.0
 40
0.0
 40
0.0
 40
0.2214581687
 40
0.4556195357
 40
0.7130339116
 40
1.0
 40
1.0
 40
1.0
 40
1.0
 10
242.864553334
 20
77.2696510062
 30
0.0
 10
242.8644652872
 20
77.3481008223
 30
0.0
 10
242.8871048318
 20
77.5102727427
 30
0.0
 10
242.9866740506
 20
77.7449767259
 30
0.0
 10
243.1483822627
 20
77.9705706803
 30
0.0
 10
243.2871346328
 20
78.105805706
 30
0.0
 10
243.3645157113
 20
78.1717300467
 30
0.0
  0
SPLINE
  5
60A
100
AcDbEntity
  8
KONSTRUKTIONSELEMENTE
100
AcDbSpline
 62
7
  6
CONTINUOUS
 70
0
 71
3
 72
9
 73
5
 74
0
 42
0.0000001
 43
0.0000001
 44
0.0000000001
 40
0.0
 40
0.0
 40
0.0
 40
0.0
 40
0.2469813138
 40
1.0
 40
1.0
 40
1.0
 40
1.0
 10
242.8645330105
 20
76.0165356241
 30
0.0
 10
242.8645503711
 20
75.9924551854
 30
0.0
 10
242.8687013848
 20
75.8949806122
 30
0.0
 10
242.8895633945
 20
75.7983895528
 30
0.0
 10
242.9131406093
 20
75.7288596498
 30
0.0
  0
SPLINE
  5
60B
100
AcDbEntity
  8
KONSTRUKTIONSELEMENTE
100
AcDbSpline
 62
7
  6
CONTINUOUS
 70
0
 71
3
 72
11
 73
7
 74
0
 42
0.0000001
 43
0.0000001
 44
0.0000000001
 40
0.0
 40
0.0
 40
0.0
 40
0.0
 40
0.2261689856
 40
0.4627576591
 40
0.7187437332
 40
1.0
 40
1.0
 40
1.0
 40
1.0
 10
242.8645330105
 20
75.4380413609
 30
0.0
 10
242.8644827418
 20
75.5077676162
 30
0.0
 10
242.8822170924
 20
75.6509862915
 30
0.0
 10
242.9606305557
 20
75.8600765469
 30
0.0
 10
243.0888402628
 20
76.0628859774
 30
0.0
 10
243.2001735445
 20
76.1865179391
 30
0.0
 10
243.262339525
 20
76.2469653644
 30
0.0
  0
SPLINE
  5
60C
100
AcDbEntity
  8
KONSTRUKTIONSELEMENTE
100
AcDbSpline
 62
7
  6
CONTINUOUS
 70
0
 71
3
 72
9
 73
5
 74
0
 42
0.0000001
 43
0.0000001
 44
0.0000000001
 40
0.0
 40
0.0
 40
0.0
 40
0.0
 40
0.2470600777
 40
1.0
 40
1.0
 40
1.0
 40
1.0
 10
242.864553334
 20
73.8951006649
 30
0.0
 10
242.8645801262
 20
73.8712287198
 30
0.0
 10
242.868691548
 20
73.7746305953
 30
0.0
 10
242.8891979168
 20
73.6788927132
 30
0.0
 10
242.9123914945
 20
73.6099366889
 30
0.0
  0
SPLINE
  5
60D
100
AcDbEntity
  8
KONSTRUKTIONSELEMENTE
100
AcDbSpline
 62
7
  6
CONTINUOUS
 70
0
 71
3
 72
11
 73
7
 74
0
 42
0.0000001
 43
0.0000001
 44
0.0000000001
 40
0.0
 40
0.0
 40
0.0
 40
0.0
 40
0.2213865258
 40
0.45557665
 40
0.7129758788
 40
1.0
 40
1.0
 40
1.0
 40
1.0
 10
242.8645234526
 20
73.317119951
 30
0.0
 10
242.8645152428
 20
73.3955068185
 30
0.0
 10
242.8872513584
 20
73.5575593946
 30
0.0
 10
242.9868011967
 20
73.7921078582
 30
0.0
 10
243.1484254331
 20
74.0176315267
 30
0.0
 10
243.2871561098
 20
74.1527793311
 30
0.0
 10
243.3645157113
 20
74.2186853747
 30
0.0
  0
SPLINE
  5
60E
100
AcDbEntity
  8
KONSTRUKTIONSELEMENTE
100
AcDbSpline
 62
7
  6
CONTINUOUS
 70
0
 71
3
 72
9
 73
5
 74
0
 42
0.0000001
 43
0.0000001
 44
0.0000000001
 40
0.0
 40
0.0
 40
0.0
 40
0.0
 40
0.2413187644
 40
1.0
 40
1.0
 40
1.0
 40
1.0
 10
243.1784880977
 20
82.8421642781
 30
0.0
 10
243.1924232819
 20
82.8576368391
 30
0.0
 10
243.2513421438
 20
82.9206937981
 30
0.0
 10
243.3146833658
 20
82.9795647931
 30
0.0
 10
243.3645157113
 20
83.0220191577
 30
0.0
  0
SPLINE
  5
60F
100
AcDbEntity
  8
RUNDUNGEN
100
AcDbSpline
 62
7
  6
CONTINUOUS
 70
0
 71
3
 72
11
 73
7
 74
0
 42
0.0000001
 43
0.0000001
 44
0.0000000001
 40
0.0
 40
0.0
 40
0.0
 40
0.0
 40
0.2087135228
 40
0.4374852651
 40
0.6991735306
 40
1.0
 40
1.0
 40
1.0
 40
1.0
 10
251.4645893521
 20
29.4768182413
 30
0.0
 10
251.4651905363
 20
29.4559432216
 30
0.0
 10
251.4744612837
 20
29.4121567161
 30
0.0
 10
251.5100094172
 20
29.3509010517
 30
0.0
 10
251.5654180505
 20
29.2935561945
 30
0.0
 10
251.6113822698
 20
29.2606163349
 30
0.0
 10
251.6369295044
 20
29.2446986296
 30
0.0
  0
SPLINE
  5
610
100
AcDbEntity
  8
RUNDUNGEN
100
AcDbSpline
 62
7
  6
CONTINUOUS
 70
0
 71
3
 72
11
 73
7
 74
0
 42
0.0000001
 43
0.0000001
 44
0.0000000001
 40
0.0
 40
0.0
 40
0.0
 40
0.0
 40
0.2087135228
 40
0.4374852651
 40
0.6991735306
 40
1.0
 40
1.0
 40
1.0
 40
1.0
 10
251.4645893521
 20
44.2684574022
 30
0.0
 10
251.4651905363
 20
44.2475823825
 30
0.0
 10
251.4744612837
 20
44.203795877
 30
0.0
 10
251.5100094172
 20
44.1425402126
 30
0.0
 10
251.5654180505
 20
44.0851953554
 30
0.0
 10
251.6113822698
 20
44.0522554959
 30
0.0
 10
251.6369295044
 20
44.0363377905
 30
0.0
  0
SPLINE
  5
611
100
AcDbEntity
  8
RUNDUNGEN
100
AcDbSpline
 62
7
  6
CONTINUOUS
 70
0
 71
3
 72
11
 73
7
 74
0
 42
0.0000001
 43
0.0000001
 44
0.0000000001
 40
0.0
 40
0.0
 40
0.0
 40
0.0
 40
0.3008264694
 40
0.5625147349
 40
0.7912864772
 40
1.0
 40
1.0
 40
1.0
 40
1.0
 10
243.6921019182
 20
44.0363377905
 30
0.0
 10
243.7176491529
 20
44.0522554959
 30
0.0
 10
243.7636133721
 20
44.0851953554
 30
0.0
 10
243.8190220054
 20
44.1425402126
 30
0.0
 10
243.854570139
 20
44.203795877
 30
0.0
 10
243.8638408863
 20
44.2475823825
 30
0.0
 10
243.8644420706
 20
44.2684574022
 30
0.0
  0
SPLINE
  5
612
100
AcDbEntity
  8
RUNDUNGEN
100
AcDbSpline
 62
7
  6
CONTINUOUS
 70
0
 71
3
 72
11
 73
7
 74
0
 42
0.0000001
 43
0.0000001
 44
0.0000000001
 40
0.0
 40
0.0
 40
0.0
 40
0.0
 40
0.3008264694
 40
0.5625147349
 40
0.7912864772
 40
1.0
 40
1.0
 40
1.0
 40
1.0
 10
243.6921019182
 20
29.2446986296
 30
0.0
 10
243.7176491529
 20
29.2606163349
 30
0.0
 10
243.7636133721
 20
29.2935561945
 30
0.0
 10
243.8190220054
 20
29.3509010517
 30
0.0
 10
243.854570139
 20
29.4121567161
 30
0.0
 10
243.8638408863
 20
29.4559432216
 30
0.0
 10
243.8644420706
 20
29.4768182413
 30
0.0
  0
SPLINE
  5
613
100
AcDbEntity
  8
FASEN
100
AcDbSpline
 62
7
  6
CONTINUOUS
 70
0
 71
3
 72
12
 73
8
 74
0
 42
0.0000001
 43
0.0000001
 44
0.0000000001
 40
0.0
 40
0.0
 40
0.0
 40
0.0
 40
0.2871959319
 40
0.5540304812
 40
0.7891092344
 40
0.8965964442
 40
1.0
 40
1.0
 40
1.0
 40
1.0
 10
250.4645157113
 20
37.662341781
 30
0.0
 10
250.5940135371
 20
37.6624419021
 30
0.0
 10
250.8455126425
 20
37.6269408171
 30
0.0
 10
251.1729816964
 20
37.4742368504
 30
0.0
 10
251.3709952336
 20
37.2706640178
 30
0.0
 10
251.4510629707
 20
37.0840356278
 30
0.0
 10
251.4645157113
 20
36.9884857615
 30
0.0
 10
251.4645157113
 20
36.9418606594
 30
0.0
  0
SPLINE
  5
614
100
AcDbEntity
  8
FASEN
100
AcDbSpline
 62
7
  6
CONTINUOUS
 70
0
 71
3
 72
12
 73
8
 74
0
 42
0.0000001
 43
0.0000001
 44
0.0000000001
 40
0.0
 40
0.0
 40
0.0
 40
0.0
 40
0.2871959319
 40
0.5540304812
 40
0.7891092344
 40
0.8965964442
 40
1.0
 40
1.0
 40
1.0
 40
1.0
 10
250.4645157113
 20
22.8707026201
 30
0.0
 10
250.5940135371
 20
22.8708027412
 30
0.0
 10
250.8455126425
 20
22.8353016562
 30
0.0
 10
251.1729816964
 20
22.6825976895
 30
0.0
 10
251.3709952336
 20
22.4790248569
 30
0.0
 10
251.4510629707
 20
22.2923964669
 30
0.0
 10
251.4645157113
 20
22.1968466006
 30
0.0
 10
251.4645157113
 20
22.1502214984
 30
0.0
  0
SPLINE
  5
615
100
AcDbEntity
  8
FASEN
100
AcDbSpline
 62
7
  6
CONTINUOUS
 70
0
 71
3
 72
12
 73
8
 74
0
 42
0.0000001
 43
0.0000001
 44
0.0000000001
 40
0.0
 40
0.0
 40
0.0
 40
0.0
 40
0.1034035558
 40
0.2108907656
 40
0.4459695188
 40
0.7128040681
 40
1.0
 40
1.0
 40
1.0
 40
1.0
 10
243.8645157113
 20
36.9418606594
 30
0.0
 10
243.8645157113
 20
36.9884857615
 30
0.0
 10
243.877968452
 20
37.0840356278
 30
0.0
 10
243.958036189
 20
37.2706640178
 30
0.0
 10
244.1560497263
 20
37.4742368504
 30
0.0
 10
244.4835187802
 20
37.6269408171
 30
0.0
 10
244.7350178855
 20
37.6624419021
 30
0.0
 10
244.8645157113
 20
37.662341781
 30
0.0
  0
SPLINE
  5
616
100
AcDbEntity
  8
FASEN
100
AcDbSpline
 62
7
  6
CONTINUOUS
 70
0
 71
3
 72
12
 73
8
 74
0
 42
0.0000001
 43
0.0000001
 44
0.0000000001
 40
0.0
 40
0.0
 40
0.0
 40
0.0
 40
0.1034035558
 40
0.2108907656
 40
0.4459695188
 40
0.7128040681
 40
1.0
 40
1.0
 40
1.0
 40
1.0
 10
243.8645157113
 20
22.1502214984
 30
0.0
 10
243.8645157113
 20
22.1968466006
 30
0.0
 10
243.877968452
 20
22.2923964669
 30
0.0
 10
243.958036189
 20
22.4790248569
 30
0.0
 10
244.1560497263
 20
22.6825976895
 30
0.0
 10
244.4835187802
 20
22.8353016562
 30
0.0
 10
244.7350178855
 20
22.8708027412
 30
0.0
 10
244.8645157113
 20
22.8707026201
 30
0.0
  0
SPLINE
  5
617
100
AcDbEntity
  8
FASEN
100
AcDbSpline
 62
7
  6
CONTINUOUS
 70
0
 71
3
 72
11
 73
7
 74
0
 42
0.0000001
 43
0.0000001
 44
0.0000000001
 40
0.0
 40
0.0
 40
0.0
 40
0.0
 40
0.2758609611
 40
0.5364122991
 40
0.7760492677
 40
1.0
 40
1.0
 40
1.0
 40
1.0
 10
250.4645157113
 20
37.0728332501
 30
0.0
 10
250.5316749549
 20
37.0727889567
 30
0.0
 10
250.6635542442
 20
37.0490145643
 30
0.0
 10
250.8289044719
 20
36.9491683573
 30
0.0
 10
250.9381171439
 20
36.8050451032
 30
0.0
 10
250.9644622845
 20
36.6909982116
 30
0.0
 10
250.9645157113
 20
36.6364766956
 30
0.0
  0
SPLINE
  5
618
100
AcDbEntity
  8
FASEN
100
AcDbSpline
 62
7
  6
CONTINUOUS
 70
0
 71
3
 72
11
 73
7
 74
0
 42
0.0000001
 43
0.0000001
 44
0.0000000001
 40
0.0
 40
0.0
 40
0.0
 40
0.0
 40
0.2239507323
 40
0.4635877009
 40
0.7241390389
 40
1.0
 40
1.0
 40
1.0
 40
1.0
 10
244.3645157113
 20
36.6364766956
 30
0.0
 10
244.3645691382
 20
36.6909982116
 30
0.0
 10
244.3909142788
 20
36.8050451032
 30
0.0
 10
244.5001269508
 20
36.9491683573
 30
0.0
 10
244.6654771784
 20
37.0490145643
 30
0.0
 10
244.7973564678
 20
37.0727889567
 30
0.0
 10
244.8645157113
 20
37.0728332501
 30
0.0
  0
SPLINE
  5
619
100
AcDbEntity
  8
FASEN
100
AcDbSpline
 62
7
  6
CONTINUOUS
 70
0
 71
3
 72
11
 73
7
 74
0
 42
0.0000001
 43
0.0000001
 44
0.0000000001
 40
0.0
 40
0.0
 40
0.0
 40
0.0
 40
0.2758609611
 40
0.5364122991
 40
0.7760492677
 40
1.0
 40
1.0
 40
1.0
 40
1.0
 10
250.4645157113
 20
22.2811940891
 30
0.0
 10
250.5316749549
 20
22.2811497958
 30
0.0
 10
250.6635542442
 20
22.2573754034
 30
0.0
 10
250.8289044719
 20
22.1575291964
 30
0.0
 10
250.9381171439
 20
22.0134059423
 30
0.0
 10
250.9644622845
 20
21.8993590507
 30
0.0
 10
250.9645157113
 20
21.8448375346
 30
0.0
  0
SPLINE
  5
61A
100
AcDbEntity
  8
FASEN
100
AcDbSpline
 62
7
  6
CONTINUOUS
 70
0
 71
3
 72
11
 73
7
 74
0
 42
0.0000001
 43
0.0000001
 44
0.0000000001
 40
0.0
 40
0.0
 40
0.0
 40
0.0
 40
0.2239507323
 40
0.4635877009
 40
0.7241390389
 40
1.0
 40
1.0
 40
1.0
 40
1.0
 10
244.3645157113
 20
21.8448375346
 30
0.0
 10
244.3645691382
 20
21.8993590507
 30
0.0
 10
244.3909142788
 20
22.0134059423
 30
0.0
 10
244.5001269508
 20
22.1575291964
 30
0.0
 10
244.6654771784
 20
22.2573754034
 30
0.0
 10
244.7973564678
 20
22.2811497958
 30
0.0
 10
244.8645157113
 20
22.2811940891
 30
0.0
  0
SPLINE
  5
61B
100
AcDbEntity
  8
KONSTRUKTIONSELEMENTE
100
AcDbSpline
 62
7
  6
CONTINUOUS
 70
0
 71
3
 72
11
 73
7
 74
0
 42
0.0000001
 43
0.0000001
 44
0.0000000001
 40
0.0
 40
0.0
 40
0.0
 40
0.0
 40
0.2869660884
 40
0.5443804643
 40
0.7785418313
 40
1.0
 40
1.0
 40
1.0
 40
1.0
 10
243.3645157113
 20
74.7971797054
 30
0.0
 10
243.2871346328
 20
74.7312553647
 30
0.0
 10
243.1483822627
 20
74.596020339
 30
0.0
 10
242.9866740506
 20
74.3704263846
 30
0.0
 10
242.8871048318
 20
74.1357224014
 30
0.0
 10
242.8644652872
 20
73.973550481
 30
0.0
 10
242.864553334
 20
73.8951006649
 30
0.0
  0
SPLINE
  5
61C
100
AcDbEntity
  8
KONSTRUKTIONSELEMENTE
100
AcDbSpline
 62
7
  6
CONTINUOUS
 70
0
 71
3
 72
9
 73
5
 74
0
 42
0.0000001
 43
0.0000001
 44
0.0000000001
 40
0.0
 40
0.0
 40
0.0
 40
0.0
 40
0.2413187644
 40
1.0
 40
1.0
 40
1.0
 40
1.0
 10
243.1784880977
 20
80.6246028009
 30
0.0
 10
243.1924232819
 20
80.6400753618
 30
0.0
 10
243.2513421438
 20
80.7031323208
 30
0.0
 10
243.3146833658
 20
80.7620033158
 30
0.0
 10
243.3645157113
 20
80.8044576804
 30
0.0
  0
SPLINE
  5
61D
100
AcDbEntity
  8
KONSTRUKTIONSELEMENTE
100
AcDbSpline
 62
7
  6
CONTINUOUS
 70
0
 71
3
 72
11
 73
7
 74
0
 42
0.0000001
 43
0.0000001
 44
0.0000000001
 40
0.0
 40
0.0
 40
0.0
 40
0.0
 40
0.2812562668
 40
0.5372423409
 40
0.7738310144
 40
1.0
 40
1.0
 40
1.0
 40
1.0
 10
243.262339525
 20
76.8254596276
 30
0.0
 10
243.2001735445
 20
76.7650122023
 30
0.0
 10
243.0888402628
 20
76.6413802406
 30
0.0
 10
242.9606305557
 20
76.4385708101
 30
0.0
 10
242.8822170924
 20
76.2294805547
 30
0.0
 10
242.8644827418
 20
76.0862618794
 30
0.0
 10
242.8645330105
 20
76.0165356241
 30
0.0
  0
SPLINE
  5
61E
100
AcDbEntity
  8
KONSTRUKTIONSELEMENTE
100
AcDbSpline
 62
7
  6
CONTINUOUS
 70
0
 71
3
 72
11
 73
7
 74
0
 42
0.0000001
 43
0.0000001
 44
0.0000000001
 40
0.0
 40
0.0
 40
0.0
 40
0.0
 40
0.2870241212
 40
0.54442335
 40
0.7786134742
 40
1.0
 40
1.0
 40
1.0
 40
1.0
 10
243.3645157113
 20
78.7502243098
 30
0.0
 10
243.2871561098
 20
78.6843182663
 30
0.0
 10
243.1484254331
 20
78.5491704619
 30
0.0
 10
242.9868011967
 20
78.3236467934
 30
0.0
 10
242.8872513584
 20
78.0890983298
 30
0.0
 10
242.8645152428
 20
77.9270457537
 30
0.0
 10
242.8645234526
 20
77.8486588862
 30
0.0
  0
SPLINE
  5
61F
100
AcDbEntity
  8
KONSTRUKTIONSELEMENTE
100
AcDbSpline
 62
7
  6
CONTINUOUS
 70
0
 71
3
 72
9
 73
5
 74
0
 42
0.0000001
 43
0.0000001
 44
0.0000000001
 40
0.0
 40
0.0
 40
0.0
 40
0.0
 40
0.5091350611
 40
1.0
 40
1.0
 40
1.0
 40
1.0
 10
242.944787667
 20
79.6939265434
 30
0.0
 10
242.9188915109
 20
79.6348375834
 30
0.0
 10
242.8785319174
 20
79.513730665
 30
0.0
 10
242.8645146287
 20
79.3866597903
 30
0.0
 10
242.8645157666
 20
79.3244604036
 30
0.0
  0
SPLINE
  5
620
100
AcDbEntity
  8
KONSTRUKTIONSELEMENTE
100
AcDbSpline
 62
7
  6
CONTINUOUS
 70
0
 71
3
 72
9
 73
5
 74
0
 42
0.0000001
 43
0.0000001
 44
0.0000000001
 40
0.0
 40
0.0
 40
0.0
 40
0.0
 40
0.5091350611
 40
1.0
 40
1.0
 40
1.0
 40
1.0
 10
242.944787667
 20
83.6469711479
 30
0.0
 10
242.9188915109
 20
83.5878821879
 30
0.0
 10
242.8785319174
 20
83.4667752695
 30
0.0
 10
242.8645146287
 20
83.3397043947
 30
0.0
 10
242.8645157666
 20
83.2775050081
 30
0.0
  0
SPLINE
  5
621
100
AcDbEntity
  8
KONSTRUKTIONSELEMENTE
100
AcDbSpline
 62
7
  6
CONTINUOUS
 70
0
 71
3
 72
15
 73
11
 74
0
 42
0.0000001
 43
0.0000001
 44
0.0000000001
 40
0.0
 40
0.0
 40
0.0
 40
0.0
 40
0.1224903249
 40
0.2453022974
 40
0.3686968641
 40
0.4929275895
 40
0.6181526896
 40
0.7444478857
 40
0.8717773692
 40
1.0
 40
1.0
 40
1.0
 40
1.0
 10
230.0145157113
 20
115.0303131106
 30
0.0
 10
230.0145157113
 20
115.8977830186
 30
0.0
 10
230.163691611
 20
117.6386160349
 30
0.0
 10
230.827504809
 20
120.1762429641
 30
0.0
 10
231.9118243571
 20
122.5786027442
 30
0.0
 10
233.3847537161
 20
124.7841677974
 30
0.0
 10
235.2056432038
 20
126.7399764801
 30
0.0
 10
237.326355071
 20
128.4010544239
 30
0.0
 10
239.6924810433
 20
129.7304932562
 30
0.0
 10
241.3918380852
 20
130.3752969132
 30
0.0
 10
242.2620471454
 20
130.6347572614
 30
0.0
  0
SPLINE
  5
622
100
AcDbEntity
  8
KONSTRUKTIONSELEMENTE
100
AcDbSpline
 62
7
  6
CONTINUOUS
 70
0
 71
3
 72
15
 73
11
 74
0
 42
0.0000001
 43
0.0000001
 44
0.0000000001
 40
0.0
 40
0.0
 40
0.0
 40
0.0
 40
0.1282228991
 40
0.2555520087
 40
0.3818463012
 40
0.5070704988
 40
0.6313005113
 40
0.7546950386
 40
0.8775076977
 40
1.0
 40
1.0
 40
1.0
 40
1.0
 10
253.0669900972
 20
130.6347628891
 30
0.0
 10
253.9372018691
 20
130.3753055045
 30
0.0
 10
255.636553878
 20
129.7304893858
 30
0.0
 10
258.0026701268
 20
128.401051201
 30
0.0
 10
260.1233721331
 20
126.7399866864
 30
0.0
 10
261.9442543214
 20
124.7841966541
 30
0.0
 10
263.4171863584
 20
122.5786479783
 30
0.0
 10
264.501510967
 20
120.1762912975
 30
0.0
 10
265.1653359324
 20
117.6386486692
 30
0.0
 10
265.3145157113
 20
115.8977968815
 30
0.0
 10
265.3145157113
 20
115.0303131106
 30
0.0
  0
SPLINE
  5
623
100
AcDbEntity
  8
KONSTRUKTIONSELEMENTE
100
AcDbSpline
 62
7
  6
CONTINUOUS
 70
0
 71
3
 72
12
 73
8
 74
0
 42
0.0000001
 43
0.0000001
 44
0.0000000001
 40
0.0
 40
0.0
 40
0.0
 40
0.0
 40
0.2345878371
 40
0.3545460518
 40
0.4770704011
 40
0.7315406079
 40
1.0
 40
1.0
 40
1.0
 40
1.0
 10
238.4145157113
 20
115.0303131106
 30
0.0
 10
238.4145157113
 20
115.6442730629
 30
0.0
 10
238.5420247207
 20
116.577998183
 30
0.0
 10
238.9523396846
 20
117.7598715963
 30
0.0
 10
239.536370627
 20
118.9259190839
 30
0.0
 10
240.5805581035
 20
120.2772050191
 30
0.0
 10
241.6650953316
 20
121.1357602302
 30
0.0
 10
242.2612032281
 20
121.5076654925
 30
0.0
  0
SPLINE
  5
624
100
AcDbEntity
  8
KONSTRUKTIONSELEMENTE
100
AcDbSpline
 62
7
  6
CONTINUOUS
 70
0
 71
3
 72
12
 73
8
 74
0
 42
0.0000001
 43
0.0000001
 44
0.0000000001
 40
0.0
 40
0.0
 40
0.0
 40
0.0
 40
0.2684618482
 40
0.522933173
 40
0.6454566798
 40
0.7654151424
 40
1.0
 40
1.0
 40
1.0
 40
1.0
 10
253.0677271068
 20
121.507727014
 30
0.0
 10
253.663857686
 20
121.1358260297
 30
0.0
 10
254.7484250106
 20
120.2772570066
 30
0.0
 10
255.7926406027
 20
118.9259522197
 30
0.0
 10
256.3766878785
 20
117.7598890818
 30
0.0
 10
256.7870036608
 20
116.5780058431
 30
0.0
 10
256.9145157113
 20
115.6442744854
 30
0.0
 10
256.9145157113
 20
115.0303131106
 30
0.0
  0
SPLINE
  5
625
100
AcDbEntity
  8
KONSTRUKTIONSELEMENTE
100
AcDbSpline
 62
7
  6
CONTINUOUS
 70
0
 71
3
 72
14
 73
10
 74
0
 42
0.0000001
 43
0.0000001
 44
0.0000000001
 40
0.0
 40
0.0
 40
0.0
 40
0.0
 40
0.1159072263
 40
0.2332525669
 40
0.3525892532
 40
0.4748787827
 40
0.600719662
 40
0.7303361772
 40
1.0
 40
1.0
 40
1.0
 40
1.0
 10
256.9145157113
 20
104.6077735597
 30
0.0
 10
256.9145157113
 20
104.2774451887
 30
0.0
 10
256.8658669175
 20
103.6117319057
 30
0.0
 10
256.6490359278
 20
102.6271793128
 30
0.0
 10
256.2872669941
 20
101.6664806609
 30
0.0
 10
255.7831134381
 20
100.7448245519
 30
0.0
 10
255.1408090623
 20
99.8765475646
 30
0.0
 10
254.096780034
 20
98.7998642997
 30
0.0
 10
253.1473355323
 20
98.144009082
 30
0.0
 10
252.4674813705
 20
97.7856389803
 30
0.0
  0
SPLINE
  5
626
100
AcDbEntity
  8
KONSTRUKTIONSELEMENTE
100
AcDbSpline
 62
7
  6
CONTINUOUS
 70
0
 71
3
 72
14
 73
10
 74
0
 42
0.0000001
 43
0.0000001
 44
0.0000000001
 40
0.0
 40
0.0
 40
0.0
 40
0.0
 40
0.2696655214
 40
0.399282864
 40
0.5251241814
 40
0.6474129394
 40
0.7667497392
 40
0.8840954722
 40
1.0
 40
1.0
 40
1.0
 40
1.0
 10
242.8614562317
 20
97.785692861
 30
0.0
 10
242.1816129134
 20
98.1440729156
 30
0.0
 10
241.2321779298
 20
98.799927125
 30
0.0
 10
240.1881673057
 20
99.8766143282
 30
0.0
 10
239.5458806
 20
100.7448885744
 30
0.0
 10
239.0417369225
 20
101.6665340615
 30
0.0
 10
238.6799826582
 20
102.6272237534
 30
0.0
 10
238.4631640862
 20
103.6117591387
 30
0.0
 10
238.4145157113
 20
104.277457088
 30
0.0
 10
238.4145157113
 20
104.6077735597
 30
0.0
  0
SPLINE
  5
627
100
AcDbEntity
  8
KONSTRUKTIONSELEMENTE
100
AcDbSpline
 62
7
  6
CONTINUOUS
 70
0
 71
3
 72
15
 73
11
 74
0
 42
0.0000001
 43
0.0000001
 44
0.0000000001
 40
0.0
 40
0.0
 40
0.0
 40
0.0
 40
0.1223936469
 40
0.2451234959
 40
0.3684706763
 40
0.492693398
 40
0.6179521962
 40
0.7443122365
 40
0.8717179047
 40
1.0
 40
1.0
 40
1.0
 40
1.0
 10
265.3145157113
 20
104.6077735597
 30
0.0
 10
265.3145157113
 20
103.7155438687
 30
0.0
 10
265.1566556306
 20
101.9246993479
 30
0.0
 10
264.4545593647
 20
99.3185597514
 30
0.0
 10
263.3091200245
 20
96.8594488583
 30
0.0
 10
261.7557983398
 20
94.6138147161
 30
0.0
 10
259.8398380645
 20
92.6384235844
 30
0.0
 10
257.6145106458
 20
90.9810270628
 30
0.0
 10
255.1398580485
 20
89.6803446712
 30
0.0
 10
253.369216871
 20
89.0716924962
 30
0.0
 10
252.4645997537
 20
88.8346614546
 30
0.0
  0
SPLINE
  5
628
100
AcDbEntity
  8
KONSTRUKTIONSELEMENTE
100
AcDbSpline
 62
7
  6
CONTINUOUS
 70
0
 71
3
 72
15
 73
11
 74
0
 42
0.0000001
 43
0.0000001
 44
0.0000000001
 40
0.0
 40
0.0
 40
0.0
 40
0.0
 40
0.1282818386
 40
0.255686367
 40
0.3820448372
 40
0.5073023493
 40
0.6315243982
 40
0.7548719925
 40
0.877603344
 40
1.0
 40
1.0
 40
1.0
 40
1.0
 10
242.8577603931
 20
88.8364120658
 30
0.0
 10
241.9535123436
 20
89.0736840597
 30
0.0
 10
240.1836619599
 20
89.6827863746
 30
0.0
 10
237.7102084577
 20
90.9837958436
 30
0.0
 10
235.4860488235
 20
92.64124231
 30
0.0
 10
233.5711534376
 20
94.6164150179
 30
0.0
 10
232.0187255185
 20
96.8616013153
 30
0.0
 10
230.8739640736
 20
99.3200885859
 30
0.0
 10
230.1722826535
 20
101.9254902318
 30
0.0
 10
230.0145157113
 20
103.7158024577
 30
0.0
 10
230.0145157113
 20
104.6077735597
 30
0.0
  0
SPLINE
  5
629
100
AcDbEntity
  8
KONSTRUKTIONSELEMENTE
100
AcDbSpline
 62
7
  6
CONTINUOUS
 70
0
 71
3
 72
9
 73
5
 74
0
 42
0.0000001
 43
0.0000001
 44
0.0000000001
 40
0.0
 40
0.0
 40
0.0
 40
0.0
 40
0.2523246564
 40
1.0
 40
1.0
 40
1.0
 40
1.0
 10
247.6645157113
 20
45.0107156873
 30
0.0
 10
247.5472471707
 20
45.0107156873
 30
0.0
 10
247.0825312278
 20
45.0037352198
 30
0.0
 10
246.6181418996
 20
44.969498653
 30
0.0
 10
246.2732337878
 20
44.9272663499
 30
0.0
  0
SPLINE
  5
62A
100
AcDbEntity
  8
KONSTRUKTIONSELEMENTE
100
AcDbSpline
 62
7
  6
CONTINUOUS
 70
0
 71
3
 72
10
 73
6
 74
0
 42
0.0000001
 43
0.0000001
 44
0.0000000001
 40
0.0
 40
0.0
 40
0.0
 40
0.0
 40
0.290726903
 40
0.5535964158
 40
1.0
 40
1.0
 40
1.0
 40
1.0
 10
243.755358299
 20
44.21511526
 30
0.0
 10
243.6441333481
 20
44.1561709677
 30
0.0
 10
243.436990402
 20
44.0340746201
 30
0.0
 10
243.0913580431
 20
43.7736918147
 30
0.0
 10
242.8817234953
 20
43.5378975849
 30
0.0
 10
242.7898761504
 20
43.3678314302
 30
0.0
  0
SPLINE
  5
62B
100
AcDbEntity
  8
KONSTRUKTIONSELEMENTE
100
AcDbSpline
 62
7
  6
CONTINUOUS
 70
0
 71
3
 72
9
 73
5
 74
0
 42
0.0000001
 43
0.0000001
 44
0.0000000001
 40
0.0
 40
0.0
 40
0.0
 40
0.0
 40
0.5133593245
 40
1.0
 40
1.0
 40
1.0
 40
1.0
 10
242.7898761504
 20
43.3678314302
 30
0.0
 10
242.7499949117
 20
43.2939866289
 30
0.0
 10
242.6869900811
 20
43.1413121359
 30
0.0
 10
242.6645157113
 20
42.9771822772
 30
0.0
 10
242.6645157113
 20
42.8976243786
 30
0.0
  0
SPLINE
  5
62C
100
AcDbEntity
  8
KONSTRUKTIONSELEMENTE
100
AcDbSpline
 62
7
  6
CONTINUOUS
 70
0
 71
3
 72
9
 73
5
 74
0
 42
0.0000001
 43
0.0000001
 44
0.0000000001
 40
0.0
 40
0.0
 40
0.0
 40
0.0
 40
0.2523246564
 40
1.0
 40
1.0
 40
1.0
 40
1.0
 10
247.6645157113
 20
30.2190765264
 30
0.0
 10
247.5472471707
 20
30.2190765264
 30
0.0
 10
247.0825312278
 20
30.2120960589
 30
0.0
 10
246.6181418997
 20
30.1778594921
 30
0.0
 10
246.2732337878
 20
30.135627189
 30
0.0
  0
SPLINE
  5
62D
100
AcDbEntity
  8
KONSTRUKTIONSELEMENTE
100
AcDbSpline
 62
7
  6
CONTINUOUS
 70
0
 71
3
 72
10
 73
6
 74
0
 42
0.0000001
 43
0.0000001
 44
0.0000000001
 40
0.0
 40
0.0
 40
0.0
 40
0.0
 40
0.290726903
 40
0.5535964158
 40
1.0
 40
1.0
 40
1.0
 40
1.0
 10
243.755358299
 20
29.4234760991
 30
0.0
 10
243.6441333481
 20
29.3645318068
 30
0.0
 10
243.436990402
 20
29.2424354592
 30
0.0
 10
243.0913580431
 20
28.9820526538
 30
0.0
 10
242.8817234953
 20
28.746258424
 30
0.0
 10
242.7898761504
 20
28.5761922692
 30
0.0
  0
SPLINE
  5
62E
100
AcDbEntity
  8
KONSTRUKTIONSELEMENTE
100
AcDbSpline
 62
7
  6
CONTINUOUS
 70
0
 71
3
 72
9
 73
5
 74
0
 42
0.0000001
 43
0.0000001
 44
0.0000000001
 40
0.0
 40
0.0
 40
0.0
 40
0.0
 40
0.5133593245
 40
1.0
 40
1.0
 40
1.0
 40
1.0
 10
242.7898761504
 20
28.5761922692
 30
0.0
 10
242.7499949117
 20
28.502347468
 30
0.0
 10
242.6869900811
 20
28.349672975
 30
0.0
 10
242.6645157113
 20
28.1855431163
 30
0.0
 10
242.6645157113
 20
28.1059852177
 30
0.0
  0
SPLINE
  5
62F
100
AcDbEntity
  8
KONSTRUKTIONSELEMENTE
100
AcDbSpline
 62
7
  6
CONTINUOUS
 70
0
 71
3
 72
13
 73
9
 74
0
 42
0.0000001
 43
0.0000001
 44
0.0000000001
 40
0.0
 40
0.0
 40
0.0
 40
0.0
 40
0.3152346971
 40
0.5843498804
 40
0.701904567
 40
0.8091048975
 40
0.90762294
 40
1.0
 40
1.0
 40
1.0
 40
1.0
 10
224.5626307024
 20
36.8502673554
 30
0.0
 10
224.3718825073
 20
36.778217958
 30
0.0
 10
224.0255287515
 20
36.623888102
 30
0.0
 10
223.6435129433
 20
36.3722409925
 30
0.0
 10
223.4125440059
 20
36.1502987782
 30
0.0
 10
223.2834799948
 20
35.9846630145
 30
0.0
 10
223.1922972126
 20
35.8135755969
 30
0.0
 10
223.1569773699
 20
35.6940910308
 30
0.0
 10
223.1466811917
 20
35.6352329527
 30
0.0
  0
SPLINE
  5
630
100
AcDbEntity
  8
KONSTRUKTIONSELEMENTE
100
AcDbSpline
 62
7
  6
CONTINUOUS
 70
0
 71
3
 72
15
 73
11
 74
0
 42
0.0000001
 43
0.0000001
 44
0.0000000001
 40
0.0
 40
0.0
 40
0.0
 40
0.0
 40
0.1648524831
 40
0.3248550466
 40
0.475525401
 40
0.613119151
 40
0.7346823308
 40
0.8386616911
 40
0.9257047119
 40
1.0
 40
1.0
 40
1.0
 40
1.0
 10
263.6237853546
 20
39.3177431575
 30
0.0
 10
263.3910662691
 20
39.3166832035
 30
0.0
 10
262.9323424728
 20
39.2967784541
 30
0.0
 10
262.2654144287
 20
39.2140929905
 30
0.0
 10
261.6456970406
 20
39.0815150882
 30
0.0
 10
261.0939105752
 20
38.9037138418
 30
0.0
 10
260.6276880392
 20
38.6865373439
 30
0.0
 10
260.2613209907
 20
38.435818079
 30
0.0
 10
260.0048536881
 20
38.1568144157
 30
0.0
 10
259.9131725466
 20
37.9407744859
 30
0.0
 10
259.8951916921
 20
37.8374449652
 30
0.0
  0
SPLINE
  5
631
100
AcDbEntity
  8
AUSFORMSCHRAEGEN
100
AcDbSpline
 62
7
  6
CONTINUOUS
 70
0
 71
3
 72
17
 73
13
 74
0
 42
0.0000001
 43
0.0000001
 44
0.0000000001
 40
0.0
 40
0.0
 40
0.0
 40
0.0
 40
0.1644765361
 40
0.3243141711
 40
0.4749760365
 40
0.6126470851
 40
0.7342979255
 40
0.8383259737
 40
0.8838883843
 40
0.9255424976
 40
0.9639280736
 40
1.0
 40
1.0
 40
1.0
 40
1.0
 10
259.4145157113
 20
37.3103991684
 30
0.0
 10
259.1490125292
 20
37.3103991684
 30
0.0
 10
258.6252522967
 20
37.2899096085
 30
0.0
 10
257.8631376189
 20
37.19850724
 30
0.0
 10
257.1541126055
 20
37.0496686178
 30
0.0
 10
256.5220407961
 20
36.8487179582
 30
0.0
 10
255.9879328807
 20
36.6024112386
 30
0.0
 10
255.6225973502
 20
36.3550778862
 30
0.0
 10
255.4018985095
 20
36.1380394143
 30
0.0
 10
255.2783618717
 20
35.9762264929
 30
0.0
 10
255.1908907683
 20
35.809340073
 30
0.0
 10
255.156852543
 20
35.6929901305
 30
0.0
 10
255.1467730276
 20
35.6356407278
 30
0.0
  0
SPLINE
  5
632
100
AcDbEntity
  8
KONSTRUKTIONSELEMENTE
100
AcDbSpline
 62
7
  6
CONTINUOUS
 70
0
 71
3
 72
10
 73
6
 74
0
 42
0.0000001
 43
0.0000001
 44
0.0000000001
 40
0.0
 40
0.0
 40
0.0
 40
0.0
 40
0.2459651099
 40
0.4963435431
 40
1.0
 40
1.0
 40
1.0
 40
1.0
 10
225.1712269519
 20
38.9216607615
 30
0.0
 10
225.3033651149
 20
38.9798755932
 30
0.0
 10
225.5787857197
 20
39.0773528214
 30
0.0
 10
226.1463855401
 20
39.2279734251
 30
0.0
 10
226.5838447676
 20
39.3029445966
 30
0.0
 10
226.8773052581
 20
39.3390293948
 30
0.0
  0
SPLINE
  5
633
100
AcDbEntity
  8
KONSTRUKTIONSELEMENTE
100
AcDbSpline
 62
7
  6
CONTINUOUS
 70
0
 71
3
 72
13
 73
9
 74
0
 42
0.0000001
 43
0.0000001
 44
0.0000000001
 40
0.0
 40
0.0
 40
0.0
 40
0.0
 40
0.2519639214
 40
0.497550877
 40
0.621689694
 40
0.7470276068
 40
0.8732586415
 40
1.0
 40
1.0
 40
1.0
 40
1.0
 10
210.8447458875
 20
27.7729978938
 30
0.0
 10
210.5317234032
 20
27.8084446293
 30
0.0
 10
209.9177903012
 20
27.9396699863
 30
0.0
 10
209.2147857691
 20
28.3017276362
 30
0.0
 10
208.7547901106
 20
28.7209040411
 30
0.0
 10
208.4725942673
 20
29.1004168826
 30
0.0
 10
208.2720487211
 20
29.5324079261
 30
0.0
 10
208.2015191137
 20
29.8436646564
 30
0.0
 10
208.1832877685
 20
30.0010733783
 30
0.0
  0
SPLINE
  5
634
100
AcDbEntity
  8
KONSTRUKTIONSELEMENTE
100
AcDbSpline
 62
7
  6
CONTINUOUS
 70
0
 71
3
 72
11
 73
7
 74
0
 42
0.0000001
 43
0.0000001
 44
0.0000000001
 40
0.0
 40
0.0
 40
0.0
 40
0.0
 40
0.2320662958
 40
0.4762389873
 40
0.733965645
 40
1.0
 40
1.0
 40
1.0
 40
1.0
 10
227.4810094592
 20
28.2193236724
 30
0.0
 10
227.2106904433
 20
28.0530819059
 30
0.0
 10
226.61912054
 20
27.7704212763
 30
0.0
 10
225.653825523
 20
27.48525943
 30
0.0
 10
224.6151490919
 20
27.3154276111
 30
0.0
 10
223.8983127762
 20
27.2779054303
 30
0.0
 10
223.5345157551
 20
27.2779054288
 30
0.0
  0
SPLINE
  5
635
100
AcDbEntity
  8
KONSTRUKTIONSELEMENTE
100
AcDbSpline
 62
7
  6
CONTINUOUS
 70
0
 71
3
 72
22
 73
18
 74
0
 42
0.0000001
 43
0.0000001
 44
0.0000000001
 40
0.0
 40
0.0
 40
0.0
 40
0.0
 40
0.0561052101
 40
0.1205519298
 40
0.1914953637
 40
0.2673173817
 40
0.4274868381
 40
0.5892897855
 40
0.7409540005
 40
0.8092268841
 40
0.8702379091
 40
0.9220802387
 40
0.9625630444
 40
0.9777878961
 40
0.9891679348
 40
0.9964870949
 40
1.0
 40
1.0
 40
1.0
 40
1.0
 10
227.6454912315
 20
28.3045378625
 30
0.0
 10
227.8410816769
 20
28.3962053219
 30
0.0
 10
228.2724437192
 20
28.5697436418
 30
0.0
 10
228.9779013921
 20
28.7862405861
 30
0.0
 10
229.7712751547
 20
28.9676621846
 30
0.0
 10
230.9385956541
 20
29.1556053763
 30
0.0
 10
232.4701296547
 20
29.2621536401
 30
0.0
 10
234.2954663157
 20
29.1907335285
 30
0.0
 10
235.7525609513
 20
28.9680111467
 30
0.0
 10
236.7998467784
 20
28.6941771813
 30
0.0
 10
237.4595938728
 20
28.4655332878
 30
0.0
 10
237.9980893327
 20
28.2216633706
 30
0.0
 10
238.3557235954
 20
28.0101552364
 30
0.0
 10
238.5609844112
 20
27.8530242872
 30
0.0
 10
238.6586098806
 20
27.7659765479
 30
0.0
 10
238.7167712691
 20
27.7031550356
 30
0.0
 10
238.7422692989
 20
27.6700136144
 30
0.0
 10
238.7495113493
 20
27.6585912148
 30
0.0
  0
SPLINE
  5
636
100
AcDbEntity
  8
KONSTRUKTIONSELEMENTE
100
AcDbSpline
 62
7
  6
CONTINUOUS
 70
0
 71
3
 72
13
 73
9
 74
0
 42
0.0000001
 43
0.0000001
 44
0.0000000001
 40
0.0
 40
0.0
 40
0.0
 40
0.0
 40
0.270332349
 40
0.3993673824
 40
0.5238049607
 40
0.7623876698
 40
0.8802779945
 40
1.0
 40
1.0
 40
1.0
 40
1.0
 10
243.8641163285
 20
24.3508572535
 30
0.0
 10
243.4250238184
 20
24.3853803831
 30
0.0
 10
242.7780592704
 20
24.4786646431
 30
0.0
 10
241.9528063439
 20
24.7000020115
 30
0.0
 10
241.1994320051
 20
24.9753709278
 30
0.0
 10
240.5052519211
 20
25.3597437198
 30
0.0
 10
239.924134763
 20
25.878252997
 30
0.0
 10
239.6836430092
 20
26.1852481005
 30
0.0
 10
239.5791943363
 20
26.3499879732
 30
0.0
  0
SPLINE
  5
637
100
AcDbEntity
  8
KONSTRUKTIONSELEMENTE
100
AcDbSpline
 62
7
  6
CONTINUOUS
 70
0
 71
3
 72
13
 73
9
 74
0
 42
0.0000001
 43
0.0000001
 44
0.0000000001
 40
0.0
 40
0.0
 40
0.0
 40
0.0
 40
0.1197146777
 40
0.2376133301
 40
0.4761846581
 40
0.6006275674
 40
0.7296650348
 40
1.0
 40
1.0
 40
1.0
 40
1.0
 10
255.7498370978
 20
26.3499879914
 30
0.0
 10
255.6453948859
 20
26.1852583065
 30
0.0
 10
255.4048975461
 20
25.8782672489
 30
0.0
 10
254.82380971
 20
25.3597495142
 30
0.0
 10
254.1296127532
 20
24.9754015165
 30
0.0
 10
253.3762571581
 20
24.7000021715
 30
0.0
 10
252.5509843354
 20
24.4786718111
 30
0.0
 10
251.9040138024
 20
24.3853809337
 30
0.0
 10
251.4649173434
 20
24.3508572467
 30
0.0
  0
SPLINE
  5
638
100
AcDbEntity
  8
KONSTRUKTIONSELEMENTE
100
AcDbSpline
 62
7
  6
CONTINUOUS
 70
0
 71
3
 72
22
 73
18
 74
0
 42
0.0000001
 43
0.0000001
 44
0.0000000001
 40
0.0
 40
0.0
 40
0.0
 40
0.0
 40
0.0035204876
 40
0.0108341731
 40
0.0222087715
 40
0.03743352
 40
0.0779130804
 40
0.1297492149
 40
0.1907535961
 40
0.259019837
 40
0.4106731523
 40
0.5724705623
 40
0.7326425399
 40
0.8084696204
 40
0.8794213592
 40
0.9438788508
 40
1.0
 40
1.0
 40
1.0
 40
1.0
 10
256.5795200734
 20
27.6585912148
 30
0.0
 10
256.5867771676
 20
27.6700373421
 30
0.0
 10
256.6122715633
 20
27.7031875858
 30
0.0
 10
256.6704303296
 20
27.7659856165
 30
0.0
 10
256.768021724
 20
27.8529904519
 30
0.0
 10
256.9732348523
 20
28.0100932568
 30
0.0
 10
257.330790954
 20
28.221594593
 30
0.0
 10
257.8691839061
 20
28.4654268037
 30
0.0
 10
258.5287950496
 20
28.6940583896
 30
0.0
 10
259.575895145
 20
28.9678890741
 30
0.0
 10
261.0327716104
 20
29.190653596
 30
0.0
 10
262.8579028706
 20
29.2621605723
 30
0.0
 10
264.3893265123
 20
29.1557225321
 30
0.0
 10
265.5566279339
 20
28.9678790367
 30
0.0
 10
266.3500443787
 20
28.7865251628
 30
0.0
 10
267.0556004652
 20
28.5700932553
 30
0.0
 10
267.4870451456
 20
28.396586998
 30
0.0
 10
267.6826910336
 20
28.3049344852
 30
0.0
  0
SPLINE
  5
639
100
AcDbEntity
  8
KONSTRUKTIONSELEMENTE
100
AcDbSpline
 62
7
  6
CONTINUOUS
 70
0
 71
3
 72
11
 73
7
 74
0
 42
0.0000001
 43
0.0000001
 44
0.0000000001
 40
0.0
 40
0.0
 40
0.0
 40
0.0
 40
0.2660364167
 40
0.5237647305
 40
0.7679300167
 40
1.0
 40
1.0
 40
1.0
 40
1.0
 10
271.7945157115
 20
27.2779054288
 30
0.0
 10
271.4307160536
 20
27.2779054288
 30
0.0
 10
270.7138746254
 20
27.3154263736
 30
0.0
 10
269.6752054225
 20
27.4852650121
 30
0.0
 10
268.7099104914
 20
27.7704164784
 30
0.0
 10
268.118348768
 20
28.053081472
 30
0.0
 10
267.8480241678
 20
28.2193234801
 30
0.0
  0
SPLINE
  5
63A
100
AcDbEntity
  8
KONSTRUKTIONSELEMENTE
100
AcDbSpline
 62
7
  6
CONTINUOUS
 70
0
 71
3
 72
15
 73
11
 74
0
 42
0.0000001
 43
0.0000001
 44
0.0000000001
 40
0.0
 40
0.0
 40
0.0
 40
0.0
 40
0.1265834042
 40
0.2526899681
 40
0.3779576588
 40
0.501953376
 40
0.6249848663
 40
0.7479834508
 40
0.8728862147
 40
1.0
 40
1.0
 40
1.0
 40
1.0
 10
287.1457530836
 20
30.001476552
 30
0.0
 10
287.1275556831
 20
29.8440648389
 30
0.0
 10
287.057066432
 20
29.5327564478
 30
0.0
 10
286.8565377277
 20
29.1006021828
 30
0.0
 10
286.5743686813
 20
28.7208633496
 30
0.0
 10
286.2276336212
 20
28.4055143771
 30
0.0
 10
285.8343492482
 20
28.1568700068
 30
0.0
 10
285.406905982
 20
27.9714441144
 30
0.0
 10
284.9543435601
 20
27.8425459701
 30
0.0
 10
284.6423990607
 20
27.7909027065
 30
0.0
 10
284.4842855932
 20
27.7729979003
 30
0.0
  0
SPLINE
  5
63B
100
AcDbEntity
  8
KONSTRUKTIONSELEMENTE
100
AcDbSpline
 62
7
  6
CONTINUOUS
 70
0
 71
3
 72
14
 73
10
 74
0
 42
0.0000001
 43
0.0000001
 44
0.0000000001
 40
0.0
 40
0.0
 40
0.0
 40
0.0
 40
0.1261093045
 40
0.2516249971
 40
0.3760059511
 40
0.4990795354
 40
0.7445935215
 40
0.8712248738
 40
1.0
 40
1.0
 40
1.0
 40
1.0
 10
287.1457482891
 20
44.1165266904
 30
0.0
 10
287.1249812693
 20
43.9373465012
 30
0.0
 10
287.0392533817
 20
43.5834476481
 30
0.0
 10
286.7894227186
 20
43.1017728088
 30
0.0
 10
286.4392351875
 20
42.6933387647
 30
0.0
 10
285.874568725
 20
42.2637677682
 30
0.0
 10
285.2009587217
 20
42.0021405584
 30
0.0
 10
284.4945610736
 20
41.8789988703
 30
0.0
 10
284.1287084349
 20
41.858235461
 30
0.0
 10
283.9445157686
 20
41.8582354588
 30
0.0
  0
SPLINE
  5
63C
100
AcDbEntity
  8
KONSTRUKTIONSELEMENTE
100
AcDbSpline
 62
7
  6
CONTINUOUS
 70
0
 71
3
 72
14
 73
10
 74
0
 42
0.0000001
 43
0.0000001
 44
0.0000000001
 40
0.0
 40
0.0
 40
0.0
 40
0.0
 40
0.1288436584
 40
0.2555206335
 40
0.5010566733
 40
0.6240702448
 40
0.748428063
 40
0.8739019745
 40
1.0
 40
1.0
 40
1.0
 40
1.0
 10
211.384515712
 20
41.8582354588
 30
0.0
 10
211.2002502707
 20
41.8582354588
 30
0.0
 10
210.8342846197
 20
41.8789945625
 30
0.0
 10
210.1277905361
 20
42.0022410837
 30
0.0
 10
209.4544003497
 20
42.2640490683
 30
0.0
 10
208.889673206
 20
42.693231875
 30
0.0
 10
208.539716586
 20
43.1015492617
 30
0.0
 10
208.2899441077
 20
43.5830363964
 30
0.0
 10
208.2042160293
 20
43.9367936127
 30
0.0
 10
208.1833598344
 20
44.1159223239
 30
0.0
  0
SPLINE
  5
63D
100
AcDbEntity
  8
KONSTRUKTIONSELEMENTE
100
AcDbSpline
 62
7
  6
CONTINUOUS
 70
0
 71
3
 72
15
 73
11
 74
0
 42
0.0000001
 43
0.0000001
 44
0.0000000001
 40
0.0
 40
0.0
 40
0.0
 40
0.0
 40
0.1265834041
 40
0.252689968
 40
0.3779576586
 40
0.5019533757
 40
0.6249848659
 40
0.7479834504
 40
0.8728862145
 40
1.0
 40
1.0
 40
1.0
 40
1.0
 10
208.1832783391
 20
52.7841342757
 30
0.0
 10
208.2014757399
 20
52.9415459912
 30
0.0
 10
208.2719649925
 20
53.252854387
 30
0.0
 10
208.472493702
 20
53.6850086577
 30
0.0
 10
208.7546627555
 20
54.0647474945
 30
0.0
 10
209.101397824
 20
54.3800964682
 30
0.0
 10
209.4946822058
 20
54.6287408378
 30
0.0
 10
209.9221254811
 20
54.8141667279
 30
0.0
 10
210.3746879122
 20
54.9430648689
 30
0.0
 10
210.6866324175
 20
54.9947081296
 30
0.0
 10
210.844745888
 20
55.0126129341
 30
0.0
  0
SPLINE
  5
63E
100
AcDbEntity
  8
KONSTRUKTIONSELEMENTE
100
AcDbSpline
 62
7
  6
CONTINUOUS
 70
0
 71
3
 72
11
 73
7
 74
0
 42
0.0000001
 43
0.0000001
 44
0.0000000001
 40
0.0
 40
0.0
 40
0.0
 40
0.0
 40
0.2660364167
 40
0.5237647305
 40
0.7679300166
 40
1.0
 40
1.0
 40
1.0
 40
1.0
 10
223.5345157529
 20
55.507705399
 30
0.0
 10
223.8983154071
 20
55.5077053975
 30
0.0
 10
224.6151568278
 20
55.4701844505
 30
0.0
 10
225.6538260196
 20
55.3003458109
 30
0.0
 10
226.6191209402
 20
55.0151943454
 30
0.0
 10
227.2106826573
 20
54.7325293542
 30
0.0
 10
227.4810072549
 20
54.5662873476
 30
0.0
  0
SPLINE
  5
63F
100
AcDbEntity
  8
KONSTRUKTIONSELEMENTE
100
AcDbSpline
 62
7
  6
CONTINUOUS
 70
0
 71
3
 72
22
 73
18
 74
0
 42
0.0000001
 43
0.0000001
 44
0.0000000001
 40
0.0
 40
0.0
 40
0.0
 40
0.0
 40
0.0035204876
 40
0.0108341731
 40
0.0222087715
 40
0.03743352
 40
0.0779130803
 40
0.1297492149
 40
0.1907535961
 40
0.259019837
 40
0.4106731522
 40
0.5724705623
 40
0.7326425399
 40
0.8084696204
 40
0.8794213592
 40
0.9438788508
 40
1.0
 40
1.0
 40
1.0
 40
1.0
 10
238.7495113493
 20
55.127019613
 30
0.0
 10
238.742254255
 20
55.1155734857
 30
0.0
 10
238.7167598594
 20
55.082423242
 30
0.0
 10
238.6586010932
 20
55.0196252114
 30
0.0
 10
238.5610096988
 20
54.932620376
 30
0.0
 10
238.3557965705
 20
54.7755175711
 30
0.0
 10
237.9982404689
 20
54.5640162349
 30
0.0
 10
237.4598475168
 20
54.3201840242
 30
0.0
 10
236.8002363734
 20
54.0915524383
 30
0.0
 10
235.753136278
 20
53.8177217538
 30
0.0
 10
234.2962598126
 20
53.5949572318
 30
0.0
 10
232.4711285523
 20
53.5234502554
 30
0.0
 10
230.9397049105
 20
53.6298882956
 30
0.0
 10
229.7724034888
 20
53.8177317911
 30
0.0
 10
228.978987044
 20
53.9990856649
 30
0.0
 10
228.2734309575
 20
54.2155175725
 30
0.0
 10
227.8419862771
 20
54.3890238297
 30
0.0
 10
227.6463403891
 20
54.4806763425
 30
0.0
  0
SPLINE
  5
640
100
AcDbEntity
  8
KONSTRUKTIONSELEMENTE
100
AcDbSpline
 62
7
  6
CONTINUOUS
 70
0
 71
3
 72
13
 73
9
 74
0
 42
0.0000001
 43
0.0000001
 44
0.0000000001
 40
0.0
 40
0.0
 40
0.0
 40
0.0
 40
0.1177576853
 40
0.2339683349
 40
0.3513147642
 40
0.4719629058
 40
0.728116748
 40
1.0
 40
1.0
 40
1.0
 40
1.0
 10
239.5791943373
 20
56.435622856
 30
0.0
 10
239.6987536197
 20
56.6241956775
 30
0.0
 10
239.980070396
 20
56.9725829186
 30
0.0
 10
240.4954316301
 20
57.3997821914
 30
0.0
 10
241.0766310635
 20
57.7412050478
 30
0.0
 10
241.9424993427
 20
58.1046617442
 30
0.0
 10
243.1463448423
 20
58.3924706719
 30
0.0
 10
244.1489977864
 20
58.4660332312
 30
0.0
 10
244.6645157113
 20
58.4660332312
 30
0.0
  0
SPLINE
  5
641
100
AcDbEntity
  8
KONSTRUKTIONSELEMENTE
100
AcDbSpline
 62
7
  6
CONTINUOUS
 70
0
 71
3
 72
13
 73
9
 74
0
 42
0.0000001
 43
0.0000001
 44
0.0000000001
 40
0.0
 40
0.0
 40
0.0
 40
0.0
 40
0.2718829616
 40
0.5280313984
 40
0.6486772371
 40
0.7660322884
 40
0.8822376577
 40
1.0
 40
1.0
 40
1.0
 40
1.0
 10
250.6645157356
 20
58.4660332312
 30
0.0
 10
251.1800331723
 20
58.4660332299
 30
0.0
 10
252.1826762475
 20
58.3924739048
 30
0.0
 10
253.3865046913
 20
58.1046656045
 30
0.0
 10
254.2523813355
 20
57.7412224552
 30
0.0
 10
254.8335768966
 20
57.3997891263
 30
0.0
 10
255.3489601438
 20
56.9725933436
 30
0.0
 10
255.6302730742
 20
56.6242031392
 30
0.0
 10
255.7498370978
 20
56.4356228365
 30
0.0
  0
SPLINE
  5
642
100
AcDbEntity
  8
KONSTRUKTIONSELEMENTE
100
AcDbSpline
 62
7
  6
CONTINUOUS
 70
0
 71
3
 72
22
 73
18
 74
0
 42
0.0000001
 43
0.0000001
 44
0.0000000001
 40
0.0
 40
0.0
 40
0.0
 40
0.0
 40
0.0561052101
 40
0.1205519298
 40
0.1914953637
 40
0.2673173817
 40
0.4274868381
 40
0.5892897855
 40
0.7409540005
 40
0.8092268841
 40
0.8702379091
 40
0.9220802387
 40
0.9625630444
 40
0.9777878961
 40
0.9891679348
 40
0.9964870949
 40
1.0
 40
1.0
 40
1.0
 40
1.0
 10
267.6835401911
 20
54.4810729653
 30
0.0
 10
267.4879497457
 20
54.3894055058
 30
0.0
 10
267.0565877035
 20
54.2158671859
 30
0.0
 10
266.3511300306
 20
53.9993702416
 30
0.0
 10
265.5577562679
 20
53.8179486432
 30
0.0
 10
264.3904357685
 20
53.6300054515
 30
0.0
 10
262.8589017679
 20
53.5234571876
 30
0.0
 10
261.0335651068
 20
53.5948772993
 30
0.0
 10
259.5764704712
 20
53.8175996811
 30
0.0
 10
258.5291846441
 20
54.0914336465
 30
0.0
 10
257.8694375497
 20
54.32007754
 30
0.0
 10
257.3309420898
 20
54.5639474572
 30
0.0
 10
256.9733078272
 20
54.7754555914
 30
0.0
 10
256.7680470114
 20
54.9325865406
 30
0.0
 10
256.670421542
 20
55.0196342799
 30
0.0
 10
256.6122601535
 20
55.0824557921
 30
0.0
 10
256.5867621238
 20
55.1155972134
 30
0.0
 10
256.5795200734
 20
55.127019613
 30
0.0
  0
SPLINE
  5
643
100
AcDbEntity
  8
KONSTRUKTIONSELEMENTE
100
AcDbSpline
 62
7
  6
CONTINUOUS
 70
0
 71
3
 72
11
 73
7
 74
0
 42
0.0000001
 43
0.0000001
 44
0.0000000001
 40
0.0
 40
0.0
 40
0.0
 40
0.0
 40
0.2320662957
 40
0.4762389872
 40
0.733965645
 40
1.0
 40
1.0
 40
1.0
 40
1.0
 10
267.8480219635
 20
54.5662871554
 30
0.0
 10
268.1183409821
 20
54.7325289236
 30
0.0
 10
268.709910892
 20
55.0151895556
 30
0.0
 10
269.6752059201
 20
55.3003514028
 30
0.0
 10
270.713882363
 20
55.4701832205
 30
0.0
 10
271.4307186866
 20
55.507705399
 30
0.0
 10
271.7945157115
 20
55.507705399
 30
0.0
  0
SPLINE
  5
644
100
AcDbEntity
  8
KONSTRUKTIONSELEMENTE
100
AcDbSpline
 62
7
  6
CONTINUOUS
 70
0
 71
3
 72
13
 73
9
 74
0
 42
0.0000001
 43
0.0000001
 44
0.0000000001
 40
0.0
 40
0.0
 40
0.0
 40
0.0
 40
0.2519639208
 40
0.4975508765
 40
0.6216896937
 40
0.7470276066
 40
0.8732586415
 40
1.0
 40
1.0
 40
1.0
 40
1.0
 10
284.4842856232
 20
55.012612924
 30
0.0
 10
284.7973080987
 20
54.9771661835
 30
0.0
 10
285.4112411833
 20
54.8459408184
 30
0.0
 10
286.1142456917
 20
54.4838831644
 30
0.0
 10
286.5742413334
 20
54.0647067621
 30
0.0
 10
286.8564371659
 20
53.6851939261
 30
0.0
 10
287.0569827044
 20
53.253202891
 30
0.0
 10
287.1275123093
 20
52.9419461677
 30
0.0
 10
287.1457436542
 20
52.7845374494
 30
0.0
  0
SPLINE
  5
645
100
AcDbEntity
  8
KONSTRUKTIONSELEMENTE
100
AcDbSpline
 62
7
  6
CONTINUOUS
 70
0
 71
3
 72
15
 73
11
 74
0
 42
0.0000001
 43
0.0000001
 44
0.0000000001
 40
0.0
 40
0.0
 40
0.0
 40
0.0
 40
0.0742952881
 40
0.161338309
 40
0.2653176692
 40
0.386880849
 40
0.524474599
 40
0.6751449535
 40
0.8351475169
 40
1.0
 40
1.0
 40
1.0
 40
1.0
 10
235.4338397305
 20
37.8374449652
 30
0.0
 10
235.4158588761
 20
37.9407744859
 30
0.0
 10
235.3241777346
 20
38.1568144157
 30
0.0
 10
235.0677104319
 20
38.435818079
 30
0.0
 10
234.7013433834
 20
38.6865373439
 30
0.0
 10
234.2351208475
 20
38.9037138419
 30
0.0
 10
233.683334382
 20
39.0815150882
 30
0.0
 10
233.063616994
 20
39.2140929906
 30
0.0
 10
232.3966889499
 20
39.2967784541
 30
0.0
 10
231.9379651536
 20
39.3166832029
 30
0.0
 10
231.7052460681
 20
39.3177431575
 30
0.0
  0
SPLINE
  5
646
100
AcDbEntity
  8
AUSFORMSCHRAEGEN
100
AcDbSpline
 62
7
  6
CONTINUOUS
 70
0
 71
3
 72
17
 73
13
 74
0
 42
0.0000001
 43
0.0000001
 44
0.0000000001
 40
0.0
 40
0.0
 40
0.0
 40
0.0
 40
0.0360719264
 40
0.0744575024
 40
0.1161116157
 40
0.1616740263
 40
0.2657020745
 40
0.3873529149
 40
0.5250239635
 40
0.6756858289
 40
0.8355234639
 40
1.0
 40
1.0
 40
1.0
 40
1.0
 10
240.1822583951
 20
35.6356407278
 30
0.0
 10
240.1721788796
 20
35.6929901305
 30
0.0
 10
240.1381406544
 20
35.809340073
 30
0.0
 10
240.0506695509
 20
35.9762264929
 30
0.0
 10
239.9271329132
 20
36.1380394143
 30
0.0
 10
239.7064340724
 20
36.3550778862
 30
0.0
 10
239.341098542
 20
36.6024112386
 30
0.0
 10
238.8069906266
 20
36.8487179582
 30
0.0
 10
238.1749188172
 20
37.0496686178
 30
0.0
 10
237.4658938038
 20
37.19850724
 30
0.0
 10
236.7037791259
 20
37.2899096085
 30
0.0
 10
236.1800188934
 20
37.3103991684
 30
0.0
 10
235.9145157113
 20
37.3103991684
 30
0.0
  0
SPLINE
  5
647
100
AcDbEntity
  8
KONSTRUKTIONSELEMENTE
100
AcDbSpline
 62
7
  6
CONTINUOUS
 70
0
 71
3
 72
9
 73
5
 74
0
 42
0.0000001
 43
0.0000001
 44
0.0000000001
 40
0.0
 40
0.0
 40
0.0
 40
0.0
 40
0.4866406755
 40
1.0
 40
1.0
 40
1.0
 40
1.0
 10
252.6645157113
 20
28.1059852177
 30
0.0
 10
252.6645157113
 20
28.1855431163
 30
0.0
 10
252.6420413415
 20
28.349672975
 30
0.0
 10
252.579036511
 20
28.502347468
 30
0.0
 10
252.5391552722
 20
28.5761922692
 30
0.0
  0
SPLINE
  5
648
100
AcDbEntity
  8
KONSTRUKTIONSELEMENTE
100
AcDbSpline
 62
7
  6
CONTINUOUS
 70
0
 71
3
 72
10
 73
6
 74
0
 42
0.0000001
 43
0.0000001
 44
0.0000000001
 40
0.0
 40
0.0
 40
0.0
 40
0.0
 40
0.4464035842
 40
0.709273097
 40
1.0
 40
1.0
 40
1.0
 40
1.0
 10
252.5391552722
 20
28.5761922692
 30
0.0
 10
252.4473079273
 20
28.746258424
 30
0.0
 10
252.2376733796
 20
28.9820526538
 30
0.0
 10
251.8920410207
 20
29.2424354592
 30
0.0
 10
251.6848980745
 20
29.3645318068
 30
0.0
 10
251.5736731237
 20
29.4234760991
 30
0.0
  0
SPLINE
  5
649
100
AcDbEntity
  8
KONSTRUKTIONSELEMENTE
100
AcDbSpline
 62
7
  6
CONTINUOUS
 70
0
 71
3
 72
9
 73
5
 74
0
 42
0.0000001
 43
0.0000001
 44
0.0000000001
 40
0.0
 40
0.0
 40
0.0
 40
0.0
 40
0.4866406755
 40
1.0
 40
1.0
 40
1.0
 40
1.0
 10
252.6645157113
 20
42.8976243786
 30
0.0
 10
252.6645157113
 20
42.9771822772
 30
0.0
 10
252.6420413415
 20
43.1413121359
 30
0.0
 10
252.579036511
 20
43.2939866289
 30
0.0
 10
252.5391552722
 20
43.3678314302
 30
0.0
  0
SPLINE
  5
64A
100
AcDbEntity
  8
KONSTRUKTIONSELEMENTE
100
AcDbSpline
 62
7
  6
CONTINUOUS
 70
0
 71
3
 72
10
 73
6
 74
0
 42
0.0000001
 43
0.0000001
 44
0.0000000001
 40
0.0
 40
0.0
 40
0.0
 40
0.0
 40
0.4464035842
 40
0.709273097
 40
1.0
 40
1.0
 40
1.0
 40
1.0
 10
252.5391552722
 20
43.3678314302
 30
0.0
 10
252.4473079273
 20
43.5378975849
 30
0.0
 10
252.2376733796
 20
43.7736918147
 30
0.0
 10
251.8920410207
 20
44.0340746201
 30
0.0
 10
251.6848980745
 20
44.1561709677
 30
0.0
 10
251.5736731237
 20
44.21511526
 30
0.0
  0
SPLINE
  5
64B
100
AcDbEntity
  8
KONSTRUKTIONSELEMENTE
100
AcDbSpline
 62
7
  6
CONTINUOUS
 70
0
 71
3
 72
13
 73
9
 74
0
 42
0.0000001
 43
0.0000001
 44
0.0000000001
 40
0.0
 40
0.0
 40
0.0
 40
0.0
 40
0.0923793555
 40
0.1908999805
 40
0.2981028478
 40
0.4156610286
 40
0.6847846056
 40
1.0
 40
1.0
 40
1.0
 40
1.0
 10
272.1823501462
 20
35.6352341343
 30
0.0
 10
272.1720537162
 20
35.6940924694
 30
0.0
 10
272.1367326252
 20
35.8135774513
 30
0.0
 10
272.0455489013
 20
35.9846652169
 30
0.0
 10
271.9164870359
 20
36.1503043006
 30
0.0
 10
271.6855129671
 20
36.3722472603
 30
0.0
 10
271.3034972015
 20
36.6238605396
 30
0.0
 10
270.9571919229
 20
36.7782618045
 30
0.0
 10
270.7664583776
 20
36.8503031782
 30
0.0
  0
LINE
  5
64C
100
AcDbEntity
  8
KONSTRUKTIONSELEMENTE
100
AcDbLine
 62
7
  6
CONTINUOUS
 10
263.6645157113
 20
39.3178359116
 11
263.7124541875
 21
39.3192702654
  0
LINE
  5
64D
100
AcDbEntity
  8
KONSTRUKTIONSELEMENTE
100
AcDbLine
 62
7
  6
CONTINUOUS
 10
263.6237853546
 20
39.3177431575
 11
263.6645157113
 21
39.3178359116
  0
LINE
  5
64E
100
AcDbEntity
  8
KONSTRUKTIONSELEMENTE
100
AcDbLine
 62
7
  6
CONTINUOUS
 10
231.6645157113
 20
39.3178359116
 11
231.7052460681
 21
39.3177431575
  0
LINE
  5
64F
100
AcDbEntity
  8
KONSTRUKTIONSELEMENTE
100
AcDbLine
 62
7
  6
CONTINUOUS
 10
231.6165772352
 20
39.3192702654
 11
231.6645157113
 21
39.3178359116
  0
SPLINE
  5
650
100
AcDbEntity
  8
KONSTRUKTIONSELEMENTE
100
AcDbSpline
 62
7
  6
CONTINUOUS
 70
0
 71
3
 72
10
 73
6
 74
0
 42
0.0000001
 43
0.0000001
 44
0.0000000001
 40
0.0
 40
0.0
 40
0.0
 40
0.0
 40
0.5036571819
 40
0.7540362939
 40
1.0
 40
1.0
 40
1.0
 40
1.0
 10
268.4521259416
 20
39.3389813376
 30
0.0
 10
268.745518147
 20
39.3028914001
 30
0.0
 10
269.182875088
 20
39.2279208867
 30
0.0
 10
269.7503413341
 20
39.0773208338
 30
0.0
 10
270.0256975582
 20
38.9798632906
 30
0.0
 10
270.1578039884
 20
38.9216603251
 30
0.0
  0
SPLINE
  5
651
100
AcDbEntity
  8
KONSTRUKTIONSELEMENTE
100
AcDbSpline
 62
7
  6
CONTINUOUS
 70
0
 71
3
 72
11
 73
7
 74
0
 42
0.0000001
 43
0.0000001
 44
0.0000000001
 40
0.0
 40
0.0
 40
0.0
 40
0.0
 40
0.269736016
 40
0.5283578099
 40
0.7721008257
 40
1.0
 40
1.0
 40
1.0
 40
1.0
 10
226.5959801974
 20
37.2469682016
 30
0.0
 10
226.4103132519
 20
37.2276576215
 30
0.0
 10
226.0473062726
 20
37.1832072094
 30
0.0
 10
225.5191781033
 20
37.1011372736
 30
0.0
 10
225.0239706249
 20
36.9991451134
 30
0.0
 10
224.7102382685
 20
36.9060261888
 30
0.0
 10
224.5626966674
 20
36.8502974001
 30
0.0
  0
SPLINE
  5
652
100
AcDbEntity
  8
KONSTRUKTIONSELEMENTE
100
AcDbSpline
 62
7
  6
CONTINUOUS
 70
0
 71
3
 72
9
 73
5
 74
0
 42
0.0000001
 43
0.0000001
 44
0.0000000001
 40
0.0
 40
0.0
 40
0.0
 40
0.0
 40
0.2497102921
 40
1.0
 40
1.0
 40
1.0
 40
1.0
 10
267.8185722585
 20
39.3868562506
 30
0.0
 10
267.680818032
 20
39.390915799
 30
0.0
 10
267.1291013469
 20
39.404266902
 30
0.0
 10
266.576908227
 20
39.4049774491
 30
0.0
 10
266.1630118312
 20
39.3925927181
 30
0.0
  0
SPLINE
  5
653
100
AcDbEntity
  8
KONSTRUKTIONSELEMENTE
100
AcDbSpline
 62
7
  6
CONTINUOUS
 70
0
 71
3
 72
11
 73
7
 74
0
 42
0.0000001
 43
0.0000001
 44
0.0000000001
 40
0.0
 40
0.0
 40
0.0
 40
0.0
 40
0.2279000479
 40
0.471644636
 40
0.7302659505
 40
1.0
 40
1.0
 40
1.0
 40
1.0
 10
270.766279956
 20
36.8503180985
 30
0.0
 10
270.6187408624
 20
36.9060443931
 30
0.0
 10
270.305013011
 20
36.9991563767
 30
0.0
 10
269.8098164515
 20
37.1011466057
 30
0.0
 10
269.2817017749
 20
37.1832149359
 30
0.0
 10
268.9187053576
 20
37.227665107
 30
0.0
 10
268.7330439955
 20
37.2469723778
 30
0.0
  0
SPLINE
  5
654
100
AcDbEntity
  8
KONSTRUKTIONSELEMENTE
100
AcDbSpline
 62
7
  6
CONTINUOUS
 70
0
 71
3
 72
9
 73
5
 74
0
 42
0.0000001
 43
0.0000001
 44
0.0000000001
 40
0.0
 40
0.0
 40
0.0
 40
0.0
 40
0.2503288408
 40
1.0
 40
1.0
 40
1.0
 40
1.0
 10
229.1710722376
 20
39.3924415393
 30
0.0
 10
229.0325533048
 20
39.3965861264
 30
0.0
 10
228.4790276901
 20
39.4072788892
 30
0.0
 10
227.9252810334
 20
39.3990735895
 30
0.0
 10
227.5104464751
 20
39.3868506584
 30
0.0
  0
SPLINE
  5
655
100
AcDbEntity
  8
AUSFORMSCHRAEGEN
100
AcDbSpline
 62
7
  6
CONTINUOUS
 70
0
 71
3
 72
17
 73
13
 74
0
 42
0.0000001
 43
0.0000001
 44
0.0000000001
 40
0.0
 40
0.0
 40
0.0
 40
0.0
 40
0.1711721644
 40
0.3364791665
 40
0.4903848373
 40
0.6282683441
 40
0.7468757442
 40
0.7986304994
 40
0.8454981558
 40
0.9266677301
 40
0.9635789481
 40
1.0
 40
1.0
 40
1.0
 40
1.0
 10
235.9145157113
 20
33.6932104279
 30
0.0
 10
236.20601259
 20
33.6932104279
 30
0.0
 10
236.779350441
 20
33.717784563
 30
0.0
 10
237.6083549607
 20
33.8273321468
 30
0.0
 10
238.3678574021
 20
34.0047609571
 30
0.0
 10
239.0268840857
 20
34.2425380495
 30
0.0
 10
239.4914599827
 20
34.493734216
 30
0.0
 10
239.7840089879
 20
34.7219471785
 30
0.0
 10
239.9989484788
 20
34.9402693518
 30
0.0
 10
240.1492009795
 20
35.1877886052
 30
0.0
 10
240.199943162
 20
35.4483840373
 30
0.0
 10
240.192994773
 20
35.5745539758
 30
0.0
 10
240.1822583951
 20
35.6356407278
 30
0.0
  0
SPLINE
  5
656
100
AcDbEntity
  8
KONSTRUKTIONSELEMENTE
100
AcDbSpline
 62
7
  6
CONTINUOUS
 70
0
 71
3
 72
11
 73
7
 74
0
 42
0.0000001
 43
0.0000001
 44
0.0000000001
 40
0.0
 40
0.0
 40
0.0
 40
0.0
 40
0.3026982828
 40
0.5645005259
 40
0.792272288
 40
1.0
 40
1.0
 40
1.0
 40
1.0
 10
251.7716621582
 20
26.9008856902
 30
0.0
 10
251.9062905263
 20
26.9828504717
 30
0.0
 10
252.1480610355
 20
27.1525613775
 30
0.0
 10
252.4380818043
 20
27.4503349157
 30
0.0
 10
252.621243188
 20
27.7695260435
 30
0.0
 10
252.6645157113
 20
27.9978202312
 30
0.0
 10
252.6645157113
 20
28.1059852177
 30
0.0
  0
SPLINE
  5
657
100
AcDbEntity
  8
KONSTRUKTIONSELEMENTE
100
AcDbSpline
 62
7
  6
CONTINUOUS
 70
0
 71
3
 72
10
 73
6
 74
0
 42
0.0000001
 43
0.0000001
 44
0.0000000001
 40
0.0
 40
0.0
 40
0.0
 40
0.0
 40
0.2339713502
 40
0.4767788313
 40
1.0
 40
1.0
 40
1.0
 40
1.0
 10
267.6682414929
 20
54.4445074914
 30
0.0
 10
267.602298267
 20
54.3915522432
 30
0.0
 10
267.4802874803
 20
54.2672537576
 30
0.0
 10
267.2887298163
 20
53.9581596145
 30
0.0
 10
267.2190088102
 20
53.6817023171
 30
0.0
 10
267.2009404494
 20
53.4934376945
 30
0.0
  0
SPLINE
  5
658
100
AcDbEntity
  8
KONSTRUKTIONSELEMENTE
100
AcDbSpline
 62
7
  6
CONTINUOUS
 70
0
 71
3
 72
11
 73
7
 74
0
 42
0.0000001
 43
0.0000001
 44
0.0000000001
 40
0.0
 40
0.0
 40
0.0
 40
0.0
 40
0.0963213224
 40
0.2872178353
 40
0.5876720445
 40
1.0
 40
1.0
 40
1.0
 40
1.0
 10
273.9406389231
 20
30.7822575943
 30
0.0
 10
273.9433160781
 20
30.7819785325
 30
0.0
 10
273.9487324558
 20
30.7740944649
 30
0.0
 10
273.9522439483
 20
30.7588239855
 30
0.0
 10
273.9562279274
 20
30.7334548054
 30
0.0
 10
273.9576743335
 20
30.7137008513
 30
0.0
 10
273.9583951196
 20
30.7022010811
 30
0.0
  0
SPLINE
  5
659
100
AcDbEntity
  8
KONSTRUKTIONSELEMENTE
100
AcDbSpline
 62
7
  6
CONTINUOUS
 70
0
 71
3
 72
9
 73
5
 74
0
 42
0.0000001
 43
0.0000001
 44
0.0000000001
 40
0.0
 40
0.0
 40
0.0
 40
0.0
 40
0.2091071543
 40
1.0
 40
1.0
 40
1.0
 40
1.0
 10
273.9583951196
 20
30.7022010811
 30
0.0
 10
273.9589182636
 20
30.6938545884
 30
0.0
 10
273.9608989854
 20
30.6539071541
 30
0.0
 10
273.9613381821
 20
30.6138991271
 30
0.0
 10
273.9613381821
 20
30.5822687641
 30
0.0
  0
SPLINE
  5
65A
100
AcDbEntity
  8
KONSTRUKTIONSELEMENTE
100
AcDbSpline
 62
7
  6
CONTINUOUS
 70
0
 71
3
 72
11
 73
7
 74
0
 42
0.0000001
 43
0.0000001
 44
0.0000000001
 40
0.0
 40
0.0
 40
0.0
 40
0.0
 40
0.096336843
 40
0.2872429454
 40
0.5876929865
 40
1.0
 40
1.0
 40
1.0
 40
1.0
 10
273.9406413421
 20
36.6989126863
 30
0.0
 10
273.943318688
 20
36.6986320206
 30
0.0
 10
273.948732715
 20
36.6907471772
 30
0.0
 10
273.9522450817
 20
36.6754764011
 30
0.0
 10
273.9562278959
 20
36.6501084067
 30
0.0
 10
273.9576744093
 20
36.6303556946
 30
0.0
 10
273.9583951322
 20
36.6188568375
 30
0.0
  0
SPLINE
  5
65B
100
AcDbEntity
  8
KONSTRUKTIONSELEMENTE
100
AcDbSpline
 62
7
  6
CONTINUOUS
 70
0
 71
3
 72
9
 73
5
 74
0
 42
0.0000001
 43
0.0000001
 44
0.0000000001
 40
0.0
 40
0.0
 40
0.0
 40
0.0
 40
0.2091075576
 40
1.0
 40
1.0
 40
1.0
 40
1.0
 10
273.9583951322
 20
36.6188568375
 30
0.0
 10
273.9589182717
 20
36.6105103496
 30
0.0
 10
273.960898976
 20
36.5705630157
 30
0.0
 10
273.961338177
 20
36.5305550901
 30
0.0
 10
273.9613381821
 20
36.4989248232
 30
0.0
  0
SPLINE
  5
65C
100
AcDbEntity
  8
KONSTRUKTIONSELEMENTE
100
AcDbSpline
 62
7
  6
CONTINUOUS
 70
0
 71
3
 72
15
 73
11
 74
0
 42
0.0000001
 43
0.0000001
 44
0.0000000001
 40
0.0
 40
0.0
 40
0.0
 40
0.0
 40
0.0349199149
 40
0.0605672362
 40
0.092894474
 40
0.1785673325
 40
0.2925585164
 40
0.4338507246
 40
0.6007205182
 40
1.0
 40
1.0
 40
1.0
 40
1.0
 10
280.1138227502
 20
55.5075298752
 30
0.0
 10
280.1253808479
 20
55.5062205577
 30
0.0
 10
280.1425759615
 20
55.4911260653
 30
0.0
 10
280.1580110759
 20
55.4648731674
 30
0.0
 10
280.1770754491
 20
55.420614693
 30
0.0
 10
280.1970831576
 20
55.3458469282
 30
0.0
 10
280.2171611642
 20
55.2339666514
 30
0.0
 10
280.2339393701
 20
55.094297753
 30
0.0
 10
280.2527747265
 20
54.8593592287
 30
0.0
 10
280.2590787203
 20
54.6707666743
 30
0.0
 10
280.2612137364
 20
54.5377815488
 30
0.0
  0
SPLINE
  5
65D
100
AcDbEntity
  8
KONSTRUKTIONSELEMENTE
100
AcDbSpline
 62
7
  6
CONTINUOUS
 70
0
 71
3
 72
14
 73
10
 74
0
 42
0.0000001
 43
0.0000001
 44
0.0000000001
 40
0.0
 40
0.0
 40
0.0
 40
0.0
 40
0.3256863515
 40
0.4670817965
 40
0.5940632301
 40
0.7077742785
 40
0.8105586021
 40
0.9062641437
 40
1.0
 40
1.0
 40
1.0
 40
1.0
 10
270.7664007199
 20
34.1533422409
 30
0.0
 10
270.9906067907
 20
34.2380293452
 30
0.0
 10
271.3057053061
 20
34.3816762396
 30
0.0
 10
271.6693370511
 20
34.6259209714
 30
0.0
 10
271.8810423431
 20
34.8124757803
 30
0.0
 10
272.042009664
 20
35.0091321453
 30
0.0
 10
272.149369434
 20
35.2144801406
 30
0.0
 10
272.1999839595
 20
35.4259478642
 30
0.0
 10
272.194236469
 20
35.5672873642
 30
0.0
 10
272.1823501462
 20
35.6352341343
 30
0.0
  0
SPLINE
  5
65E
100
AcDbEntity
  8
KONSTRUKTIONSELEMENTE
100
AcDbSpline
 62
7
  6
CONTINUOUS
 70
0
 71
3
 72
11
 73
7
 74
0
 42
0.0000001
 43
0.0000001
 44
0.0000000001
 40
0.0
 40
0.0
 40
0.0
 40
0.0
 40
0.3026982424
 40
0.5645004721
 40
0.7922722505
 40
1.0
 40
1.0
 40
1.0
 40
1.0
 10
251.7716633311
 20
41.6925255652
 30
0.0
 10
251.9062915316
 20
41.7744903166
 30
0.0
 10
252.1480617393
 20
41.9442011532
 30
0.0
 10
252.4380821251
 20
42.2419745287
 30
0.0
 10
252.621243253
 20
42.5611654521
 30
0.0
 10
252.6645157113
 20
42.7894594672
 30
0.0
 10
252.6645157113
 20
42.8976243786
 30
0.0
  0
SPLINE
  5
65F
100
AcDbEntity
  8
KONSTRUKTIONSELEMENTE
100
AcDbSpline
 62
7
  6
CONTINUOUS
 70
0
 71
3
 72
16
 73
12
 74
0
 42
0.0000001
 43
0.0000001
 44
0.0000000001
 40
0.0
 40
0.0
 40
0.0
 40
0.0
 40
0.1682159854
 40
0.3309789043
 40
0.483329831
 40
0.6211376627
 40
0.7413145422
 40
0.8425743267
 40
0.9265812215
 40
0.9640694475
 40
1.0
 40
1.0
 40
1.0
 40
1.0
 10
231.7052460681
 20
31.6858664387
 30
0.0
 10
231.9493202754
 20
31.686978112
 30
0.0
 10
232.4297148152
 20
31.7087158192
 30
0.0
 10
233.1260078281
 20
31.7992526525
 30
0.0
 10
233.768128059
 20
31.9441795615
 30
0.0
 10
234.3326350912
 20
32.1377846107
 30
0.0
 10
234.7999344595
 20
32.3737195936
 30
0.0
 10
235.1549201773
 20
32.6441045704
 30
0.0
 10
235.3543109912
 20
32.9072686128
 30
0.0
 10
235.4313404882
 20
33.1240372525
 30
0.0
 10
235.4440145734
 20
33.2309246869
 30
0.0
 10
235.4440145734
 20
33.283058924
 30
0.0
  0
SPLINE
  5
660
100
AcDbEntity
  8
KONSTRUKTIONSELEMENTE
100
AcDbSpline
 62
7
  6
CONTINUOUS
 70
0
 71
3
 72
10
 73
6
 74
0
 42
0.0000001
 43
0.0000001
 44
0.0000000001
 40
0.0
 40
0.0
 40
0.0
 40
0.0
 40
0.5412589994
 40
0.7881707068
 40
1.0
 40
1.0
 40
1.0
 40
1.0
 10
270.1578039884
 20
38.9216603251
 30
0.0
 10
270.2513190638
 20
38.8804597969
 30
0.0
 10
270.3856925033
 20
38.8132153244
 30
0.0
 10
270.5353049684
 20
38.6981413023
 30
0.0
 10
270.5904126486
 20
38.6271447704
 30
0.0
 10
270.6039476411
 20
38.5895117287
 30
0.0
  0
SPLINE
  5
661
100
AcDbEntity
  8
KONSTRUKTIONSELEMENTE
100
AcDbSpline
 62
7
  6
CONTINUOUS
 70
0
 71
3
 72
18
 73
14
 74
0
 42
0.0000001
 43
0.0000001
 44
0.0000000001
 40
0.0
 40
0.0
 40
0.0
 40
0.0
 40
0.0076517418
 40
0.0137735262
 40
0.021733519
 40
0.0434539005
 40
0.0730735981
 40
0.1560126049
 40
0.2698658836
 40
0.413250186
 40
0.5842874411
 40
0.7807945822
 40
1.0
 40
1.0
 40
1.0
 40
1.0
 10
221.4147032186
 20
36.6856688571
 30
0.0
 10
221.4225567107
 20
36.6865882079
 30
0.0
 10
221.4334749218
 20
36.6993349396
 30
0.0
 10
221.4422558696
 20
36.71930616
 30
0.0
 10
221.4534609307
 20
36.7549556662
 30
0.0
 10
221.4642022581
 20
36.8152350026
 30
0.0
 10
221.4794367154
 20
36.9532969292
 30
0.0
 10
221.4888110077
 20
37.1872151422
 30
0.0
 10
221.4903720493
 20
37.5387605654
 30
0.0
 10
221.4814008171
 20
37.9812787157
 30
0.0
 10
221.4622537287
 20
38.5089238118
 30
0.0
 10
221.4328914458
 20
39.1145580431
 30
0.0
 10
221.408023477
 20
39.5434303144
 30
0.0
 10
221.3940594295
 20
39.7695209223
 30
0.0
  0
SPLINE
  5
662
100
AcDbEntity
  8
AUSFORMSCHRAEGEN
100
AcDbSpline
 62
7
  6
CONTINUOUS
 70
0
 71
3
 72
11
 73
7
 74
0
 42
0.0000001
 43
0.0000001
 44
0.0000000001
 40
0.0
 40
0.0
 40
0.0
 40
0.0
 40
0.2982337996
 40
0.5600869231
 40
0.7906280043
 40
1.0
 40
1.0
 40
1.0
 40
1.0
 10
287.0121961311
 20
35.2093299291
 30
0.0
 10
287.1003665271
 20
35.1540631032
 30
0.0
 10
287.2599895047
 20
35.039940635
 30
0.0
 10
287.4557817602
 20
34.8432758323
 30
0.0
 10
287.5881561727
 20
34.634448218
 30
0.0
 10
287.6316316249
 20
34.4842858894
 30
0.0
 10
287.6400432487
 20
34.4117176557
 30
0.0
  0
SPLINE
  5
663
100
AcDbEntity
  8
KONSTRUKTIONSELEMENTE
100
AcDbSpline
 62
7
  6
CONTINUOUS
 70
0
 71
3
 72
8
 73
4
 74
0
 42
0.0000001
 43
0.0000001
 44
0.0000000001
 40
0.0
 40
0.0
 40
0.0
 40
0.0
 40
1.0
 40
1.0
 40
1.0
 40
1.0
 10
228.5249592967
 20
49.3511243069
 30
0.0
 10
228.3928954448
 20
50.7319170308
 30
0.0
 10
228.26060594
 20
52.1126881911
 30
0.0
 10
228.1280909733
 20
53.4934376945
 30
0.0
  0
SPLINE
  5
664
100
AcDbEntity
  8
KONSTRUKTIONSELEMENTE
100
AcDbSpline
 62
7
  6
CONTINUOUS
 70
0
 71
3
 72
8
 73
4
 74
0
 42
0.0000001
 43
0.0000001
 44
0.0000000001
 40
0.0
 40
0.0
 40
0.0
 40
0.0
 40
1.0
 40
1.0
 40
1.0
 40
1.0
 10
266.8040721259
 20
49.3511243069
 30
0.0
 10
266.9361359779
 20
50.7319170308
 30
0.0
 10
267.0684254826
 20
52.1126881911
 30
0.0
 10
267.2009404494
 20
53.4934376945
 30
0.0
  0
SPLINE
  5
665
100
AcDbEntity
  8
AUSFORMSCHRAEGEN
100
AcDbSpline
 62
7
  6
CONTINUOUS
 70
0
 71
3
 72
15
 73
11
 74
0
 42
0.0000001
 43
0.0000001
 44
0.0000000001
 40
0.0
 40
0.0
 40
0.0
 40
0.0
 40
0.1698072411
 40
0.3305803567
 40
0.4791315235
 40
0.6132921133
 40
0.7316260108
 40
0.833927128
 40
0.9219077735
 40
1.0
 40
1.0
 40
1.0
 40
1.0
 10
284.9021461782
 20
49.9609365916
 30
0.0
 10
285.0858298054
 20
49.9401362168
 30
0.0
 10
285.4421874267
 20
49.8873142039
 30
0.0
 10
285.9513955762
 20
49.7718155678
 30
0.0
 10
286.4118592949
 20
49.6243208102
 30
0.0
 10
286.8125093768
 20
49.4484688055
 30
0.0
 10
287.1444007694
 20
49.2482574365
 30
0.0
 10
287.4002277904
 20
49.0271305029
 30
0.0
 10
287.5737291223
 20
48.7879345573
 30
0.0
 10
287.6302678944
 20
48.6116166406
 30
0.0
 10
287.6400513539
 20
48.5271677658
 30
0.0
  0
SPLINE
  5
666
100
AcDbEntity
  8
KONSTRUKTIONSELEMENTE
100
AcDbSpline
 62
7
  6
CONTINUOUS
 70
0
 71
3
 72
8
 73
4
 74
0
 42
0.0000001
 43
0.0000001
 44
0.0000000001
 40
0.0
 40
0.0
 40
0.0
 40
0.0
 40
1.0
 40
1.0
 40
1.0
 40
1.0
 10
267.2009404494
 20
44.9577277703
 30
0.0
 10
267.0684001219
 20
46.4221705975
 30
0.0
 10
266.9361107061
 20
47.8866361553
 30
0.0
 10
266.8040721259
 20
49.3511243069
 30
0.0
  0
SPLINE
  5
667
100
AcDbEntity
  8
AUSFORMSCHRAEGEN
100
AcDbSpline
 62
7
  6
CONTINUOUS
 70
0
 71
3
 72
12
 73
8
 74
0
 42
0.0000001
 43
0.0000001
 44
0.0000000001
 40
0.0
 40
0.0
 40
0.0
 40
0.0
 40
0.0985089661
 40
0.2068281979
 40
0.4491228232
 40
0.7176477584
 40
1.0
 40
1.0
 40
1.0
 40
1.0
 10
266.8040721259
 20
49.3511243069
 30
0.0
 10
266.9475896335
 20
49.441994068
 30
0.0
 10
267.2609894964
 20
49.6139939812
 30
0.0
 10
267.9735686124
 20
49.9195141778
 30
0.0
 10
269.0036349181
 20
50.2157665455
 30
0.0
 10
270.356841186
 20
50.4307733943
 30
0.0
 10
271.3076346056
 20
50.4790980413
 30
0.0
 10
271.7945157113
 20
50.4790980413
 30
0.0
  0
SPLINE
  5
668
100
AcDbEntity
  8
KONSTRUKTIONSELEMENTE
100
AcDbSpline
 62
7
  6
CONTINUOUS
 70
0
 71
3
 72
14
 73
10
 74
0
 42
0.0000001
 43
0.0000001
 44
0.0000000001
 40
0.0
 40
0.0
 40
0.0
 40
0.0
 40
0.093738146
 40
0.1894459361
 40
0.2922328367
 40
0.4059463802
 40
0.5329323372
 40
0.6743330568
 40
1.0
 40
1.0
 40
1.0
 40
1.0
 10
223.1466811917
 20
35.6352329527
 30
0.0
 10
223.1347950715
 20
35.5672859745
 30
0.0
 10
223.1290470311
 20
35.4259461985
 30
0.0
 10
223.1796634385
 20
35.2144781661
 30
0.0
 10
223.2870241945
 20
35.0091307893
 30
0.0
 10
223.4479878804
 20
34.8124694478
 30
0.0
 10
223.6597018683
 20
34.6259182171
 30
0.0
 10
224.0233299312
 20
34.3817034753
 30
0.0
 10
224.3383745559
 20
34.2379852408
 30
0.0
 10
224.5625633074
 20
34.1533075971
 30
0.0
  0
SPLINE
  5
669
100
AcDbEntity
  8
AUSFORMSCHRAEGEN
100
AcDbSpline
 62
7
  6
CONTINUOUS
 70
0
 71
3
 72
19
 73
15
 74
0
 42
0.0000001
 43
0.0000001
 44
0.0000000001
 40
0.0
 40
0.0
 40
0.0
 40
0.0
 40
0.0382121848
 40
0.0818264972
 40
0.1312175913
 40
0.1863419736
 40
0.2467853948
 40
0.311890059
 40
0.4525264234
 40
0.6003242433
 40
0.7463926975
 40
0.8820299796
 40
0.9436318803
 40
1.0
 40
1.0
 40
1.0
 40
1.0
 10
257.2897536445
 20
50.2494030094
 30
0.0
 10
257.3584549235
 20
50.1410450972
 30
0.0
 10
257.5360770807
 20
49.9280332383
 30
0.0
 10
257.8777484832
 20
49.6471751359
 30
0.0
 10
258.3046035917
 20
49.3891583387
 30
0.0
 10
258.8090341646
 20
49.1581590471
 30
0.0
 10
259.3824185726
 20
48.9577866436
 30
0.0
 10
260.2476478865
 20
48.7308650664
 30
0.0
 10
261.4247860441
 20
48.5521859859
 30
0.0
 10
262.8858070812
 20
48.5018637961
 30
0.0
 10
264.3264712644
 20
48.6147630115
 30
0.0
 10
265.4603480138
 20
48.8439734431
 30
0.0
 10
266.2702634216
 20
49.1094940846
 30
0.0
 10
266.6348141825
 20
49.2664371655
 30
0.0
 10
266.8040721259
 20
49.3511243069
 30
0.0
  0
SPLINE
  5
66A
100
AcDbEntity
  8
KONSTRUKTIONSELEMENTE
100
AcDbSpline
 62
7
  6
CONTINUOUS
 70
0
 71
3
 72
11
 73
7
 74
0
 42
0.0000001
 43
0.0000001
 44
0.0000000001
 40
0.0
 40
0.0
 40
0.0
 40
0.0
 40
0.207723199
 40
0.4354930008
 40
0.6972968605
 40
1.0
 40
1.0
 40
1.0
 40
1.0
 10
242.6645157113
 20
28.1059852177
 30
0.0
 10
242.6645157113
 20
27.9978112032
 30
0.0
 10
242.707796059
 20
27.7694962593
 30
0.0
 10
242.8909881992
 20
27.4502805436
 30
0.0
 10
243.1810550336
 20
27.1524874289
 30
0.0
 10
243.4228618085
 20
26.982768214
 30
0.0
 10
243.5575103402
 20
26.9007998046
 30
0.0
  0
SPLINE
  5
66B
100
AcDbEntity
  8
AUSFORMSCHRAEGEN
100
AcDbSpline
 62
7
  6
CONTINUOUS
 70
0
 71
3
 72
14
 73
10
 74
0
 42
0.0000001
 43
0.0000001
 44
0.0000000001
 40
0.0
 40
0.0
 40
0.0
 40
0.0
 40
0.3078214721
 40
0.4534492426
 40
0.5894592733
 40
0.7133447194
 40
0.8233072373
 40
0.9186001089
 40
1.0
 40
1.0
 40
1.0
 40
1.0
 10
250.6645157113
 20
53.4374258735
 30
0.0
 10
251.3089707028
 20
53.4374258735
 30
0.0
 10
252.2604997628
 20
53.3742395625
 30
0.0
 10
253.4758285553
 20
53.1544762126
 30
0.0
 10
254.2969250336
 20
52.9339025663
 30
0.0
 10
255.0229461415
 20
52.6605894457
 30
0.0
 10
255.6360211211
 20
52.3411163186
 30
0.0
 10
256.1211329792
 20
51.9831671044
 30
0.0
 10
256.3688170234
 20
51.7019344781
 30
0.0
 10
256.4600706691
 20
51.5580062327
 30
0.0
  0
SPLINE
  5
66C
100
AcDbEntity
  8
AUSFORMSCHRAEGEN
100
AcDbSpline
 62
7
  6
CONTINUOUS
 70
0
 71
3
 72
14
 73
10
 74
0
 42
0.0000001
 43
0.0000001
 44
0.0000000001
 40
0.0
 40
0.0
 40
0.0
 40
0.0
 40
0.0813998911
 40
0.1766927627
 40
0.2866552806
 40
0.4105407267
 40
0.5465507574
 40
0.6921785279
 40
1.0
 40
1.0
 40
1.0
 40
1.0
 10
238.8689607536
 20
51.5580062327
 30
0.0
 10
238.9602143993
 20
51.7019344781
 30
0.0
 10
239.2078984434
 20
51.9831671044
 30
0.0
 10
239.6930103016
 20
52.3411163186
 30
0.0
 10
240.3060852812
 20
52.6605894457
 30
0.0
 10
241.032106389
 20
52.9339025663
 30
0.0
 10
241.8532028673
 20
53.1544762126
 30
0.0
 10
243.0685316598
 20
53.3742395625
 30
0.0
 10
244.0200607198
 20
53.4374258735
 30
0.0
 10
244.6645157113
 20
53.4374258735
 30
0.0
  0
SPLINE
  5
66D
100
AcDbEntity
  8
KONSTRUKTIONSELEMENTE
100
AcDbSpline
 62
7
  6
CONTINUOUS
 70
0
 71
3
 72
11
 73
7
 74
0
 42
0.0000001
 43
0.0000001
 44
0.0000000001
 40
0.0
 40
0.0
 40
0.0
 40
0.0
 40
0.2077232401
 40
0.4354930598
 40
0.6972969047
 40
1.0
 40
1.0
 40
1.0
 40
1.0
 10
242.6645157113
 20
42.8976243786
 30
0.0
 10
242.6645157113
 20
42.7894504464
 30
0.0
 10
242.7077959877
 20
42.5611356916
 30
0.0
 10
242.8909878476
 20
42.2419202001
 30
0.0
 10
243.1810542621
 20
41.9441272638
 30
0.0
 10
243.4228607065
 20
41.7744081246
 30
0.0
 10
243.5575090544
 20
41.6924397483
 30
0.0
  0
SPLINE
  5
66E
100
AcDbEntity
  8
KONSTRUKTIONSELEMENTE
100
AcDbSpline
 62
7
  6
CONTINUOUS
 70
0
 71
3
 72
16
 73
12
 74
0
 42
0.0000001
 43
0.0000001
 44
0.0000000001
 40
0.0
 40
0.0
 40
0.0
 40
0.0
 40
0.0359305525
 40
0.0734187785
 40
0.1574256733
 40
0.2586854578
 40
0.3788623373
 40
0.516670169
 40
0.6690210957
 40
0.8317840146
 40
1.0
 40
1.0
 40
1.0
 40
1.0
 10
259.8850168492
 20
33.283058924
 30
0.0
 10
259.8850168492
 20
33.2309246869
 30
0.0
 10
259.8976909345
 20
33.1240372525
 30
0.0
 10
259.9747204315
 20
32.9072686128
 30
0.0
 10
260.1741112454
 20
32.6441045704
 30
0.0
 10
260.5290969631
 20
32.3737195936
 30
0.0
 10
260.9963963315
 20
32.1377846107
 30
0.0
 10
261.5609033636
 20
31.9441795615
 30
0.0
 10
262.2030235945
 20
31.7992526525
 30
0.0
 10
262.8993166074
 20
31.7087158192
 30
0.0
 10
263.3797111472
 20
31.686978112
 30
0.0
 10
263.6237853546
 20
31.6858664387
 30
0.0
  0
SPLINE
  5
66F
100
AcDbEntity
  8
AUSFORMSCHRAEGEN
100
AcDbSpline
 62
7
  6
CONTINUOUS
 70
0
 71
3
 72
15
 73
11
 74
0
 42
0.0000001
 43
0.0000001
 44
0.0000000001
 40
0.0
 40
0.0
 40
0.0
 40
0.0
 40
0.0780922265
 40
0.166072872
 40
0.2683739892
 40
0.3867078867
 40
0.5208684765
 40
0.6694196433
 40
0.8301927589
 40
1.0
 40
1.0
 40
1.0
 40
1.0
 10
207.6889800687
 20
48.5271677658
 30
0.0
 10
207.6987635283
 20
48.6116166406
 30
0.0
 10
207.7553023004
 20
48.7879345573
 30
0.0
 10
207.9288036323
 20
49.0271305029
 30
0.0
 10
208.1846306533
 20
49.2482574365
 30
0.0
 10
208.5165220458
 20
49.4484688055
 30
0.0
 10
208.9171721278
 20
49.6243208102
 30
0.0
 10
209.3776358464
 20
49.7718155678
 30
0.0
 10
209.886843996
 20
49.8873142039
 30
0.0
 10
210.2432016173
 20
49.9401362168
 30
0.0
 10
210.4268852444
 20
49.9609365916
 30
0.0
  0
SPLINE
  5
670
100
AcDbEntity
  8
AUSFORMSCHRAEGEN
100
AcDbSpline
 62
7
  6
CONTINUOUS
 70
0
 71
3
 72
11
 73
7
 74
0
 42
0.0000001
 43
0.0000001
 44
0.0000000001
 40
0.0
 40
0.0
 40
0.0
 40
0.0
 40
0.2093719957
 40
0.4399130769
 40
0.7017662004
 40
1.0
 40
1.0
 40
1.0
 40
1.0
 10
207.688988174
 20
34.4117176557
 30
0.0
 10
207.6973997977
 20
34.4842858894
 30
0.0
 10
207.7408752499
 20
34.634448218
 30
0.0
 10
207.8732496625
 20
34.8432758323
 30
0.0
 10
208.0690419179
 20
35.039940635
 30
0.0
 10
208.2286648956
 20
35.1540631032
 30
0.0
 10
208.3168352915
 20
35.2093299291
 30
0.0
  0
SPLINE
  5
671
100
AcDbEntity
  8
KONSTRUKTIONSELEMENTE
100
AcDbSpline
 62
7
  6
CONTINUOUS
 70
0
 71
3
 72
16
 73
12
 74
0
 42
0.0000001
 43
0.0000001
 44
0.0000000001
 40
0.0
 40
0.0
 40
0.0
 40
0.0
 40
0.1521578791
 40
0.2935781933
 40
0.4226197673
 40
0.5387019357
 40
0.6442771134
 40
0.6958221627
 40
0.7485060504
 40
0.8636711775
 40
1.0
 40
1.0
 40
1.0
 40
1.0
 10
268.9736650374
 20
37.2784250387
 30
0.0
 10
269.105857222
 20
37.2736333693
 30
0.0
 10
269.3613828046
 20
37.2728794637
 30
0.0
 10
269.7280058212
 20
37.3058047485
 30
0.0
 10
270.0572806193
 20
37.3792568178
 30
0.0
 10
270.3394369323
 20
37.501475361
 30
0.0
 10
270.5246026734
 20
37.6587214715
 30
0.0
 10
270.6227653628
 20
37.8139396417
 30
0.0
 10
270.6895386718
 20
37.9940753515
 30
0.0
 10
270.7007572376
 20
38.2645400765
 30
0.0
 10
270.6440581278
 20
38.4779874987
 30
0.0
 10
270.6039476411
 20
38.5895117287
 30
0.0
  0
SPLINE
  5
672
100
AcDbEntity
  8
KONSTRUKTIONSELEMENTE
100
AcDbSpline
 62
7
  6
CONTINUOUS
 70
0
 71
3
 72
18
 73
14
 74
0
 42
0.0000001
 43
0.0000001
 44
0.0000000001
 40
0.0
 40
0.0
 40
0.0
 40
0.0
 40
0.0283923911
 40
0.0568847131
 40
0.0886918382
 40
0.1261345519
 40
0.170342368
 40
0.2215776627
 40
0.3434654669
 40
0.4871106752
 40
0.6471169714
 40
0.8191831042
 40
1.0
 40
1.0
 40
1.0
 40
1.0
 10
270.6039476411
 20
31.3191799727
 30
0.0
 10
270.6248942625
 20
31.3364228038
 30
0.0
 10
270.6619157462
 20
31.3780141577
 30
0.0
 10
270.691660319
 20
31.459359707
 30
0.0
 10
270.6924540013
 20
31.5541214917
 30
0.0
 10
270.6671882195
 20
31.6602487251
 30
0.0
 10
270.6174854273
 20
31.7775464665
 30
0.0
 10
270.5143730564
 20
31.9581853174
 30
0.0
 10
270.3312464841
 20
32.2004386138
 30
0.0
 10
270.0573767494
 20
32.5012996152
 30
0.0
 10
269.7313872473
 20
32.8184476269
 30
0.0
 10
269.3658824141
 20
33.1450821782
 30
0.0
 10
269.107372135
 20
33.3616786415
 30
0.0
 10
268.9735941727
 20
33.4710270103
 30
0.0
  0
SPLINE
  5
673
100
AcDbEntity
  8
KONSTRUKTIONSELEMENTE
100
AcDbSpline
 62
7
  6
CONTINUOUS
 70
0
 71
3
 72
18
 73
14
 74
0
 42
0.0000001
 43
0.0000001
 44
0.0000000001
 40
0.0
 40
0.0
 40
0.0
 40
0.0
 40
0.2192053227
 40
0.4157125303
 40
0.5867497276
 40
0.730134011
 40
0.8439872947
 40
0.9269262542
 40
0.9565459232
 40
0.9782663345
 40
0.9862263765
 40
0.9923482182
 40
1.0
 40
1.0
 40
1.0
 40
1.0
 10
273.9349720093
 20
33.8528655192
 30
0.0
 10
273.9210080052
 20
33.626774958
 30
0.0
 10
273.8961400163
 20
33.1979026243
 30
0.0
 10
273.8667776796
 20
32.592268353
 30
0.0
 10
273.8476306142
 20
32.0646231513
 30
0.0
 10
273.8386593789
 20
31.6221049807
 30
0.0
 10
273.8402204046
 20
31.2705595408
 30
0.0
 10
273.849594701
 20
31.0366413577
 30
0.0
 10
273.8648291836
 20
30.89857944
 30
0.0
 10
273.8755705328
 20
30.8383000593
 30
0.0
 10
273.8867755579
 20
30.8026503678
 30
0.0
 10
273.8955564518
 20
30.782679005
 30
0.0
 10
273.9064746135
 20
30.769931969
 30
0.0
 10
273.9143281511
 20
30.7690126374
 30
0.0
  0
SPLINE
  5
674
100
AcDbEntity
  8
KONSTRUKTIONSELEMENTE
100
AcDbSpline
 62
7
  6
CONTINUOUS
 70
0
 71
3
 72
16
 73
12
 74
0
 42
0.0000001
 43
0.0000001
 44
0.0000000001
 40
0.0
 40
0.0
 40
0.0
 40
0.0
 40
0.1363278012
 40
0.251491714
 40
0.3041750982
 40
0.3557198231
 40
0.4612949746
 40
0.5773777652
 40
0.7064203048
 40
0.8478400541
 40
1.0
 40
1.0
 40
1.0
 40
1.0
 10
224.7250837816
 20
38.5895117287
 30
0.0
 10
224.6849725042
 20
38.4779853005
 30
0.0
 10
224.6282726197
 20
38.2645337773
 30
0.0
 10
224.6394942611
 20
37.9940638617
 30
0.0
 10
224.706272498
 20
37.8139262182
 30
0.0
 10
224.8044414411
 20
37.6587069498
 30
0.0
 10
224.9896162896
 20
37.5014610593
 30
0.0
 10
225.2717847653
 20
37.379245725
 30
0.0
 10
225.6010711316
 20
37.305800937
 30
0.0
 10
225.9677055481
 20
37.2728705097
 30
0.0
 10
226.2232399552
 20
37.2736279871
 30
0.0
 10
226.3554372499
 20
37.2784276078
 30
0.0
  0
SPLINE
  5
675
100
AcDbEntity
  8
KONSTRUKTIONSELEMENTE
100
AcDbSpline
 62
7
  6
CONTINUOUS
 70
0
 71
3
 72
18
 73
14
 74
0
 42
0.0000001
 43
0.0000001
 44
0.0000000001
 40
0.0
 40
0.0
 40
0.0
 40
0.0
 40
0.1808165857
 40
0.3528842105
 40
0.5128903422
 40
0.6565350905
 40
0.7784223532
 40
0.8296573452
 40
0.8738649289
 40
0.9113075437
 40
0.9431147411
 40
0.9716072987
 40
1.0
 40
1.0
 40
1.0
 40
1.0
 10
226.3553663177
 20
33.470969029
 30
0.0
 10
226.2215951586
 20
33.3616215277
 30
0.0
 10
225.9630932866
 20
33.1450301915
 30
0.0
 10
225.5975982052
 20
32.8184066941
 30
0.0
 10
225.2716214136
 20
32.5012651872
 30
0.0
 10
224.9977636033
 20
32.2004124627
 30
0.0
 10
224.8146456302
 20
31.9581663313
 30
0.0
 10
224.7115392799
 20
31.7775328609
 30
0.0
 10
224.6618399869
 20
31.6602387079
 30
0.0
 10
224.6365767511
 20
31.5541146921
 30
0.0
 10
224.6373720002
 20
31.4593557568
 30
0.0
 10
224.6671168376
 20
31.3780126821
 30
0.0
 10
224.7041376006
 20
31.3364224413
 30
0.0
 10
224.7250837816
 20
31.3191799727
 30
0.0
  0
SPLINE
  5
676
100
AcDbEntity
  8
AUSFORMSCHRAEGEN
100
AcDbSpline
 62
7
  6
CONTINUOUS
 70
0
 71
3
 72
17
 73
13
 74
0
 42
0.0000001
 43
0.0000001
 44
0.0000000001
 40
0.0
 40
0.0
 40
0.0
 40
0.0
 40
0.0364210519
 40
0.0733322699
 40
0.1545018442
 40
0.2013695006
 40
0.2531242558
 40
0.3717316559
 40
0.5096151627
 40
0.6635208335
 40
0.8288278356
 40
1.0
 40
1.0
 40
1.0
 40
1.0
 10
255.1467730276
 20
35.6356407278
 30
0.0
 10
255.1360366496
 20
35.5745539758
 30
0.0
 10
255.1290882606
 20
35.4483840373
 30
0.0
 10
255.1798304432
 20
35.1877886052
 30
0.0
 10
255.3300829438
 20
34.9402693518
 30
0.0
 10
255.5450224347
 20
34.7219471785
 30
0.0
 10
255.8375714399
 20
34.493734216
 30
0.0
 10
256.302147337
 20
34.2425380495
 30
0.0
 10
256.9611740206
 20
34.0047609571
 30
0.0
 10
257.720676462
 20
33.8273321468
 30
0.0
 10
258.5496809816
 20
33.717784563
 30
0.0
 10
259.1230188326
 20
33.6932104279
 30
0.0
 10
259.4145157113
 20
33.6932104279
 30
0.0
  0
SPLINE
  5
677
100
AcDbEntity
  8
KONSTRUKTIONSELEMENTE
100
AcDbSpline
 62
7
  6
CONTINUOUS
 70
0
 71
3
 72
8
 73
4
 74
0
 42
0.0000001
 43
0.0000001
 44
0.0000000001
 40
0.0
 40
0.0
 40
0.0
 40
0.0
 40
1.0
 40
1.0
 40
1.0
 40
1.0
 10
228.1280909733
 20
44.9577277703
 30
0.0
 10
228.2606313008
 20
46.4221705975
 30
0.0
 10
228.3929207166
 20
47.8866361553
 30
0.0
 10
228.5249592967
 20
49.3511243069
 30
0.0
  0
SPLINE
  5
678
100
AcDbEntity
  8
AUSFORMSCHRAEGEN
100
AcDbSpline
 62
7
  6
CONTINUOUS
 70
0
 71
3
 72
19
 73
15
 74
0
 42
0.0000001
 43
0.0000001
 44
0.0000000001
 40
0.0
 40
0.0
 40
0.0
 40
0.0
 40
0.0563681197
 40
0.1179700204
 40
0.2536073025
 40
0.3996757567
 40
0.5474735766
 40
0.688109941
 40
0.7532146052
 40
0.8136580264
 40
0.8687824087
 40
0.9181735028
 40
0.9617878152
 40
1.0
 40
1.0
 40
1.0
 40
1.0
 10
228.5249592967
 20
49.3511243069
 30
0.0
 10
228.6942172402
 20
49.2664371655
 30
0.0
 10
229.0587680011
 20
49.1094940846
 30
0.0
 10
229.8686834088
 20
48.8439734431
 30
0.0
 10
231.0025601583
 20
48.6147630115
 30
0.0
 10
232.4432243414
 20
48.5018637961
 30
0.0
 10
233.9042453785
 20
48.5521859859
 30
0.0
 10
235.0813835361
 20
48.7308650664
 30
0.0
 10
235.94661285
 20
48.9577866436
 30
0.0
 10
236.5199972581
 20
49.1581590471
 30
0.0
 10
237.0244278309
 20
49.3891583387
 30
0.0
 10
237.4512829394
 20
49.6471751359
 30
0.0
 10
237.7929543419
 20
49.9280332383
 30
0.0
 10
237.9705764992
 20
50.1410450972
 30
0.0
 10
238.0392777781
 20
50.2494030094
 30
0.0
  0
SPLINE
  5
679
100
AcDbEntity
  8
KONSTRUKTIONSELEMENTE
100
AcDbSpline
 62
7
  6
CONTINUOUS
 70
0
 71
3
 72
15
 73
11
 74
0
 42
0.0000001
 43
0.0000001
 44
0.0000000001
 40
0.0
 40
0.0
 40
0.0
 40
0.0
 40
0.0349199149
 40
0.0605672362
 40
0.092894474
 40
0.1785673325
 40
0.2925585164
 40
0.4338507246
 40
0.6007205182
 40
1.0
 40
1.0
 40
1.0
 40
1.0
 10
215.2152086725
 20
55.5075298752
 30
0.0
 10
215.2036505748
 20
55.5062205577
 30
0.0
 10
215.1864554612
 20
55.4911260653
 30
0.0
 10
215.1710203467
 20
55.4648731674
 30
0.0
 10
215.1519559736
 20
55.420614693
 30
0.0
 10
215.131948265
 20
55.3458469282
 30
0.0
 10
215.1118702585
 20
55.2339666514
 30
0.0
 10
215.0950920525
 20
55.094297753
 30
0.0
 10
215.0762566962
 20
54.8593592287
 30
0.0
 10
215.0699527023
 20
54.6707666743
 30
0.0
 10
215.0678176863
 20
54.5377815488
 30
0.0
  0
SPLINE
  5
67A
100
AcDbEntity
  8
AUSFORMSCHRAEGEN
100
AcDbSpline
 62
7
  6
CONTINUOUS
 70
0
 71
3
 72
12
 73
8
 74
0
 42
0.0000001
 43
0.0000001
 44
0.0000000001
 40
0.0
 40
0.0
 40
0.0
 40
0.0
 40
0.2823522416
 40
0.5508771768
 40
0.7931718021
 40
0.9014910339
 40
1.0
 40
1.0
 40
1.0
 40
1.0
 10
223.5345157113
 20
50.4790980413
 30
0.0
 10
224.0213968171
 20
50.4790980413
 30
0.0
 10
224.9721902366
 20
50.4307733943
 30
0.0
 10
226.3253965046
 20
50.2157665455
 30
0.0
 10
227.3554628103
 20
49.9195141778
 30
0.0
 10
228.0680419262
 20
49.6139939812
 30
0.0
 10
228.3814417891
 20
49.441994068
 30
0.0
 10
228.5249592967
 20
49.3511243069
 30
0.0
  0
LINE
  5
67B
100
AcDbEntity
  8
KONSTRUKTIONSELEMENTE
100
AcDbLine
 62
7
  6
CONTINUOUS
 10
263.6645157113
 20
31.6857736846
 11
263.6237853546
 21
31.6858664387
  0
LINE
  5
67C
100
AcDbEntity
  8
KONSTRUKTIONSELEMENTE
100
AcDbLine
 62
7
  6
CONTINUOUS
 10
263.7124541875
 20
31.6843393309
 11
263.6645157113
 21
31.6857736846
  0
LINE
  5
67D
100
AcDbEntity
  8
KONSTRUKTIONSELEMENTE
100
AcDbLine
 62
7
  6
CONTINUOUS
 10
231.6645157113
 20
31.6857736846
 11
231.6165772352
 21
31.6843393309
  0
LINE
  5
67E
100
AcDbEntity
  8
KONSTRUKTIONSELEMENTE
100
AcDbLine
 62
7
  6
CONTINUOUS
 10
231.7052460681
 20
31.6858664387
 11
231.6645157113
 21
31.6857736846
  0
SPLINE
  5
67F
100
AcDbEntity
  8
KONSTRUKTIONSELEMENTE
100
AcDbSpline
 62
7
  6
CONTINUOUS
 70
0
 71
3
 72
10
 73
6
 74
0
 42
0.0000001
 43
0.0000001
 44
0.0000000001
 40
0.0
 40
0.0
 40
0.0
 40
0.0
 40
0.2118222269
 40
0.4587217548
 40
1.0
 40
1.0
 40
1.0
 40
1.0
 10
224.7250837816
 20
38.5895117287
 30
0.0
 10
224.7386183142
 20
38.6271434917
 30
0.0
 10
224.7937200194
 20
38.6981399496
 30
0.0
 10
224.9433392753
 20
38.8132058511
 30
0.0
 10
225.0777080572
 20
38.8804600472
 30
0.0
 10
225.1712269519
 20
38.9216607615
 30
0.0
  0
SPLINE
  5
680
100
AcDbEntity
  8
KONSTRUKTIONSELEMENTE
100
AcDbSpline
 62
7
  6
CONTINUOUS
 70
0
 71
3
 72
20
 73
16
 74
0
 42
0.0000001
 43
0.0000001
 44
0.0000000001
 40
0.0
 40
0.0
 40
0.0
 40
0.0
 40
0.1401253547
 40
0.2794087476
 40
0.4173590965
 40
0.5532386412
 40
0.6857440998
 40
0.7499802778
 40
0.8121351506
 40
0.8711461865
 40
0.9251039404
 40
0.9491409139
 40
0.9702260063
 40
0.9875040167
 40
1.0
 40
1.0
 40
1.0
 40
1.0
 10
226.8769060013
 20
31.4329780905
 30
0.0
 10
226.7764651881
 20
31.4219566022
 30
0.0
 10
226.576134777
 20
31.4004522291
 30
0.0
 10
226.2767252988
 20
31.3699693761
 30
0.0
 10
225.9801591122
 20
31.3418368177
 30
0.0
 10
225.6882106595
 20
31.3169111777
 30
0.0
 10
225.4489568184
 20
31.299763082
 30
0.0
 10
225.2625371501
 20
31.2896659123
 30
0.0
 10
225.1289302022
 20
31.2845584242
 30
0.0
 10
225.0026597453
 20
31.2827147314
 30
0.0
 10
224.9038170842
 20
31.2848796551
 30
0.0
 10
224.8325871798
 20
31.2903392384
 30
0.0
 10
224.7878899015
 20
31.2964222405
 30
0.0
 10
224.7523084266
 20
31.3048411937
 30
0.0
 10
224.7320406785
 20
31.3134531971
 30
0.0
 10
224.7250837816
 20
31.3191799727
 30
0.0
  0
SPLINE
  5
681
100
AcDbEntity
  8
KONSTRUKTIONSELEMENTE
100
AcDbSpline
 62
7
  6
CONTINUOUS
 70
0
 71
3
 72
8
 73
4
 74
0
 42
0.0000001
 43
0.0000001
 44
0.0000000001
 40
0.0
 40
0.0
 40
0.0
 40
0.0
 40
1.0
 40
1.0
 40
1.0
 40
1.0
 10
227.5104591554
 20
31.4973938835
 30
0.0
 10
227.2992141843
 20
31.4765264367
 30
0.0
 10
227.0879125899
 20
31.4561320909
 30
0.0
 10
226.8769060013
 20
31.4329780905
 30
0.0
  0
SPLINE
  5
682
100
AcDbEntity
  8
KONSTRUKTIONSELEMENTE
100
AcDbSpline
 62
7
  6
CONTINUOUS
 70
0
 71
3
 72
8
 73
4
 74
0
 42
0.0000001
 43
0.0000001
 44
0.0000000001
 40
0.0
 40
0.0
 40
0.0
 40
0.0
 40
1.0
 40
1.0
 40
1.0
 40
1.0
 10
268.4517261646
 20
31.4330202814
 30
0.0
 10
268.2408571751
 20
31.4561605419
 30
0.0
 10
268.0296924295
 20
31.4765339227
 30
0.0
 10
267.8185849476
 20
31.4973865845
 30
0.0
  0
SPLINE
  5
683
100
AcDbEntity
  8
KONSTRUKTIONSELEMENTE
100
AcDbSpline
 62
7
  6
CONTINUOUS
 70
0
 71
3
 72
20
 73
16
 74
0
 42
0.0000001
 43
0.0000001
 44
0.0000000001
 40
0.0
 40
0.0
 40
0.0
 40
0.0
 40
0.0124956117
 40
0.0297723331
 40
0.050858054
 40
0.0748947442
 40
0.1288479211
 40
0.1878618469
 40
0.250019086
 40
0.3142562289
 40
0.4467622903
 40
0.5826418187
 40
0.7205920812
 40
0.8598752821
 40
1.0
 40
1.0
 40
1.0
 40
1.0
 10
270.6039476411
 20
31.3191799727
 30
0.0
 10
270.5969896595
 20
31.3134523043
 30
0.0
 10
270.5767197846
 20
31.3048382155
 30
0.0
 10
270.5411320063
 20
31.2964184464
 30
0.0
 10
270.4964263101
 20
31.2903404414
 30
0.0
 10
270.4251862754
 20
31.2848811695
 30
0.0
 10
270.3263267146
 20
31.2827131243
 30
0.0
 10
270.2000323207
 20
31.2845597573
 30
0.0
 10
270.0663961896
 20
31.2896705498
 30
0.0
 10
269.8799391737
 20
31.2997714975
 30
0.0
 10
269.6406399857
 20
31.3169253923
 30
0.0
 10
269.3486371686
 20
31.3418578996
 30
0.0
 10
269.0520163436
 20
31.3699978297
 30
0.0
 10
268.7525521803
 20
31.4004885784
 30
0.0
 10
268.5521850967
 20
31.4219961575
 30
0.0
 10
268.4517261646
 20
31.4330202814
 30
0.0
  0
SPLINE
  5
684
100
AcDbEntity
  8
KONSTRUKTIONSELEMENTE
100
AcDbSpline
 62
7
  6
CONTINUOUS
 70
0
 71
3
 72
10
 73
6
 74
0
 42
0.0000001
 43
0.0000001
 44
0.0000000001
 40
0.0
 40
0.0
 40
0.0
 40
0.0
 40
0.2339713475
 40
0.4767788201
 40
1.0
 40
1.0
 40
1.0
 40
1.0
 10
227.6607890941
 20
54.4445081624
 30
0.0
 10
227.7267324358
 20
54.3915529282
 30
0.0
 10
227.848743448
 20
54.2672544252
 30
0.0
 10
228.0403014732
 20
53.9581600812
 30
0.0
 10
228.1100225944
 20
53.6817025048
 30
0.0
 10
228.1280909733
 20
53.4934376945
 30
0.0
  0
SPLINE
  5
685
100
AcDbEntity
  8
KONSTRUKTIONSELEMENTE
100
AcDbSpline
 62
7
  6
CONTINUOUS
 70
0
 71
3
 72
12
 73
8
 74
0
 42
0.0000001
 43
0.0000001
 44
0.0000000001
 40
0.0
 40
0.0
 40
0.0
 40
0.0
 40
0.0763577032
 40
0.1739918806
 40
0.4203623404
 40
0.7082235916
 40
1.0
 40
1.0
 40
1.0
 40
1.0
 10
215.3296802691
 20
43.5383197416
 30
0.0
 10
215.3108856956
 20
43.5986522847
 30
0.0
 10
215.2761468047
 20
43.7385947304
 30
0.0
 10
215.2113361358
 20
44.0804479703
 30
0.0
 10
215.1452557002
 20
44.5996165764
 30
0.0
 10
215.0900490942
 20
45.281087378
 30
0.0
 10
215.071331739
 20
45.7606285961
 30
0.0
 10
215.0678176863
 20
46.0020716246
 30
0.0
  0
SPLINE
  5
686
100
AcDbEntity
  8
KONSTRUKTIONSELEMENTE
100
AcDbSpline
 62
7
  6
CONTINUOUS
 70
0
 71
3
 72
12
 73
8
 74
0
 42
0.0000001
 43
0.0000001
 44
0.0000000001
 40
0.0
 40
0.0
 40
0.0
 40
0.0
 40
0.2335649189
 40
0.486741282
 40
0.6173392833
 40
0.7478175778
 40
1.0
 40
1.0
 40
1.0
 40
1.0
 10
226.5180292634
 20
42.8386173124
 30
0.0
 10
226.7268222102
 20
42.9014429295
 30
0.0
 10
227.1374242367
 20
43.1192311212
 30
0.0
 10
227.5473747298
 20
43.5348660117
 30
0.0
 10
227.8111396722
 20
43.9375670873
 30
0.0
 10
228.0181333249
 20
44.3706498663
 30
0.0
 10
228.1068708437
 20
44.7232657981
 30
0.0
 10
228.1280909733
 20
44.9577277703
 30
0.0
  0
SPLINE
  5
687
100
AcDbEntity
  8
KONSTRUKTIONSELEMENTE
100
AcDbSpline
 62
7
  6
CONTINUOUS
 70
0
 71
3
 72
12
 73
8
 74
0
 42
0.0000001
 43
0.0000001
 44
0.0000000001
 40
0.0
 40
0.0
 40
0.0
 40
0.0
 40
0.2335649189
 40
0.486741282
 40
0.6173392833
 40
0.7478175778
 40
1.0
 40
1.0
 40
1.0
 40
1.0
 10
268.8110021593
 20
42.8386173124
 30
0.0
 10
268.6022092125
 20
42.9014429295
 30
0.0
 10
268.191607186
 20
43.1192311212
 30
0.0
 10
267.7816566929
 20
43.5348660117
 30
0.0
 10
267.5178917504
 20
43.9375670873
 30
0.0
 10
267.3108980977
 20
44.3706498663
 30
0.0
 10
267.222160579
 20
44.7232657981
 30
0.0
 10
267.2009404494
 20
44.9577277703
 30
0.0
  0
SPLINE
  5
688
100
AcDbEntity
  8
KONSTRUKTIONSELEMENTE
100
AcDbSpline
 62
7
  6
CONTINUOUS
 70
0
 71
3
 72
12
 73
8
 74
0
 42
0.0000001
 43
0.0000001
 44
0.0000000001
 40
0.0
 40
0.0
 40
0.0
 40
0.0
 40
0.0763577032
 40
0.1739918806
 40
0.4203623404
 40
0.7082235916
 40
1.0
 40
1.0
 40
1.0
 40
1.0
 10
279.9993511535
 20
43.5383197416
 30
0.0
 10
280.018145727
 20
43.5986522847
 30
0.0
 10
280.0528846179
 20
43.7385947304
 30
0.0
 10
280.1176952869
 20
44.0804479703
 30
0.0
 10
280.1837757225
 20
44.5996165764
 30
0.0
 10
280.2389823284
 20
45.281087378
 30
0.0
 10
280.2576996837
 20
45.7606285961
 30
0.0
 10
280.2612137364
 20
46.0020716246
 30
0.0
  0
SPLINE
  5
689
100
AcDbEntity
  8
KONSTRUKTIONSELEMENTE
100
AcDbSpline
 62
7
  6
CONTINUOUS
 70
0
 71
3
 72
12
 73
8
 74
0
 42
0.0000001
 43
0.0000001
 44
0.0000000001
 40
0.0
 40
0.0
 40
0.0
 40
0.0
 40
0.4221014694
 40
0.7287983483
 40
0.9182898374
 40
0.9705782238
 40
1.0
 40
1.0
 40
1.0
 40
1.0
 10
221.3676932406
 20
30.5822696246
 30
0.0
 10
221.3676932196
 20
30.6109580808
 30
0.0
 10
221.3682702527
 20
30.6605795425
 30
0.0
 10
221.3714497049
 20
30.7226813722
 30
0.0
 10
221.3765096825
 20
30.7601439045
 30
0.0
 10
221.3820419521
 20
30.7774055315
 30
0.0
 10
221.386403618
 20
30.7820500308
 30
0.0
 10
221.3883925168
 20
30.7822573421
 30
0.0
  0
SPLINE
  5
68A
100
AcDbEntity
  8
KONSTRUKTIONSELEMENTE
100
AcDbSpline
 62
7
  6
CONTINUOUS
 70
0
 71
3
 72
12
 73
8
 74
0
 42
0.0000001
 43
0.0000001
 44
0.0000000001
 40
0.0
 40
0.0
 40
0.0
 40
0.0
 40
0.3807644846
 40
0.6700357528
 40
0.7809228538
 40
0.8706290715
 40
1.0
 40
1.0
 40
1.0
 40
1.0
 10
279.9993511535
 20
27.4652898547
 30
0.0
 10
280.0078700473
 20
27.4379433164
 30
0.0
 10
280.0242869767
 20
27.3902442918
 30
0.0
 10
280.0485642213
 20
27.3365674122
 30
0.0
 10
280.068902066
 20
27.3055812673
 30
0.0
 10
280.0850498222
 20
27.2870382927
 30
0.0
 10
280.1008971077
 20
27.2778986574
 30
0.0
 10
280.1106289335
 20
27.2779003491
 30
0.0
  0
SPLINE
  5
68B
100
AcDbEntity
  8
KONSTRUKTIONSELEMENTE
100
AcDbSpline
 62
7
  6
CONTINUOUS
 70
0
 71
3
 72
8
 73
4
 74
0
 42
0.0000001
 43
0.0000001
 44
0.0000000001
 40
0.0
 40
0.0
 40
0.0
 40
0.0
 40
1.0
 40
1.0
 40
1.0
 40
1.0
 10
227.5104591554
 20
31.4973938835
 30
0.0
 10
228.0609316903
 20
31.5517713028
 30
0.0
 10
228.6131157101
 20
31.594474583
 30
0.0
 10
229.1660201028
 20
31.6110168935
 30
0.0
  0
SPLINE
  5
68C
100
AcDbEntity
  8
KONSTRUKTIONSELEMENTE
100
AcDbSpline
 62
7
  6
CONTINUOUS
 70
0
 71
3
 72
9
 73
5
 74
0
 42
0.0000001
 43
0.0000001
 44
0.0000000001
 40
0.0
 40
0.0
 40
0.0
 40
0.0
 40
0.5198621717
 40
1.0
 40
1.0
 40
1.0
 40
1.0
 10
268.8110021593
 20
28.1649922839
 30
0.0
 10
268.6594950367
 20
28.1194039218
 30
0.0
 10
268.3530321159
 20
28.0714746498
 30
0.0
 10
268.0465850383
 20
28.1350337152
 30
0.0
 10
267.9126012528
 20
28.193356593
 30
0.0
  0
SPLINE
  5
68D
100
AcDbEntity
  8
KONSTRUKTIONSELEMENTE
100
AcDbSpline
 62
7
  6
CONTINUOUS
 70
0
 71
3
 72
9
 73
5
 74
0
 42
0.0000001
 43
0.0000001
 44
0.0000000001
 40
0.0
 40
0.0
 40
0.0
 40
0.0
 40
0.5757304661
 40
1.0
 40
1.0
 40
1.0
 40
1.0
 10
221.3940597404
 20
33.852860225
 30
0.0
 10
221.3863414673
 20
33.9778281917
 30
0.0
 10
221.3745729272
 20
34.1949790517
 30
0.0
 10
221.3676932537
 20
34.4124174035
 30
0.0
 10
221.3676932406
 20
34.5046847607
 30
0.0
  0
SPLINE
  5
68E
100
AcDbEntity
  8
KONSTRUKTIONSELEMENTE
100
AcDbSpline
 62
7
  6
CONTINUOUS
 70
0
 71
3
 72
9
 73
5
 74
0
 42
0.0000001
 43
0.0000001
 44
0.0000000001
 40
0.0
 40
0.0
 40
0.0
 40
0.0
 40
0.2286942408
 40
1.0
 40
1.0
 40
1.0
 40
1.0
 10
226.5959874188
 20
33.6916763748
 30
0.0
 10
226.5790105128
 20
33.6734587107
 30
0.0
 10
226.5027464089
 20
33.5956905496
 30
0.0
 10
226.4203913218
 20
33.5241219137
 30
0.0
 10
226.3553663177
 20
33.470969029
 30
0.0
  0
SPLINE
  5
68F
100
AcDbEntity
  8
KONSTRUKTIONSELEMENTE
100
AcDbSpline
 62
7
  6
CONTINUOUS
 70
0
 71
3
 72
11
 73
7
 74
0
 42
0.0000001
 43
0.0000001
 44
0.0000000001
 40
0.0
 40
0.0
 40
0.0
 40
0.0
 40
0.2291816008
 40
0.475060986
 40
0.7331376211
 40
1.0
 40
1.0
 40
1.0
 40
1.0
 10
224.5627513139
 20
34.1532915555
 30
0.0
 10
224.7123692795
 20
34.0967795191
 30
0.0
 10
225.0242578222
 20
33.9840149775
 30
0.0
 10
225.516234398
 20
33.8416650865
 30
0.0
 10
226.0448971553
 20
33.7381606566
 30
0.0
 10
226.4100582567
 20
33.7022648723
 30
0.0
 10
226.5959874188
 20
33.6916763748
 30
0.0
  0
SPLINE
  5
690
100
AcDbEntity
  8
KONSTRUKTIONSELEMENTE
100
AcDbSpline
 62
7
  6
CONTINUOUS
 70
0
 71
3
 72
9
 73
5
 74
0
 42
0.0000001
 43
0.0000001
 44
0.0000000001
 40
0.0
 40
0.0
 40
0.0
 40
0.0
 40
0.5349578766
 40
1.0
 40
1.0
 40
1.0
 40
1.0
 10
226.3554372499
 20
37.2784276078
 30
0.0
 10
226.398882809
 20
37.2800037485
 30
0.0
 10
226.4803879715
 20
37.2781648714
 30
0.0
 10
226.5607850604
 20
37.2607363814
 30
0.0
 10
226.5959801974
 20
37.2469682016
 30
0.0
  0
SPLINE
  5
691
100
AcDbEntity
  8
KONSTRUKTIONSELEMENTE
100
AcDbSpline
 62
7
  6
CONTINUOUS
 70
0
 71
3
 72
9
 73
5
 74
0
 42
0.0000001
 43
0.0000001
 44
0.0000000001
 40
0.0
 40
0.0
 40
0.0
 40
0.0
 40
0.5198621717
 40
1.0
 40
1.0
 40
1.0
 40
1.0
 10
226.5180292634
 20
28.1649922839
 30
0.0
 10
226.6695363859
 20
28.1194039218
 30
0.0
 10
226.9759993068
 20
28.0714746498
 30
0.0
 10
227.2824463843
 20
28.1350337152
 30
0.0
 10
227.4164301699
 20
28.193356593
 30
0.0
  0
SPLINE
  5
692
100
AcDbEntity
  8
KONSTRUKTIONSELEMENTE
100
AcDbSpline
 62
7
  6
CONTINUOUS
 70
0
 71
3
 72
12
 73
8
 74
0
 42
0.0000001
 43
0.0000001
 44
0.0000000001
 40
0.0
 40
0.0
 40
0.0
 40
0.0
 40
0.4220834125
 40
0.7287761618
 40
0.9182753008
 40
0.9705722592
 40
1.0
 40
1.0
 40
1.0
 40
1.0
 10
221.3676932406
 20
36.4989243947
 30
0.0
 10
221.3676932486
 20
36.527611468
 30
0.0
 10
221.3682701256
 20
36.5772312249
 30
0.0
 10
221.3714495509
 20
36.6393315018
 30
0.0
 10
221.3765085445
 20
36.6767951361
 30
0.0
 10
221.3820408285
 20
36.6940578267
 30
0.0
 10
221.3864009749
 20
36.6987045343
 30
0.0
 10
221.3883901474
 20
36.6989130214
 30
0.0
  0
SPLINE
  5
693
100
AcDbEntity
  8
KONSTRUKTIONSELEMENTE
100
AcDbSpline
 62
7
  6
CONTINUOUS
 70
0
 71
3
 72
12
 73
8
 74
0
 42
0.0000001
 43
0.0000001
 44
0.0000000001
 40
0.0
 40
0.0
 40
0.0
 40
0.0
 40
0.3807644846
 40
0.6700357528
 40
0.7809228538
 40
0.8706290715
 40
1.0
 40
1.0
 40
1.0
 40
1.0
 10
215.3296802691
 20
27.4652898547
 30
0.0
 10
215.3211613754
 20
27.4379433164
 30
0.0
 10
215.3047444459
 20
27.3902442918
 30
0.0
 10
215.2804672014
 20
27.3365674122
 30
0.0
 10
215.2601293567
 20
27.3055812673
 30
0.0
 10
215.2439816004
 20
27.2870382927
 30
0.0
 10
215.228134315
 20
27.2778986574
 30
0.0
 10
215.2184024891
 20
27.2779003491
 30
0.0
  0
SPLINE
  5
694
100
AcDbEntity
  8
KONSTRUKTIONSELEMENTE
100
AcDbSpline
 62
7
  6
CONTINUOUS
 70
0
 71
3
 72
9
 73
5
 74
0
 42
0.0000001
 43
0.0000001
 44
0.0000000001
 40
0.0
 40
0.0
 40
0.0
 40
0.0
 40
0.4242699383
 40
1.0
 40
1.0
 40
1.0
 40
1.0
 10
273.9613381821
 20
34.5046852016
 30
0.0
 10
273.9613381564
 20
34.4124184443
 30
0.0
 10
273.9544585613
 20
34.1949817146
 30
0.0
 10
273.9426902459
 20
33.9778324649
 30
0.0
 10
273.9349720093
 20
33.8528655192
 30
0.0
  0
SPLINE
  5
695
100
AcDbEntity
  8
KONSTRUKTIONSELEMENTE
100
AcDbSpline
 62
7
  6
CONTINUOUS
 70
0
 71
3
 72
9
 73
5
 74
0
 42
0.0000001
 43
0.0000001
 44
0.0000000001
 40
0.0
 40
0.0
 40
0.0
 40
0.0
 40
0.2688436789
 40
1.0
 40
1.0
 40
1.0
 40
1.0
 10
268.9735941727
 20
33.4710270103
 30
0.0
 10
268.950937904
 20
33.489546329
 30
0.0
 10
268.8675109444
 20
33.5594174379
 30
0.0
 10
268.7873099586
 20
33.6334549085
 30
0.0
 10
268.7330512253
 20
33.6916728092
 30
0.0
  0
SPLINE
  5
696
100
AcDbEntity
  8
KONSTRUKTIONSELEMENTE
100
AcDbSpline
 62
7
  6
CONTINUOUS
 70
0
 71
3
 72
11
 73
7
 74
0
 42
0.0000001
 43
0.0000001
 44
0.0000000001
 40
0.0
 40
0.0
 40
0.0
 40
0.0
 40
0.2668639263
 40
0.5249412448
 40
0.7708196176
 40
1.0
 40
1.0
 40
1.0
 40
1.0
 10
268.7330512253
 20
33.6916728092
 30
0.0
 10
268.9189862808
 20
33.7022587611
 30
0.0
 10
269.284158018
 20
33.7381585975
 30
0.0
 10
269.8128340852
 20
33.8416696849
 30
0.0
 10
270.3048197497
 20
33.9840301894
 30
0.0
 10
270.6167146402
 20
34.0967969323
 30
0.0
 10
270.7663347553
 20
34.1533121962
 30
0.0
  0
SPLINE
  5
697
100
AcDbEntity
  8
KONSTRUKTIONSELEMENTE
100
AcDbSpline
 62
7
  6
CONTINUOUS
 70
0
 71
3
 72
9
 73
5
 74
0
 42
0.0000001
 43
0.0000001
 44
0.0000000001
 40
0.0
 40
0.0
 40
0.0
 40
0.0
 40
0.4242697741
 40
1.0
 40
1.0
 40
1.0
 40
1.0
 10
273.9613381821
 20
40.4213399869
 30
0.0
 10
273.9613382512
 20
40.3290727602
 30
0.0
 10
273.9544584212
 20
40.1116348397
 30
0.0
 10
273.9426899934
 20
39.894484408
 30
0.0
 10
273.9349717349
 20
39.769516741
 30
0.0
  0
SPLINE
  5
698
100
AcDbEntity
  8
KONSTRUKTIONSELEMENTE
100
AcDbSpline
 62
7
  6
CONTINUOUS
 70
0
 71
3
 72
9
 73
5
 74
0
 42
0.0000001
 43
0.0000001
 44
0.0000000001
 40
0.0
 40
0.0
 40
0.0
 40
0.0
 40
0.4649891857
 40
1.0
 40
1.0
 40
1.0
 40
1.0
 10
268.7330439955
 20
37.2469723778
 30
0.0
 10
268.7682444067
 20
37.2607494992
 30
0.0
 10
268.848667273
 20
37.2782023913
 30
0.0
 10
268.9302007898
 20
37.2800005155
 30
0.0
 10
268.9736650374
 20
37.2784250387
 30
0.0
  0
SPLINE
  5
699
100
AcDbEntity
  8
KONSTRUKTIONSELEMENTE
100
AcDbSpline
 62
7
  6
CONTINUOUS
 70
0
 71
3
 72
8
 73
4
 74
0
 42
0.0000001
 43
0.0000001
 44
0.0000000001
 40
0.0
 40
0.0
 40
0.0
 40
0.0
 40
1.0
 40
1.0
 40
1.0
 40
1.0
 10
266.1579591851
 20
31.611168057
 30
0.0
 10
266.7125507231
 20
31.5945742817
 30
0.0
 10
267.2664323507
 20
31.5519268183
 30
0.0
 10
267.8185849476
 20
31.4973865845
 30
0.0
  0
SPLINE
  5
69A
100
AcDbEntity
  8
KONSTRUKTIONSELEMENTE
100
AcDbSpline
 62
7
  6
CONTINUOUS
 70
0
 71
3
 72
9
 73
5
 74
0
 42
0.0000001
 43
0.0000001
 44
0.0000000001
 40
0.0
 40
0.0
 40
0.0
 40
0.0
 40
0.5757300658
 40
1.0
 40
1.0
 40
1.0
 40
1.0
 10
221.3940594295
 20
39.7695209223
 30
0.0
 10
221.3863411913
 20
39.8944879126
 30
0.0
 10
221.3745728833
 20
40.1116372379
 30
0.0
 10
221.3676932406
 20
40.3290740435
 30
0.0
 10
221.3676932406
 20
40.4213408322
 30
0.0
  0
ELLIPSE
  5
69B
100
AcDbEntity
  8
KONSTRUKTIONSELEMENTE
100
AcDbEllipse
 62
7
  6
CONTINUOUS
 10
34.0100224136
 20
44.265676144
 30
0.0
 11
3.2757762889
 21
7.0249249217
 31
0.0
 40
0.9999260056
 41
-0.4883362343
 42
0.4883361034
  0
ELLIPSE
  5
69C
100
AcDbEntity
  8
KONSTRUKTIONSELEMENTE
100
AcDbEllipse
 62
7
  6
CONTINUOUS
 10
34.0897210159
 20
44.4365903481
 30
0.0
 11
3.2757762889
 21
7.0249249217
 31
0.0
 40
0.9999260056
 41
-3.6299288948
 42
-2.6532565562
  0
ELLIPSE
  5
69D
100
AcDbEntity
  8
KONSTRUKTIONSELEMENTE
100
AcDbEllipse
 62
7
  6
CONTINUOUS
 10
125.3752655519
 20
38.3490204796
 30
0.0
 11
-3.2757762889
 21
7.0249249217
 31
0.0
 40
0.9999260056
 41
-0.4883362358
 42
0.4883361097
  0
ELLIPSE
  5
69E
100
AcDbEntity
  8
KONSTRUKTIONSELEMENTE
100
AcDbEllipse
 62
7
  6
CONTINUOUS
 10
125.2955669496
 20
38.5199346837
 30
0.0
 11
-3.2757762889
 21
7.0249249217
 31
0.0
 40
0.9999260056
 41
-3.6299288957
 42
-2.65325655
  0
ELLIPSE
  5
69F
100
AcDbEntity
  8
KONSTRUKTIONSELEMENTE
100
AcDbEllipse
 62
7
  6
CONTINUOUS
 10
247.6645157113
 20
79.3098326135
 30
0.0
 11
4.8
 21
0.0
 31
0.0
 40
0.191220584
 41
-3.1283978366
 42
-3.0414252324
  0
ELLIPSE
  5
6A0
100
AcDbEntity
  8
KONSTRUKTIONSELEMENTE
100
AcDbEllipse
 62
7
  6
CONTINUOUS
 10
247.6645157113
 20
82.9013181708
 30
0.0
 11
4.8
 21
0.0
 31
0.0
 40
0.1912206668
 41
2.8693173333
 42
2.9584525723
  0
ELLIPSE
  5
6A1
100
AcDbEntity
  8
KONSTRUKTIONSELEMENTE
100
AcDbEllipse
 62
7
  6
CONTINUOUS
 10
247.6645157113
 20
84.6651464071
 30
0.0
 11
4.8
 21
0.0
 31
0.0
 40
0.502972118
 41
-2.7545726182
 42
-2.6810992285
  0
ELLIPSE
  5
6A2
100
AcDbEntity
  8
KONSTRUKTIONSELEMENTE
100
AcDbEllipse
 62
7
  6
CONTINUOUS
 10
247.6645157113
 20
83.8267164338
 30
0.0
 11
4.8
 21
0.0
 31
0.0
 40
0.0401772591
 41
-2.8467126868
 42
-2.7545726182
  0
ELLIPSE
  5
6A3
100
AcDbEntity
  8
KONSTRUKTIONSELEMENTE
100
AcDbEllipse
 62
7
  6
CONTINUOUS
 10
247.6645157113
 20
83.2892565334
 30
0.0
 11
4.8
 21
0.0
 31
0.0
 40
0.6077364171
 41
-3.1283978366
 42
-3.0219641676
  0
ELLIPSE
  5
6A4
100
AcDbEntity
  8
KONSTRUKTIONSELEMENTE
100
AcDbEllipse
 62
7
  6
CONTINUOUS
 10
247.6645157113
 20
78.5841693641
 30
0.0
 11
4.8
 21
0.0
 31
0.0
 40
0.6077364069
 41
2.8467126868
 42
2.9584525723
  0
ELLIPSE
  5
6A5
100
AcDbEntity
  8
KONSTRUKTIONSELEMENTE
100
AcDbEllipse
 62
7
  6
CONTINUOUS
 10
247.6645157113
 20
78.1968093401
 30
0.0
 11
4.8
 21
-0.0
 31
0.0
 40
0.8854138434
 41
2.7545726182
 42
2.8467126868
  0
ELLIPSE
  5
6A6
100
AcDbEntity
  8
KONSTRUKTIONSELEMENTE
100
AcDbEllipse
 62
7
  6
CONTINUOUS
 10
247.6645157113
 20
77.3583793301
 30
0.0
 11
-0.0
 21
6.4714018681
 31
0.0
 40
0.7417249149
 41
1.1103029017
 42
1.1837762914
  0
ELLIPSE
  5
6A7
100
AcDbEntity
  8
RUNDUNGEN
100
AcDbEllipse
 62
7
  6
CONTINUOUS
 10
250.4645157113
 20
44.4941322298
 30
0.0
 11
1.0
 21
-0.0
 31
0.0
 40
0.4320598051
 41
0.0
 42
1.5707963268
  0
ELLIPSE
  5
6A8
100
AcDbEntity
  8
RUNDUNGEN
100
AcDbEllipse
 62
7
  6
CONTINUOUS
 10
244.8645157113
 20
44.4941322298
 30
0.0
 11
1.0
 21
-0.0
 31
0.0
 40
0.4320598051
 41
1.5707963268
 42
3.1415926536
  0
ELLIPSE
  5
6A9
100
AcDbEntity
  8
RUNDUNGEN
100
AcDbEllipse
 62
7
  6
CONTINUOUS
 10
250.4645157113
 20
29.7024930689
 30
0.0
 11
1.0
 21
-0.0
 31
0.0
 40
0.4320598051
 41
-0.0
 42
1.5707963268
  0
ELLIPSE
  5
6AA
100
AcDbEntity
  8
RUNDUNGEN
100
AcDbEllipse
 62
7
  6
CONTINUOUS
 10
244.8645157113
 20
29.7024930689
 30
0.0
 11
1.0
 21
0.0
 31
0.0
 40
0.4320598051
 41
1.5707963268
 42
3.1415926536
  0
ELLIPSE
  5
6AB
100
AcDbEntity
  8
KONSTRUKTIONSELEMENTE
100
AcDbEllipse
 62
7
  6
CONTINUOUS
 10
247.6645157113
 20
83.3991448036
 30
0.0
 11
4.8
 21
0.0
 31
0.0
 40
0.1944422857
 41
-2.8693173333
 42
-2.8010190566
  0
ELLIPSE
  5
6AC
100
AcDbEntity
  8
KONSTRUKTIONSELEMENTE
100
AcDbEllipse
 62
7
  6
CONTINUOUS
 10
247.6645157113
 20
86.8618915265
 30
0.0
 11
-0.0
 21
11.2999653248
 31
0.0
 40
0.4247800645
 41
-4.3718153834
 42
-4.3486948286
  0
ELLIPSE
  5
6AD
100
AcDbEntity
  8
KONSTRUKTIONSELEMENTE
100
AcDbEllipse
 62
7
  6
CONTINUOUS
 10
247.6645157113
 20
83.439356472
 30
0.0
 11
4.8
 21
0.0
 31
0.0
 40
0.2375001328
 41
2.8467126868
 42
2.9584525723
  0
ELLIPSE
  5
6AE
100
AcDbEntity
  8
KONSTRUKTIONSELEMENTE
100
AcDbEllipse
 62
7
  6
CONTINUOUS
 10
247.6645157113
 20
75.1616386162
 30
0.0
 11
0.0
 21
15.3570881913
 31
0.0
 40
0.3125592521
 41
1.207102175
 42
1.2302227298
  0
ELLIPSE
  5
6AF
100
AcDbEntity
  8
KONSTRUKTIONSELEMENTE
100
AcDbEllipse
 62
7
  6
CONTINUOUS
 10
247.6645157113
 20
78.6243808353
 30
0.0
 11
0.0
 21
4.9904593211
 31
0.0
 40
0.9618353124
 41
1.2302227298
 42
1.2985210065
  0
ELLIPSE
  5
6B0
100
AcDbEntity
  8
KONSTRUKTIONSELEMENTE
100
AcDbEllipse
 62
7
  6
CONTINUOUS
 10
247.6645157113
 20
79.122207747
 30
0.0
 11
4.8
 21
-0.0
 31
0.0
 40
0.6540158567
 41
2.8693173333
 42
2.9584525723
  0
ELLIPSE
  5
6B1
100
AcDbEntity
  8
KONSTRUKTIONSELEMENTE
100
AcDbEllipse
 62
7
  6
CONTINUOUS
 10
227.0174929979
 20
35.2007300839
 30
0.0
 11
4.1874697718
 21
2.7737268933
 31
0.0
 40
0.3907039541
 41
1.2322707679
 42
1.4151599794
  0
ELLIPSE
  5
6B2
100
AcDbEntity
  8
KONSTRUKTIONSELEMENTE
100
AcDbEllipse
 62
7
  6
CONTINUOUS
 10
268.6923277157
 20
38.743324758
 30
0.0
 11
1.5003079987
 21
0.0023094405
 31
0.0
 40
0.829204368
 41
-2.9876752741
 42
-2.1170918751
  0
ELLIPSE
  5
6B3
100
AcDbEntity
  8
KONSTRUKTIONSELEMENTE
100
AcDbEllipse
 62
7
  6
CONTINUOUS
 10
226.636703707
 20
38.743324758
 30
0.0
 11
1.5003079987
 21
-0.0023094405
 31
0.0
 40
0.829204368
 41
-1.0245007785
 42
-0.1539173795
  0
ELLIPSE
  5
6B4
100
AcDbEntity
  8
KONSTRUKTIONSELEMENTE
100
AcDbEllipse
 62
7
  6
CONTINUOUS
 10
268.3115384247
 20
35.2007300839
 30
0.0
 11
4.1874697718
 21
-2.7737268933
 31
0.0
 40
0.3907039541
 41
1.7264343537
 42
1.9093218857
  0
ELLIPSE
  5
6B5
100
AcDbEntity
  8
KONSTRUKTIONSELEMENTE
100
AcDbEllipse
 62
7
  6
CONTINUOUS
 10
220.6746052775
 20
38.5199346837
 30
0.0
 11
-0.7397989706
 21
7.7509762033
 31
0.0
 40
0.0440166521
 41
-3.1407091023
 42
-2.2211537636
  0
ELLIPSE
  5
6B6
100
AcDbEntity
  8
KONSTRUKTIONSELEMENTE
100
AcDbEllipse
 62
7
  6
CONTINUOUS
 10
274.6544261452
 20
44.4365903481
 30
0.0
 11
0.7397989706
 21
7.7509762033
 31
0.0
 40
0.0440166521
 41
-4.0620316812
 42
-3.1424762048
  0
ELLIPSE
  5
6B7
100
AcDbEntity
  8
KONSTRUKTIONSELEMENTE
100
AcDbEllipse
 62
7
  6
CONTINUOUS
 10
268.3115384247
 20
35.2687008179
 30
0.0
 11
4.2849148708
 21
-2.4338916105
 31
0.0
 40
0.2426629569
 41
-1.5191077896
 42
-1.3362185782
  0
ELLIPSE
  5
6B8
100
AcDbEntity
  8
KONSTRUKTIONSELEMENTE
100
AcDbEllipse
 62
7
  6
CONTINUOUS
 10
268.6923277157
 20
35.3546749116
 30
0.0
 11
1.5002715041
 21
0.0110647748
 31
0.0
 40
0.9614518516
 41
-2.9934896347
 42
-2.1229062356
  0
ELLIPSE
  5
6B9
100
AcDbEntity
  8
KONSTRUKTIONSELEMENTE
100
AcDbEllipse
 62
7
  6
CONTINUOUS
 10
226.636703707
 20
35.3546749116
 30
0.0
 11
1.5002715041
 21
-0.0110647748
 31
0.0
 40
0.9614518516
 41
-1.018686418
 42
-0.1481030189
  0
ELLIPSE
  5
6BA
100
AcDbEntity
  8
KONSTRUKTIONSELEMENTE
100
AcDbEllipse
 62
7
  6
CONTINUOUS
 10
274.1715466526
 20
30.7706052856
 30
0.0
 11
0.190885124
 21
1.9999823493
 31
0.0
 40
0.0440187668
 41
1.2433850452
 42
2.7094616168
  0
ELLIPSE
  5
6BB
100
AcDbEntity
  8
KONSTRUKTIONSELEMENTE
100
AcDbEllipse
 62
7
  6
CONTINUOUS
 10
221.15748477
 20
30.7706052856
 30
0.0
 11
-0.190885124
 21
1.9999823493
 31
0.0
 40
0.0440187668
 41
-2.7094616168
 42
-1.2433850452
  0
ELLIPSE
  5
6BC
100
AcDbEntity
  8
KONSTRUKTIONSELEMENTE
100
AcDbEllipse
 62
7
  6
CONTINUOUS
 10
227.0174929979
 20
35.2687008179
 30
0.0
 11
4.2849148708
 21
2.4338916105
 31
0.0
 40
0.2426629569
 41
-1.8053723979
 42
-1.6224848639
  0
ENDSEC
  0
SECTION
  2
OBJECTS
  0
DICTIONARY
  5
C
100
AcDbDictionary
280
0
281
1
  3
ACAD_GROUP
350
D
  3
ACAD_MLINESTYLE
350
17
  3
ACAD_LAYOUT
350
1A
  3
ACAD_PLOTSETTINGS
350
19
  3
ACAD_PLOTSTYLENAME
350
E
  0
DICTIONARY
  5
D
102
{ACAD_REACTORS
330
C
102
}
100
AcDbDictionary
280
0
281
1
  0
ACDBDICTIONARYWDFLT
  5
E
102
{ACAD_REACTORS
330
C
102
}
100
AcDbDictionary
281
1
  3
Normal
350
F
100
AcDbDictionaryWithDefault
340
F
  0
DICTIONARY
  5
17
102
{ACAD_REACTORS
330
C
102
}
100
AcDbDictionary
280
0
281
1
  3
Standard
350
18
  0
DICTIONARY
  5
19
102
{ACAD_REACTORS
330
C
102
}
100
AcDbDictionary
281
1
  0
DICTIONARY
  5
1A
102
{ACAD_REACTORS
330
C
102
}
100
AcDbDictionary
281
1
  3
Model
350
6BD
  3
Layout1
350
6BE
  0
ACDBPLACEHOLDER
  5
F
102
{ACAD_REACTORS
330
E
102
}
  0
MLINESTYLE
  5
18
102
{ACAD_REACTORS
330
17
102
}
100
AcDbMlineStyle
  2
STANDARD
 70
0
  3

 62
256
 51
90.0
 52
90.0
 71
2
 49
0.5
 62
256
  6
BYLAYER
 49
-0.5
 62
256
  6
BYLAYER
  0
LAYOUT
  5
6BD
102
{ACAD_REACTORS
330
1A
102
}
100
AcDbPlotSettings
  1

  2
none_device
  4
ISO_A4_(297.00_x_210.00_MM)
  6

 40
0.0
 41
0.0
 42
0.0
 43
0.0
 44
297.0
 45
210.0
 46
0.0
 47
0.0
 48
0.0
 49
0.0
140
0.0
141
0.0
142
1.0
143
1.0
 70
1024
 72
1
 73
0
 74
0
  7

 75
0
147
1.0
148
0.0
149
0.0
100
AcDbLayout
  1
Model
 70
0
 71
0
 10
0.0
 20
0.0
 11
297.0
 21
210.0
 12
0.0
 22
0.0
 32
0.0
 14
0.0
 24
0.0
 34
0.0
 15
0.0
 25
0.0
 35
0.0
146
0.0
 13
0.0
 23
0.0
 33
0.0
 16
1.0
 26
0.0
 36
0.0
 17
0.0
 27
1.0
 37
0.0
 76
0
330
214
345
0
346
0
  0
LAYOUT
  5
6BE
102
{ACAD_REACTORS
330
1A
102
}
100
AcDbPlotSettings
  1

  2
none_device
  4
ISO_A4_(297.00_x_210.00_MM)
  6

 40
0.0
 41
0.0
 42
0.0
 43
0.0
 44
297.0
 45
210.0
 46
0.0
 47
0.0
 48
0.0
 49
0.0
140
0.0
141
0.0
142
1.0
143
1.0
 70
0
 72
1
 73
0
 74
0
  7

 75
0
147
1.0
148
0.0
149
0.0
100
AcDbLayout
  1
Layout1
 70
0
 71
1
 10
0.0
 20
0.0
 11
297.0
 21
210.0
 12
0.0
 22
0.0
 32
0.0
 14
0.0
 24
0.0
 34
0.0
 15
0.0
 25
0.0
 35
0.0
146
0.0
 13
0.0
 23
0.0
 33
0.0
 16
1.0
 26
0.0
 36
0.0
 17
0.0
 27
1.0
 37
0.0
 76
0
330
215
345
0
346
0
  0
ENDSEC
  0
EOF
