999
DXF file: OPTILASH-CLICK_10000daN_7909602_M35654-P-30.dxf
999
Pro/ENGINEER 2011490 by Parametric Technology Corporation
  0
SECTION
  2
HEADER
  9
$ACADVER
  1
AC1015
  9
$DWGCODEPAGE
  3
ANSI_1252
  9
$EXTMAX
 10
594.0
 20
420.0
 30
0.0
  9
$EXTMIN
 10
0.0
 20
0.0
 30
0.0
  9
$LIMMIN
 10
0.0
 20
0.0
  9
$LIMMAX
 10
594.0
 20
420.0
  9
$VIEWCTR
 10
297.0
 20
210.0
  9
$VIEWSIZE
 40
420.0
  9
$CLAYER
  8
0
  9
$LTSCALE
 40
32.67
  9
$CELTYPE
  6
BYLAYER
  9
$DIMSCALE
 40
1.0
  9
$DIMASZ
 40
3.5
  9
$DIMEXO
 40
3.7125
  9
$DIMDLI
 40
22.572
  9
$DIMEXE
 40
10.692
  9
$DIMCEN
 40
5.346
  9
$DIMLFAC
 40
1.0
  9
$DIMBLK
  1
_FILLED
  9
$DIMTXT
 40
3.5
  9
$DIMTOL
 70
1
  9
$DIMLIM
 70
0
  9
$DIMTFAC
 40
1.0
  9
$DIMTP
 40
0.005
  9
$DIMTM
 40
0.005
  9
$PDMODE
 70
3
  9
$PDSIZE
 40
0.3125
  9
$HANDSEED
  5
718
  9
$TILEMODE
 70
1
  9
$MEASUREMENT
 70
1
  9
$INSUNITS
 70
4
  0
ENDSEC
  0
SECTION
  2
CLASSES
  0
CLASS
  1
ACDBDICTIONARYWDFLT
  2
AcDbDictionaryWithDefault
  3
AutoCAD 2000
 90
0
280
0
281
0
  0
CLASS
  1
ACDBPLACEHOLDER
  2
AcDbPlaceHolder
  3
AutoCAD 2000
 90
0
280
0
281
0
  0
CLASS
  1
LAYOUT
  2
AcDbLayout
  3
AutoCAD 2000
 90
0
280
0
281
0
  0
ENDSEC
  0
SECTION
  2
TABLES
  0
TABLE
  2
VPORT
  5
8
100
AcDbSymbolTable
 70
2
  0
VPORT
  5
1F4
100
AcDbSymbolTableRecord
100
AcDbViewportTableRecord
  2
*ACTIVE
 70
0
 10
0.0
 20
0.0
 11
1.0
 21
1.0
 12
297.0
 22
210.0
 13
0.0
 23
0.0
 14
1.0
 24
1.0
 15
0.0
 25
0.0
 16
0.0
 26
0.0
 36
1.0
 17
0.0
 27
0.0
 37
0.0
 40
420.0
 41
1.4142857143
 42
50.0
 43
0.0
 44
0.0
 50
0.0
 51
0.0
 71
0
 72
100
 73
1
 74
1
 75
0
 76
0
 77
0
 78
0
  0
ENDTAB
  0
TABLE
  2
LTYPE
  5
5
100
AcDbSymbolTable
 70
6
  0
LTYPE
  5
14
100
AcDbSymbolTableRecord
100
AcDbLinetypeTableRecord
  2
BYBLOCK
 70
0
  3

 72
65
 73
0
 40
0.0
  0
LTYPE
  5
15
100
AcDbSymbolTableRecord
100
AcDbLinetypeTableRecord
  2
BYLAYER
 70
0
  3

 72
65
 73
0
 40
0.0
  0
LTYPE
  5
16
100
AcDbSymbolTableRecord
100
AcDbLinetypeTableRecord
  2
CONTINUOUS
 70
64
  3
Solid line
 72
65
 73
0
 40
0.0
  0
LTYPE
  5
1F5
100
AcDbSymbolTableRecord
100
AcDbLinetypeTableRecord
  2
CENTER
 70
64
  3
____ _ ____ _ ____ _ ____ _ ____ _ ____ _ ____
 72
65
 73
4
 40
0.6
 49
0.375
 74
0
 49
-0.075
 74
0
 49
0.075
 74
0
 49
-0.075
 74
0
  0
LTYPE
  5
1F6
100
AcDbSymbolTableRecord
100
AcDbLinetypeTableRecord
  2
HIDDEN
 70
64
  3
- - - - - - - - - - - - - - - - - - - -
 72
65
 73
2
 40
0.2
 49
0.1
 74
0
 49
-0.1
 74
0
  0
LTYPE
  5
1F7
100
AcDbSymbolTableRecord
100
AcDbLinetypeTableRecord
  2
PHANTOM
 70
64
  3
_____ _ _ _____ _ _ _____ _ _ _____
 72
65
 73
6
 40
0.8
 49
0.45
 74
0
 49
-0.05
 74
0
 49
0.1
 74
0
 49
-0.05
 74
0
 49
0.1
 74
0
 49
-0.05
 74
0
  0
LTYPE
  5
1F8
100
AcDbSymbolTableRecord
100
AcDbLinetypeTableRecord
  2
DOT
 70
64
  3
. . . . . . . . . . . . . . . . . . . .
 72
65
 73
2
 40
0.2
 49
0.1
 74
0
 49
-0.1
 74
0
  0
LTYPE
  5
1F9
100
AcDbSymbolTableRecord
100
AcDbLinetypeTableRecord
  2
DASHED
 70
64
  3
- - - - - - - - - - - - - - - - - - - -
 72
65
 73
2
 40
0.2
 49
0.1
 74
0
 49
-0.1
 74
0
  0
ENDTAB
  0
TABLE
  2
LAYER
  5
2
100
AcDbSymbolTable
 70
36
  0
LAYER
  5
10
100
AcDbSymbolTableRecord
100
AcDbLayerTableRecord
  2
0
 70
0
 62
7
  6
CONTINUOUS
370
-3
390
F
  0
LAYER
  5
1FA
100
AcDbSymbolTableRecord
100
AcDbLayerTableRecord
  2
DEFAULT_1
 70
0
 62
7
  6
CENTER
370
-3
390
F
  0
LAYER
  5
1FB
100
AcDbSymbolTableRecord
100
AcDbLayerTableRecord
  2
DEFAULT_2
 70
0
 62
8
  6
HIDDEN
370
-3
390
F
  0
LAYER
  5
1FC
100
AcDbSymbolTableRecord
100
AcDbLayerTableRecord
  2
DEFAULT_3
 70
0
 62
7
  6
PHANTOM
370
-3
390
F
  0
LAYER
  5
1FD
100
AcDbSymbolTableRecord
100
AcDbLayerTableRecord
  2
AUSFORMSCHRAEGEN
 70
0
 62
7
  6
CONTINUOUS
370
-3
390
F
  0
LAYER
  5
1FE
100
AcDbSymbolTableRecord
100
AcDbLayerTableRecord
  2
BEZUGSACHSEN
 70
0
 62
7
  6
CONTINUOUS
370
-3
390
F
  0
LAYER
  5
1FF
100
AcDbSymbolTableRecord
100
AcDbLayerTableRecord
  2
BEZUGSEBENEN
 70
0
 62
7
  6
CONTINUOUS
370
-3
390
F
  0
LAYER
  5
200
100
AcDbSymbolTableRecord
100
AcDbLayerTableRecord
  2
BG_STARTBEZUEGE
 70
0
 62
7
  6
CONTINUOUS
370
-3
390
F
  0
LAYER
  5
201
100
AcDbSymbolTableRecord
100
AcDbLayerTableRecord
  2
FASEN
 70
0
 62
7
  6
CONTINUOUS
370
-3
390
F
  0
LAYER
  5
202
100
AcDbSymbolTableRecord
100
AcDbLayerTableRecord
  2
FLAECHEN
 70
0
 62
7
  6
CONTINUOUS
370
-3
390
F
  0
LAYER
  5
203
100
AcDbSymbolTableRecord
100
AcDbLayerTableRecord
  2
HILFEN
 70
0
 62
7
  6
CONTINUOUS
370
-3
390
F
  0
LAYER
  5
204
100
AcDbSymbolTableRecord
100
AcDbLayerTableRecord
  2
KURVEN
 70
0
 62
7
  6
CONTINUOUS
370
-3
390
F
  0
LAYER
  5
205
100
AcDbSymbolTableRecord
100
AcDbLayerTableRecord
  2
NORM
 70
0
 62
7
  6
CONTINUOUS
370
-3
390
F
  0
LAYER
  5
206
100
AcDbSymbolTableRecord
100
AcDbLayerTableRecord
  2
PLATZIERUNG
 70
0
 62
7
  6
CONTINUOUS
370
-3
390
F
  0
LAYER
  5
207
100
AcDbSymbolTableRecord
100
AcDbLayerTableRecord
  2
RUNDUNGEN
 70
0
 62
7
  6
CONTINUOUS
370
-3
390
F
  0
LAYER
  5
208
100
AcDbSymbolTableRecord
100
AcDbLayerTableRecord
  2
T_STARTBEZUEGE
 70
0
 62
7
  6
CONTINUOUS
370
-3
390
F
  0
LAYER
  5
209
100
AcDbSymbolTableRecord
100
AcDbLayerTableRecord
  2
ZEICHNUNGSBEMASSUNGEN
 70
0
 62
7
  6
CONTINUOUS
370
-3
390
F
  0
ENDTAB
  0
TABLE
  2
STYLE
  5
3
100
AcDbSymbolTable
 70
1
  0
STYLE
  5
11
100
AcDbSymbolTableRecord
100
AcDbTextStyleTableRecord
  2
STANDARD
 70
0
 40
0.0
 41
0.7
 50
0.0
 71
0
 42
0.2
  3
txt
  4

  0
STYLE
  5
20A
100
AcDbSymbolTableRecord
100
AcDbTextStyleTableRecord
  2
TEXTSTYLE_1
 70
0
 40
0.0
 41
0.8
 50
0.0
 71
0
 42
0.2
  3
gdt
  4

  0
ENDTAB
  0
TABLE
  2
VIEW
  5
6
100
AcDbSymbolTable
 70
0
  0
ENDTAB
  0
TABLE
  2
UCS
  5
7
100
AcDbSymbolTable
 70
0
  0
ENDTAB
  0
TABLE
  2
APPID
  5
9
100
AcDbSymbolTable
 70
1
  0
APPID
  5
20B
100
AcDbSymbolTableRecord
100
AcDbRegAppTableRecord
  2
ACAD
 70
0
  0
ENDTAB
  0
TABLE
  2
BLOCK_RECORD
  5
1
100
AcDbSymbolTable
 70
0
  0
BLOCK_RECORD
  5
20C
100
AcDbSymbolTableRecord
100
AcDbBlockTableRecord
  2
*Model_Space
  0
BLOCK_RECORD
  5
20D
100
AcDbSymbolTableRecord
100
AcDbBlockTableRecord
  2
*Paper_Space
  0
ENDTAB
  0
TABLE
  2
DIMSTYLE
  5
A
100
AcDbSymbolTable
 70
1
100
AcDbDimStyleTable
 71
0
  0
DIMSTYLE
105
20E
100
AcDbSymbolTableRecord
100
AcDbDimStyleTableRecord
  2
STANDARD
 70
0
  3

  4

 40
1.0
 41
3.5
 42
0.0625
 43
0.38
 44
0.18
 45
0.0
 46
0.0
 47
0.005
 48
0.005
140
3.5
141
0.09
142
0.0
143
25.4
144
1.0
145
0.0
146
1.0
147
0.09
 71
1.0
 72
0.0
 73
0
 74
0
 75
0
 76
0
 77
1
 78
8
170
0
171
2
172
0
173
0
174
0
175
0
176
0
177
0
178
5
270
2
271
3
272
3
273
2
274
2
275
0
280
0
281
0
282
0
283
1
284
8
285
0
286
0
287
3
288
0
340
11
  0
ENDTAB
  0
ENDSEC
  0
SECTION
  2
BLOCKS
  0
BLOCK
  5
20
100
AcDbEntity
  8
0
100
AcDbBlockBegin
  2
*Model_Space
 70
0
 10
0.0
 20
0.0
 30
0.0
  3
*Model_Space
  1

  0
ENDBLK
  5
21
100
AcDbEntity
  8
0
100
AcDbBlockEnd
  0
BLOCK
  5
1C
100
AcDbEntity
  8
0
100
AcDbBlockBegin
  2
*Paper_Space
 70
0
 10
0.0
 20
0.0
 30
0.0
  3
*Paper_Space
  1

  0
ENDBLK
  5
1D
100
AcDbEntity
  8
0
100
AcDbBlockEnd
  0
ENDSEC
  0
SECTION
  2
ENTITIES
  0
LINE
  5
20F
100
AcDbEntity
  8
0
100
AcDbLine
 62
7
  6
CONTINUOUS
 10
0.0
 20
0.0
 11
0.0
 21
420.0
  0
LINE
  5
210
100
AcDbEntity
  8
0
100
AcDbLine
 62
7
  6
CONTINUOUS
 10
0.0
 20
0.0
 11
594.0
 21
0.0
  0
LINE
  5
211
100
AcDbEntity
  8
0
100
AcDbLine
 62
7
  6
CONTINUOUS
 10
0.0
 20
420.0
 11
594.0
 21
420.0
  0
LINE
  5
212
100
AcDbEntity
  8
0
100
AcDbLine
 62
7
  6
CONTINUOUS
 10
594.0
 20
0.0
 11
594.0
 21
420.0
  0
LINE
  5
213
100
AcDbEntity
  8
RUNDUNGEN
100
AcDbLine
 62
7
  6
CONTINUOUS
 10
121.7117602926
 20
150.6640881043
 11
121.7117602926
 21
170.6640782856
  0
LINE
  5
214
100
AcDbEntity
  8
0
100
AcDbLine
 62
7
  6
CONTINUOUS
 10
141.7117602926
 20
135.6640832992
 11
153.2117602926
 21
135.6640832992
  0
LINE
  5
215
100
AcDbEntity
  8
0
100
AcDbLine
 62
7
  6
CONTINUOUS
 10
226.2117602926
 20
135.6640832992
 11
231.0343103373
 21
135.6640832992
  0
LINE
  5
216
100
AcDbEntity
  8
0
100
AcDbLine
 62
7
  6
CONTINUOUS
 10
158.2117602926
 20
145.6640832992
 11
221.2117602926
 21
145.6640832992
  0
LINE
  5
217
100
AcDbEntity
  8
RUNDUNGEN
100
AcDbLine
 62
7
  6
CONTINUOUS
 10
137.7117602926
 20
227.7427841415
 11
137.7117602926
 21
139.6641530527
  0
LINE
  5
218
100
AcDbEntity
  8
RUNDUNGEN
100
AcDbLine
 62
7
  6
CONTINUOUS
 10
137.7117602926
 20
227.7427841415
 11
137.7512859843
 21
228.6310135903
  0
LINE
  5
219
100
AcDbEntity
  8
0
100
AcDbLine
 62
7
  6
CONTINUOUS
 10
136.7117602926
 20
149.6640832992
 11
122.7117602926
 21
149.6640832992
  0
LINE
  5
21A
100
AcDbEntity
  8
0
100
AcDbLine
 62
7
  6
CONTINUOUS
 10
236.7824289958
 20
149.6640832992
 11
252.8405340651
 21
149.6640832992
  0
LINE
  5
21B
100
AcDbEntity
  8
0
100
AcDbLine
 62
7
  6
CONTINUOUS
 10
241.7117602926
 20
153.1142488639
 11
253.440923994
 21
153.1142488639
  0
LINE
  5
21C
100
AcDbEntity
  8
RUNDUNGEN
100
AcDbLine
 62
7
  6
CONTINUOUS
 10
191.7117602926
 20
154.6640832992
 11
221.7117602926
 21
154.6640832992
  0
LINE
  5
21D
100
AcDbEntity
  8
0
100
AcDbLine
 62
7
  6
CONTINUOUS
 10
197.7117602926
 20
157.6640832992
 11
209.7163269436
 21
157.6640832992
  0
LINE
  5
21E
100
AcDbEntity
  8
0
100
AcDbLine
 62
7
  6
CONTINUOUS
 10
212.5570597543
 20
158.6640832992
 11
214.866460831
 21
158.6640832992
  0
LINE
  5
21F
100
AcDbEntity
  8
0
100
AcDbLine
 62
7
  6
CONTINUOUS
 10
214.866460831
 20
162.6640832992
 11
212.5570597543
 21
162.6640832992
  0
LINE
  5
220
100
AcDbEntity
  8
0
100
AcDbLine
 62
7
  6
CONTINUOUS
 10
209.7163269436
 20
163.6640832992
 11
197.7117602926
 21
163.6640832992
  0
LINE
  5
221
100
AcDbEntity
  8
RUNDUNGEN
100
AcDbLine
 62
7
  6
CONTINUOUS
 10
155.7117602926
 20
166.1370100572
 11
155.7117602926
 21
138.1640922663
  0
LINE
  5
222
100
AcDbEntity
  8
0
100
AcDbLine
 62
7
  6
CONTINUOUS
 10
241.7117602926
 20
168.2139177344
 11
256.1034030157
 21
168.2139177344
  0
LINE
  5
223
100
AcDbEntity
  8
0
100
AcDbLine
 62
7
  6
CONTINUOUS
 10
136.7117602926
 20
171.6640832992
 11
122.7117602926
 21
171.6640832992
  0
LINE
  5
224
100
AcDbEntity
  8
0
100
AcDbLine
 62
7
  6
CONTINUOUS
 10
241.3059388307
 20
171.6640832992
 11
256.7037882775
 21
171.6640832992
  0
LINE
  5
225
100
AcDbEntity
  8
0
100
AcDbLine
 62
7
  6
CONTINUOUS
 10
169.4930102926
 20
178.4832322345
 11
169.8680104715
 21
178.2704662745
  0
LINE
  5
226
100
AcDbEntity
  8
0
100
AcDbLine
 62
7
  6
CONTINUOUS
 10
169.9617601138
 20
178.908764136
 11
169.6805101138
 21
179.1215301425
  0
LINE
  5
227
100
AcDbEntity
  8
0
100
AcDbLine
 62
7
  6
CONTINUOUS
 10
169.1180103821
 20
178.908764136
 11
169.4930102926
 21
178.4832322345
  0
LINE
  5
228
100
AcDbEntity
  8
RUNDUNGEN
100
AcDbLine
 62
7
  6
CONTINUOUS
 10
159.7117602926
 20
175.0163114691
 11
159.7117602926
 21
213.4937308298
  0
LINE
  5
229
100
AcDbEntity
  8
0
100
AcDbLine
 62
7
  6
CONTINUOUS
 10
197.8055095774
 20
178.1640832992
 11
198.1805102926
 21
178.2704662745
  0
LINE
  5
22A
100
AcDbEntity
  8
0
100
AcDbLine
 62
7
  6
CONTINUOUS
 10
198.1805102926
 20
178.8023811699
 11
197.8055095774
 21
178.6959982039
  0
LINE
  5
22B
100
AcDbEntity
  8
0
100
AcDbLine
 62
7
  6
CONTINUOUS
 10
200.8055088621
 20
179.8662109048
 11
201.1805117232
 21
179.9725938709
  0
LINE
  5
22C
100
AcDbEntity
  8
0
100
AcDbLine
 62
7
  6
CONTINUOUS
 10
200.6180095774
 20
181.0364236803
 11
200.9930102926
 21
181.1428066463
  0
LINE
  5
22D
100
AcDbEntity
  8
0
100
AcDbLine
 62
7
  6
CONTINUOUS
 10
197.2430095774
 20
181.5683385105
 11
196.8680110079
 21
181.4619555445
  0
LINE
  5
22E
100
AcDbEntity
  8
0
100
AcDbLine
 62
7
  6
CONTINUOUS
 10
201.3680088621
 20
178.1640832992
 11
201.8367602926
 21
178.2704662745
  0
LINE
  5
22F
100
AcDbEntity
  8
0
100
AcDbLine
 62
7
  6
CONTINUOUS
 10
194.1492595774
 20
178.8023811699
 11
193.6805102926
 21
178.6959982039
  0
LINE
  5
230
100
AcDbEntity
  8
0
100
AcDbLine
 62
7
  6
CONTINUOUS
 10
190.0242602926
 20
178.8023811699
 11
189.5555110079
 21
178.6959982039
  0
LINE
  5
231
100
AcDbEntity
  8
0
100
AcDbLine
 62
7
  6
CONTINUOUS
 10
185.8992610079
 20
178.8023811699
 11
185.4305095774
 21
178.6959982039
  0
LINE
  5
232
100
AcDbEntity
  8
0
100
AcDbLine
 62
7
  6
CONTINUOUS
 10
193.6805102926
 20
178.1640832992
 11
194.2430102926
 21
178.2704662745
  0
LINE
  5
233
100
AcDbEntity
  8
0
100
AcDbLine
 62
7
  6
CONTINUOUS
 10
189.5555110079
 20
178.1640832992
 11
190.1180110079
 21
178.2704662745
  0
LINE
  5
234
100
AcDbEntity
  8
0
100
AcDbLine
 62
7
  6
CONTINUOUS
 10
201.1805117232
 20
180.398125884
 11
200.6180095774
 21
180.291742918
  0
LINE
  5
235
100
AcDbEntity
  8
0
100
AcDbLine
 62
7
  6
CONTINUOUS
 10
185.4305095774
 20
178.1640832992
 11
185.9930095774
 21
178.2704662745
  0
LINE
  5
236
100
AcDbEntity
  8
0
100
AcDbLine
 62
7
  6
CONTINUOUS
 10
181.3055102926
 20
178.1640832992
 11
181.8680102926
 21
178.2704662745
  0
LINE
  5
237
100
AcDbEntity
  8
0
100
AcDbLine
 62
7
  6
CONTINUOUS
 10
200.9930102926
 20
181.5683385105
 11
200.3367595774
 21
181.4619555445
  0
LINE
  5
238
100
AcDbEntity
  8
0
100
AcDbLine
 62
7
  6
CONTINUOUS
 10
164.7117602926
 20
178.1640832992
 11
168.0867602926
 21
178.1640832992
  0
LINE
  5
239
100
AcDbEntity
  8
0
100
AcDbLine
 62
7
  6
CONTINUOUS
 10
170.3367602926
 20
178.1640832992
 11
171.1805102926
 21
178.1640832992
  0
LINE
  5
23A
100
AcDbEntity
  8
0
100
AcDbLine
 62
7
  6
CONTINUOUS
 10
178.305509935
 20
178.1640832992
 11
178.868009935
 21
178.1640832992
  0
LINE
  5
23B
100
AcDbEntity
  8
0
100
AcDbLine
 62
7
  6
CONTINUOUS
 10
197.2430095774
 20
178.1640832992
 11
197.8055095774
 21
178.1640832992
  0
LINE
  5
23C
100
AcDbEntity
  8
0
100
AcDbLine
 62
7
  6
CONTINUOUS
 10
198.6492595774
 20
178.1640832992
 11
199.1180110079
 21
178.1640832992
  0
LINE
  5
23D
100
AcDbEntity
  8
0
100
AcDbLine
 62
7
  6
CONTINUOUS
 10
200.8055088621
 20
178.1640832992
 11
201.3680088621
 21
178.1640832992
  0
LINE
  5
23E
100
AcDbEntity
  8
0
100
AcDbLine
 62
7
  6
CONTINUOUS
 10
202.3992602926
 20
178.1640832992
 11
202.8680117232
 21
178.1640832992
  0
LINE
  5
23F
100
AcDbEntity
  8
0
100
AcDbLine
 62
7
  6
CONTINUOUS
 10
203.6180088621
 20
178.1640832992
 11
204.1805088621
 21
178.1640832992
  0
LINE
  5
240
100
AcDbEntity
  8
0
100
AcDbLine
 62
7
  6
CONTINUOUS
 10
206.5242617232
 20
178.1640832992
 11
207.3680117232
 21
178.1640832992
  0
LINE
  5
241
100
AcDbEntity
  8
0
100
AcDbLine
 62
7
  6
CONTINUOUS
 10
201.3680088621
 20
178.5896152006
 11
200.8055088621
 21
178.5896152006
  0
LINE
  5
242
100
AcDbEntity
  8
0
100
AcDbLine
 62
7
  6
CONTINUOUS
 10
197.8055095774
 20
178.6959982039
 11
197.4305110079
 21
178.6959982039
  0
LINE
  5
243
100
AcDbEntity
  8
0
100
AcDbLine
 62
7
  6
CONTINUOUS
 10
171.1805102926
 20
178.8023811699
 11
170.3367602926
 21
178.8023811699
  0
LINE
  5
244
100
AcDbEntity
  8
0
100
AcDbLine
 62
7
  6
CONTINUOUS
 10
168.0867602926
 20
178.8023811699
 11
165.2742602926
 21
178.8023811699
  0
LINE
  5
245
100
AcDbEntity
  8
0
100
AcDbLine
 62
7
  6
CONTINUOUS
 10
172.4930101138
 20
179.4406790407
 11
171.9305101138
 21
179.4406790407
  0
LINE
  5
246
100
AcDbEntity
  8
0
100
AcDbLine
 62
7
  6
CONTINUOUS
 10
201.1805117232
 20
179.9725938709
 11
202.2117588621
 21
179.9725938709
  0
LINE
  5
247
100
AcDbEntity
  8
0
100
AcDbLine
 62
7
  6
CONTINUOUS
 10
202.2117588621
 20
180.398125884
 11
201.1805117232
 21
180.398125884
  0
LINE
  5
248
100
AcDbEntity
  8
0
100
AcDbLine
 62
7
  6
CONTINUOUS
 10
199.8680102926
 20
180.7172747822
 11
200.3367595774
 21
180.7172747822
  0
LINE
  5
249
100
AcDbEntity
  8
0
100
AcDbLine
 62
7
  6
CONTINUOUS
 10
180.7430102926
 20
178.2704662745
 11
181.3055102926
 21
178.1640832992
  0
LINE
  5
24A
100
AcDbEntity
  8
0
100
AcDbLine
 62
7
  6
CONTINUOUS
 10
184.8680095774
 20
178.2704662745
 11
185.4305095774
 21
178.1640832992
  0
LINE
  5
24B
100
AcDbEntity
  8
0
100
AcDbLine
 62
7
  6
CONTINUOUS
 10
188.9930110079
 20
178.2704662745
 11
189.5555110079
 21
178.1640832992
  0
LINE
  5
24C
100
AcDbEntity
  8
0
100
AcDbLine
 62
7
  6
CONTINUOUS
 10
193.1180102926
 20
178.2704662745
 11
193.6805102926
 21
178.1640832992
  0
LINE
  5
24D
100
AcDbEntity
  8
0
100
AcDbLine
 62
7
  6
CONTINUOUS
 10
169.8680104715
 20
178.2704662745
 11
170.3367602926
 21
178.1640832992
  0
LINE
  5
24E
100
AcDbEntity
  8
0
100
AcDbLine
 62
7
  6
CONTINUOUS
 10
181.3055102926
 20
178.6959982039
 11
180.836759935
 21
178.8023811699
  0
LINE
  5
24F
100
AcDbEntity
  8
0
100
AcDbLine
 62
7
  6
CONTINUOUS
 10
185.4305095774
 20
178.6959982039
 11
184.9617602926
 21
178.8023811699
  0
LINE
  5
250
100
AcDbEntity
  8
0
100
AcDbLine
 62
7
  6
CONTINUOUS
 10
189.5555110079
 20
178.6959982039
 11
189.0867595774
 21
178.8023811699
  0
LINE
  5
251
100
AcDbEntity
  8
0
100
AcDbLine
 62
7
  6
CONTINUOUS
 10
171.6492601138
 20
183.0577003331
 11
171.1805102926
 21
183.1640832992
  0
LINE
  5
252
100
AcDbEntity
  8
0
100
AcDbLine
 62
7
  6
CONTINUOUS
 10
193.6805102926
 20
178.6959982039
 11
193.2117610079
 21
178.8023811699
  0
LINE
  5
253
100
AcDbEntity
  8
0
100
AcDbLine
 62
7
  6
CONTINUOUS
 10
170.3367602926
 20
178.8023811699
 11
169.9617601138
 21
178.908764136
  0
LINE
  5
254
100
AcDbEntity
  8
0
100
AcDbLine
 62
7
  6
CONTINUOUS
 10
171.1805102926
 20
182.5257855029
 11
171.5555104715
 21
182.4194025369
  0
LINE
  5
255
100
AcDbEntity
  8
0
100
AcDbLine
 62
7
  6
CONTINUOUS
 10
172.0242602926
 20
182.844934401
 11
171.6492601138
 21
183.0577003331
  0
LINE
  5
256
100
AcDbEntity
  8
0
100
AcDbLine
 62
7
  6
CONTINUOUS
 10
169.6805101138
 20
185.9832322345
 11
170.0555102926
 21
185.7704662745
  0
LINE
  5
257
100
AcDbEntity
  8
0
100
AcDbLine
 62
7
  6
CONTINUOUS
 10
180.274259935
 20
178.5896152006
 11
180.7430102926
 21
178.2704662745
  0
LINE
  5
258
100
AcDbEntity
  8
0
100
AcDbLine
 62
7
  6
CONTINUOUS
 10
184.3992602926
 20
178.5896152006
 11
184.8680095774
 21
178.2704662745
  0
LINE
  5
259
100
AcDbEntity
  8
0
100
AcDbLine
 62
7
  6
CONTINUOUS
 10
171.5555104715
 20
182.4194025369
 11
171.8367604715
 21
182.2066366048
  0
LINE
  5
25A
100
AcDbEntity
  8
0
100
AcDbLine
 62
7
  6
CONTINUOUS
 10
170.1492604715
 20
186.408764136
 11
169.8680104715
 21
186.6215301425
  0
LINE
  5
25B
100
AcDbEntity
  8
0
100
AcDbLine
 62
7
  6
CONTINUOUS
 10
180.836759935
 20
178.8023811699
 11
180.555509935
 21
179.015147102
  0
LINE
  5
25C
100
AcDbEntity
  8
0
100
AcDbLine
 62
7
  6
CONTINUOUS
 10
167.8055102926
 20
190.238551435
 11
167.4305103821
 21
190.5577003331
  0
LINE
  5
25D
100
AcDbEntity
  8
0
100
AcDbLine
 62
7
  6
CONTINUOUS
 10
172.3992604715
 20
182.4194025369
 11
172.0242602926
 21
182.844934401
  0
LINE
  5
25E
100
AcDbEntity
  8
0
100
AcDbLine
 62
7
  6
CONTINUOUS
 10
169.3055104715
 20
186.408764136
 11
169.6805101138
 21
185.9832322345
  0
LINE
  5
25F
100
AcDbEntity
  8
0
100
AcDbLine
 62
7
  6
CONTINUOUS
 10
167.3367602032
 20
190.0257855029
 11
167.5242602926
 21
189.8130195708
  0
LINE
  5
260
100
AcDbEntity
  8
0
100
AcDbLine
 62
7
  6
CONTINUOUS
 10
168.0867602926
 20
189.8130195708
 11
167.8055102926
 21
190.238551435
  0
LINE
  5
261
100
AcDbEntity
  8
0
100
AcDbLine
 62
7
  6
CONTINUOUS
 10
169.6805101138
 20
179.1215301425
 11
169.4930102926
 21
179.4406790407
  0
LINE
  5
262
100
AcDbEntity
  8
0
100
AcDbLine
 62
7
  6
CONTINUOUS
 10
169.8680104715
 20
186.6215301425
 11
169.6805101138
 21
186.9406790407
  0
LINE
  5
263
100
AcDbEntity
  8
0
100
AcDbLine
 62
7
  6
CONTINUOUS
 10
168.9305102926
 20
179.3342960746
 11
169.1180103821
 21
178.908764136
  0
LINE
  5
264
100
AcDbEntity
  8
0
100
AcDbLine
 62
7
  6
CONTINUOUS
 10
169.1180103821
 20
186.8342960746
 11
169.3055104715
 21
186.408764136
  0
LINE
  5
265
100
AcDbEntity
  8
0
100
AcDbLine
 62
7
  6
CONTINUOUS
 10
168.2742603821
 20
185.6640832992
 11
167.4305103821
 21
188.1108918161
  0
LINE
  5
266
100
AcDbEntity
  8
0
100
AcDbLine
 62
7
  6
CONTINUOUS
 10
166.8680102479
 20
187.898125884
 11
167.6180102032
 21
185.6640832992
  0
LINE
  5
267
100
AcDbEntity
  8
0
100
AcDbLine
 62
7
  6
CONTINUOUS
 10
167.5242602926
 20
189.8130195708
 11
167.6180102032
 21
189.4938706727
  0
LINE
  5
268
100
AcDbEntity
  8
0
100
AcDbLine
 62
7
  6
CONTINUOUS
 10
164.7117602926
 20
190.6640832992
 11
164.7117602926
 21
185.6640832992
  0
LINE
  5
269
100
AcDbEntity
  8
0
100
AcDbLine
 62
7
  6
CONTINUOUS
 10
164.7117602926
 20
183.1640832992
 11
164.7117602926
 21
178.1640832992
  0
LINE
  5
26A
100
AcDbEntity
  8
0
100
AcDbLine
 62
7
  6
CONTINUOUS
 10
165.2742602926
 20
178.8023811699
 11
165.2742602926
 21
183.1640832992
  0
LINE
  5
26B
100
AcDbEntity
  8
0
100
AcDbLine
 62
7
  6
CONTINUOUS
 10
165.2742602926
 20
185.6640832992
 11
165.2742602926
 21
187.898125884
  0
LINE
  5
26C
100
AcDbEntity
  8
0
100
AcDbLine
 62
7
  6
CONTINUOUS
 10
165.2742602926
 20
188.5364236803
 11
165.2742602926
 21
190.1321684689
  0
LINE
  5
26D
100
AcDbEntity
  8
0
100
AcDbLine
 62
7
  6
CONTINUOUS
 10
167.6180102032
 20
189.4938706727
 11
167.6180102032
 21
189.1747214765
  0
LINE
  5
26E
100
AcDbEntity
  8
0
100
AcDbLine
 62
7
  6
CONTINUOUS
 10
168.0867602926
 20
178.1640832992
 11
168.0867602926
 21
178.8023811699
  0
LINE
  5
26F
100
AcDbEntity
  8
0
100
AcDbLine
 62
7
  6
CONTINUOUS
 10
168.1805102032
 20
189.0683385105
 11
168.1805102032
 21
189.4938706727
  0
LINE
  5
270
100
AcDbEntity
  8
0
100
AcDbLine
 62
7
  6
CONTINUOUS
 10
168.8367603821
 20
181.4619555445
 11
168.8367603821
 21
179.8662109048
  0
LINE
  5
271
100
AcDbEntity
  8
0
100
AcDbLine
 62
7
  6
CONTINUOUS
 10
169.0242602032
 20
190.6640832992
 11
169.0242602032
 21
187.3662109048
  0
LINE
  5
272
100
AcDbEntity
  8
0
100
AcDbLine
 62
7
  6
CONTINUOUS
 10
169.3992601138
 20
179.8662109048
 11
169.3992601138
 21
181.4619555445
  0
LINE
  5
273
100
AcDbEntity
  8
0
100
AcDbLine
 62
7
  6
CONTINUOUS
 10
169.5867604715
 20
187.3662109048
 11
169.5867604715
 21
190.6640832992
  0
LINE
  5
274
100
AcDbEntity
  8
0
100
AcDbLine
 62
7
  6
CONTINUOUS
 10
171.5555104715
 20
178.908764136
 11
171.1805102926
 21
178.8023811699
  0
LINE
  5
275
100
AcDbEntity
  8
0
100
AcDbLine
 62
7
  6
CONTINUOUS
 10
181.7742606503
 20
178.8023811699
 11
181.3055102926
 21
178.6959982039
  0
LINE
  5
276
100
AcDbEntity
  8
0
100
AcDbLine
 62
7
  6
CONTINUOUS
 10
193.2117610079
 20
182.5257855029
 11
193.6805102926
 21
182.6321684689
  0
LINE
  5
277
100
AcDbEntity
  8
0
100
AcDbLine
 62
7
  6
CONTINUOUS
 10
171.1805102926
 20
178.1640832992
 11
171.6492601138
 21
178.2704662745
  0
LINE
  5
278
100
AcDbEntity
  8
0
100
AcDbLine
 62
7
  6
CONTINUOUS
 10
189.0867595774
 20
182.5257855029
 11
189.5555110079
 21
182.6321684689
  0
LINE
  5
279
100
AcDbEntity
  8
0
100
AcDbLine
 62
7
  6
CONTINUOUS
 10
184.9617602926
 20
182.5257855029
 11
185.4305095774
 21
182.6321684689
  0
LINE
  5
27A
100
AcDbEntity
  8
0
100
AcDbLine
 62
7
  6
CONTINUOUS
 10
180.836759935
 20
182.5257855029
 11
181.3055102926
 21
182.6321684689
  0
LINE
  5
27B
100
AcDbEntity
  8
0
100
AcDbLine
 62
7
  6
CONTINUOUS
 10
193.6805102926
 20
183.1640832992
 11
193.1180102926
 21
183.0577003331
  0
LINE
  5
27C
100
AcDbEntity
  8
0
100
AcDbLine
 62
7
  6
CONTINUOUS
 10
189.5555110079
 20
183.1640832992
 11
188.9930110079
 21
183.0577003331
  0
LINE
  5
27D
100
AcDbEntity
  8
0
100
AcDbLine
 62
7
  6
CONTINUOUS
 10
185.4305095774
 20
183.1640832992
 11
184.8680095774
 21
183.0577003331
  0
LINE
  5
27E
100
AcDbEntity
  8
0
100
AcDbLine
 62
7
  6
CONTINUOUS
 10
181.3055102926
 20
183.1640832992
 11
180.7430102926
 21
183.0577003331
  0
LINE
  5
27F
100
AcDbEntity
  8
0
100
AcDbLine
 62
7
  6
CONTINUOUS
 10
197.2430095774
 20
181.0364236803
 11
197.8055095774
 21
181.0364236803
  0
LINE
  5
280
100
AcDbEntity
  8
0
100
AcDbLine
 62
7
  6
CONTINUOUS
 10
200.9930102926
 20
181.1428066463
 11
201.5555102926
 21
181.1428066463
  0
LINE
  5
281
100
AcDbEntity
  8
0
100
AcDbLine
 62
7
  6
CONTINUOUS
 10
201.5555102926
 20
181.5683385105
 11
200.9930102926
 21
181.5683385105
  0
LINE
  5
282
100
AcDbEntity
  8
0
100
AcDbLine
 62
7
  6
CONTINUOUS
 10
197.8055095774
 20
181.5683385105
 11
197.2430095774
 21
181.5683385105
  0
LINE
  5
283
100
AcDbEntity
  8
0
100
AcDbLine
 62
7
  6
CONTINUOUS
 10
171.9305101138
 20
181.8874874086
 11
172.4930101138
 21
181.8874874086
  0
LINE
  5
284
100
AcDbEntity
  8
0
100
AcDbLine
 62
7
  6
CONTINUOUS
 10
170.3367602926
 20
182.5257855029
 11
171.1805102926
 21
182.5257855029
  0
LINE
  5
285
100
AcDbEntity
  8
0
100
AcDbLine
 62
7
  6
CONTINUOUS
 10
207.3680117232
 20
183.1640832992
 11
206.8055117232
 21
183.1640832992
  0
LINE
  5
286
100
AcDbEntity
  8
0
100
AcDbLine
 62
7
  6
CONTINUOUS
 10
204.4617588621
 20
183.1640832992
 11
203.6180088621
 21
183.1640832992
  0
LINE
  5
287
100
AcDbEntity
  8
0
100
AcDbLine
 62
7
  6
CONTINUOUS
 10
199.1180110079
 20
183.1640832992
 11
198.6492595774
 21
183.1640832992
  0
LINE
  5
288
100
AcDbEntity
  8
0
100
AcDbLine
 62
7
  6
CONTINUOUS
 10
178.868009935
 20
183.1640832992
 11
178.305509935
 21
183.1640832992
  0
LINE
  5
289
100
AcDbEntity
  8
0
100
AcDbLine
 62
7
  6
CONTINUOUS
 10
171.1805102926
 20
183.1640832992
 11
170.3367602926
 21
183.1640832992
  0
LINE
  5
28A
100
AcDbEntity
  8
0
100
AcDbLine
 62
7
  6
CONTINUOUS
 10
165.2742602926
 20
183.1640832992
 11
164.7117602926
 21
183.1640832992
  0
LINE
  5
28B
100
AcDbEntity
  8
0
100
AcDbLine
 62
7
  6
CONTINUOUS
 10
164.7117602926
 20
185.6640832992
 11
165.2742602926
 21
185.6640832992
  0
LINE
  5
28C
100
AcDbEntity
  8
0
100
AcDbLine
 62
7
  6
CONTINUOUS
 10
167.6180102032
 20
185.6640832992
 11
168.2742603821
 21
185.6640832992
  0
LINE
  5
28D
100
AcDbEntity
  8
0
100
AcDbLine
 62
7
  6
CONTINUOUS
 10
170.5242601138
 20
185.6640832992
 11
170.8992602926
 21
185.6640832992
  0
LINE
  5
28E
100
AcDbEntity
  8
0
100
AcDbLine
 62
7
  6
CONTINUOUS
 10
173.1492602926
 20
185.6640832992
 11
175.3992602926
 21
185.6640832992
  0
LINE
  5
28F
100
AcDbEntity
  8
0
100
AcDbLine
 62
7
  6
CONTINUOUS
 10
175.3992602926
 20
186.3023811699
 11
173.7117602926
 21
186.3023811699
  0
LINE
  5
290
100
AcDbEntity
  8
0
100
AcDbLine
 62
7
  6
CONTINUOUS
 10
170.8992602926
 20
186.3023811699
 11
170.5242601138
 21
186.3023811699
  0
LINE
  5
291
100
AcDbEntity
  8
0
100
AcDbLine
 62
7
  6
CONTINUOUS
 10
181.8680102926
 20
183.0577003331
 11
181.3055102926
 21
183.1640832992
  0
LINE
  5
292
100
AcDbEntity
  8
0
100
AcDbLine
 62
7
  6
CONTINUOUS
 10
185.9930095774
 20
183.0577003331
 11
185.4305095774
 21
183.1640832992
  0
LINE
  5
293
100
AcDbEntity
  8
0
100
AcDbLine
 62
7
  6
CONTINUOUS
 10
190.1180110079
 20
183.0577003331
 11
189.5555110079
 21
183.1640832992
  0
LINE
  5
294
100
AcDbEntity
  8
0
100
AcDbLine
 62
7
  6
CONTINUOUS
 10
202.1180102926
 20
181.4619555445
 11
201.5555102926
 21
181.5683385105
  0
LINE
  5
295
100
AcDbEntity
  8
0
100
AcDbLine
 62
7
  6
CONTINUOUS
 10
194.2430102926
 20
183.0577003331
 11
193.6805102926
 21
183.1640832992
  0
LINE
  5
296
100
AcDbEntity
  8
0
100
AcDbLine
 62
7
  6
CONTINUOUS
 10
181.3055102926
 20
182.6321684689
 11
181.7742606503
 21
182.5257855029
  0
LINE
  5
297
100
AcDbEntity
  8
0
100
AcDbLine
 62
7
  6
CONTINUOUS
 10
170.0555102926
 20
185.7704662745
 11
170.5242601138
 21
185.6640832992
  0
LINE
  5
298
100
AcDbEntity
  8
0
100
AcDbLine
 62
7
  6
CONTINUOUS
 10
185.4305095774
 20
182.6321684689
 11
185.8992610079
 21
182.5257855029
  0
LINE
  5
299
100
AcDbEntity
  8
0
100
AcDbLine
 62
7
  6
CONTINUOUS
 10
189.5555110079
 20
182.6321684689
 11
190.0242602926
 21
182.5257855029
  0
LINE
  5
29A
100
AcDbEntity
  8
0
100
AcDbLine
 62
7
  6
CONTINUOUS
 10
193.6805102926
 20
182.6321684689
 11
194.1492595774
 21
182.5257855029
  0
LINE
  5
29B
100
AcDbEntity
  8
0
100
AcDbLine
 62
7
  6
CONTINUOUS
 10
167.4305103821
 20
190.5577003331
 11
166.9617602926
 21
190.6640832992
  0
LINE
  5
29C
100
AcDbEntity
  8
0
100
AcDbLine
 62
7
  6
CONTINUOUS
 10
196.8680110079
 20
178.2704662745
 11
197.2430095774
 21
178.1640832992
  0
LINE
  5
29D
100
AcDbEntity
  8
0
100
AcDbLine
 62
7
  6
CONTINUOUS
 10
170.5242601138
 20
186.3023811699
 11
170.1492604715
 21
186.408764136
  0
LINE
  5
29E
100
AcDbEntity
  8
0
100
AcDbLine
 62
7
  6
CONTINUOUS
 10
197.4305110079
 20
178.6959982039
 11
197.0555102926
 21
178.8023811699
  0
LINE
  5
29F
100
AcDbEntity
  8
0
100
AcDbLine
 62
7
  6
CONTINUOUS
 10
200.4305102926
 20
178.2704662745
 11
200.8055088621
 21
178.1640832992
  0
LINE
  5
2A0
100
AcDbEntity
  8
0
100
AcDbLine
 62
7
  6
CONTINUOUS
 10
197.8055095774
 20
181.0364236803
 11
198.1805102926
 21
180.9300407143
  0
LINE
  5
2A1
100
AcDbEntity
  8
0
100
AcDbLine
 62
7
  6
CONTINUOUS
 10
198.1805102926
 20
181.4619555445
 11
197.8055095774
 21
181.5683385105
  0
LINE
  5
2A2
100
AcDbEntity
  8
0
100
AcDbLine
 62
7
  6
CONTINUOUS
 10
201.5555102926
 20
181.1428066463
 11
201.9305088621
 21
181.0364236803
  0
LINE
  5
2A3
100
AcDbEntity
  8
0
100
AcDbLine
 62
7
  6
CONTINUOUS
 10
175.3992602926
 20
190.0257855029
 11
175.774259935
 21
189.9194025369
  0
LINE
  5
2A4
100
AcDbEntity
  8
0
100
AcDbLine
 62
7
  6
CONTINUOUS
 10
167.0555102032
 20
190.1321684689
 11
167.3367602032
 21
190.0257855029
  0
LINE
  5
2A5
100
AcDbEntity
  8
0
100
AcDbLine
 62
7
  6
CONTINUOUS
 10
176.2430102926
 20
190.344934401
 11
175.8680106503
 21
190.5577003331
  0
LINE
  5
2A6
100
AcDbEntity
  8
0
100
AcDbLine
 62
7
  6
CONTINUOUS
 10
182.3367606503
 20
182.738551435
 11
181.8680102926
 21
183.0577003331
  0
LINE
  5
2A7
100
AcDbEntity
  8
0
100
AcDbLine
 62
7
  6
CONTINUOUS
 10
188.5242595774
 20
178.5896152006
 11
188.9930110079
 21
178.2704662745
  0
LINE
  5
2A8
100
AcDbEntity
  8
0
100
AcDbLine
 62
7
  6
CONTINUOUS
 10
186.4617610079
 20
182.738551435
 11
185.9930095774
 21
183.0577003331
  0
LINE
  5
2A9
100
AcDbEntity
  8
0
100
AcDbLine
 62
7
  6
CONTINUOUS
 10
192.6492610079
 20
178.5896152006
 11
193.1180102926
 21
178.2704662745
  0
LINE
  5
2AA
100
AcDbEntity
  8
0
100
AcDbLine
 62
7
  6
CONTINUOUS
 10
184.9617602926
 20
178.8023811699
 11
184.6805102926
 21
179.015147102
  0
LINE
  5
2AB
100
AcDbEntity
  8
0
100
AcDbLine
 62
7
  6
CONTINUOUS
 10
181.7742606503
 20
182.5257855029
 11
182.0555106503
 21
182.3130195708
  0
LINE
  5
2AC
100
AcDbEntity
  8
0
100
AcDbLine
 62
7
  6
CONTINUOUS
 10
189.0867595774
 20
178.8023811699
 11
188.8055095774
 21
179.015147102
  0
LINE
  5
2AD
100
AcDbEntity
  8
0
100
AcDbLine
 62
7
  6
CONTINUOUS
 10
175.774259935
 20
189.9194025369
 11
176.055509935
 21
189.7066366048
  0
LINE
  5
2AE
100
AcDbEntity
  8
0
100
AcDbLine
 62
7
  6
CONTINUOUS
 10
185.8992610079
 20
182.5257855029
 11
186.1805110079
 21
182.3130195708
  0
LINE
  5
2AF
100
AcDbEntity
  8
0
100
AcDbLine
 62
7
  6
CONTINUOUS
 10
193.2117610079
 20
178.8023811699
 11
192.9305110079
 21
179.015147102
  0
LINE
  5
2B0
100
AcDbEntity
  8
0
100
AcDbLine
 62
7
  6
CONTINUOUS
 10
179.993009935
 20
178.908764136
 11
180.274259935
 21
178.5896152006
  0
LINE
  5
2B1
100
AcDbEntity
  8
0
100
AcDbLine
 62
7
  6
CONTINUOUS
 10
184.1180102926
 20
178.908764136
 11
184.3992602926
 21
178.5896152006
  0
LINE
  5
2B2
100
AcDbEntity
  8
0
100
AcDbLine
 62
7
  6
CONTINUOUS
 10
182.6180106503
 20
182.4194025369
 11
182.3367606503
 21
182.738551435
  0
LINE
  5
2B3
100
AcDbEntity
  8
0
100
AcDbLine
 62
7
  6
CONTINUOUS
 10
176.618009935
 20
189.9194025369
 11
176.2430102926
 21
190.344934401
  0
LINE
  5
2B4
100
AcDbEntity
  8
0
100
AcDbLine
 62
7
  6
CONTINUOUS
 10
180.555509935
 20
179.015147102
 11
180.1805102926
 21
179.6534449727
  0
LINE
  5
2B5
100
AcDbEntity
  8
0
100
AcDbLine
 62
7
  6
CONTINUOUS
 10
176.055509935
 20
189.7066366048
 11
176.2430102926
 21
189.3874874086
  0
LINE
  5
2B6
100
AcDbEntity
  8
0
100
AcDbLine
 62
7
  6
CONTINUOUS
 10
179.8055106503
 20
179.3342960746
 11
179.993009935
 21
178.908764136
  0
LINE
  5
2B7
100
AcDbEntity
  8
0
100
AcDbLine
 62
7
  6
CONTINUOUS
 10
168.1805102032
 20
189.4938706727
 11
168.0867602926
 21
189.8130195708
  0
LINE
  5
2B8
100
AcDbEntity
  8
0
100
AcDbLine
 62
7
  6
CONTINUOUS
 10
171.8367604715
 20
182.2066366048
 11
171.9305101138
 21
181.8874874086
  0
LINE
  5
2B9
100
AcDbEntity
  8
RUNDUNGEN
100
AcDbLine
 62
7
  6
CONTINUOUS
 10
163.0849997875
 20
211.2890832992
 11
160.6643851961
 21
220.6640832992
  0
LINE
  5
2BA
100
AcDbEntity
  8
0
100
AcDbLine
 62
7
  6
CONTINUOUS
 10
169.4930102926
 20
179.4406790407
 11
169.3992601138
 21
179.8662109048
  0
LINE
  5
2BB
100
AcDbEntity
  8
0
100
AcDbLine
 62
7
  6
CONTINUOUS
 10
169.6805101138
 20
186.9406790407
 11
169.5867604715
 21
187.3662109048
  0
LINE
  5
2BC
100
AcDbEntity
  8
0
100
AcDbLine
 62
7
  6
CONTINUOUS
 10
168.8367603821
 20
179.8662109048
 11
168.9305102926
 21
179.3342960746
  0
LINE
  5
2BD
100
AcDbEntity
  8
0
100
AcDbLine
 62
7
  6
CONTINUOUS
 10
169.0242602032
 20
187.3662109048
 11
169.1180103821
 21
186.8342960746
  0
LINE
  5
2BE
100
AcDbEntity
  8
0
100
AcDbLine
 62
7
  6
CONTINUOUS
 10
172.4930101138
 20
181.8874874086
 11
172.3992604715
 21
182.4194025369
  0
LINE
  5
2BF
100
AcDbEntity
  8
0
100
AcDbLine
 62
7
  6
CONTINUOUS
 10
171.8367604715
 20
190.6640832992
 11
171.8367604715
 21
187.3662109048
  0
LINE
  5
2C0
100
AcDbEntity
  8
0
100
AcDbLine
 62
7
  6
CONTINUOUS
 10
172.3992604715
 20
187.3662109048
 11
172.3992604715
 21
190.6640832992
  0
LINE
  5
2C1
100
AcDbEntity
  8
0
100
AcDbLine
 62
7
  6
CONTINUOUS
 10
173.1492602926
 20
190.6640832992
 11
173.1492602926
 21
185.6640832992
  0
LINE
  5
2C2
100
AcDbEntity
  8
0
100
AcDbLine
 62
7
  6
CONTINUOUS
 10
173.7117602926
 20
186.3023811699
 11
173.7117602926
 21
190.0257855029
  0
LINE
  5
2C3
100
AcDbEntity
  8
0
100
AcDbLine
 62
7
  6
CONTINUOUS
 10
176.336759935
 20
188.9619555445
 11
176.336759935
 21
187.3662109048
  0
LINE
  5
2C4
100
AcDbEntity
  8
0
100
AcDbLine
 62
7
  6
CONTINUOUS
 10
176.899259935
 20
187.3662109048
 11
176.899259935
 21
188.9619555445
  0
LINE
  5
2C5
100
AcDbEntity
  8
0
100
AcDbLine
 62
7
  6
CONTINUOUS
 10
168.9305102926
 20
181.9938706727
 11
168.8367603821
 21
181.4619555445
  0
LINE
  5
2C6
100
AcDbEntity
  8
0
100
AcDbLine
 62
7
  6
CONTINUOUS
 10
172.3055102926
 20
186.8342960746
 11
172.3992604715
 21
187.3662109048
  0
LINE
  5
2C7
100
AcDbEntity
  8
0
100
AcDbLine
 62
7
  6
CONTINUOUS
 10
169.3992601138
 20
181.4619555445
 11
169.4930102926
 21
181.8874874086
  0
LINE
  5
2C8
100
AcDbEntity
  8
0
100
AcDbLine
 62
7
  6
CONTINUOUS
 10
171.8367604715
 20
187.3662109048
 11
171.7430102926
 21
186.9406790407
  0
LINE
  5
2C9
100
AcDbEntity
  8
0
100
AcDbLine
 62
7
  6
CONTINUOUS
 10
167.6180102032
 20
189.1747214765
 11
167.5242602926
 21
188.8555725784
  0
LINE
  5
2CA
100
AcDbEntity
  8
0
100
AcDbLine
 62
7
  6
CONTINUOUS
 10
168.0867602926
 20
188.7491896124
 11
168.1805102032
 21
189.0683385105
  0
LINE
  5
2CB
100
AcDbEntity
  8
0
100
AcDbLine
 62
7
  6
CONTINUOUS
 10
169.9617601138
 20
182.4194025369
 11
170.3367602926
 21
182.5257855029
  0
LINE
  5
2CC
100
AcDbEntity
  8
0
100
AcDbLine
 62
7
  6
CONTINUOUS
 10
175.774259935
 20
186.408764136
 11
175.3992602926
 21
186.3023811699
  0
LINE
  5
2CD
100
AcDbEntity
  8
0
100
AcDbLine
 62
7
  6
CONTINUOUS
 10
171.2742604715
 20
186.408764136
 11
170.8992602926
 21
186.3023811699
  0
LINE
  5
2CE
100
AcDbEntity
  8
0
100
AcDbLine
 62
7
  6
CONTINUOUS
 10
170.3367602926
 20
183.1640832992
 11
169.8680104715
 21
183.0577003331
  0
LINE
  5
2CF
100
AcDbEntity
  8
0
100
AcDbLine
 62
7
  6
CONTINUOUS
 10
175.3992602926
 20
185.6640832992
 11
175.8680106503
 21
185.7704662745
  0
LINE
  5
2D0
100
AcDbEntity
  8
0
100
AcDbLine
 62
7
  6
CONTINUOUS
 10
170.8992602926
 20
185.6640832992
 11
171.3680101138
 21
185.7704662745
  0
LINE
  5
2D1
100
AcDbEntity
  8
0
100
AcDbLine
 62
7
  6
CONTINUOUS
 10
165.2742602926
 20
187.898125884
 11
166.8680102479
 21
187.898125884
  0
LINE
  5
2D2
100
AcDbEntity
  8
0
100
AcDbLine
 62
7
  6
CONTINUOUS
 10
167.0555102032
 20
188.5364236803
 11
165.2742602926
 21
188.5364236803
  0
LINE
  5
2D3
100
AcDbEntity
  8
0
100
AcDbLine
 62
7
  6
CONTINUOUS
 10
173.7117602926
 20
190.0257855029
 11
175.3992602926
 21
190.0257855029
  0
LINE
  5
2D4
100
AcDbEntity
  8
0
100
AcDbLine
 62
7
  6
CONTINUOUS
 10
165.2742602926
 20
190.1321684689
 11
167.0555102032
 21
190.1321684689
  0
LINE
  5
2D5
100
AcDbEntity
  8
0
100
AcDbLine
 62
7
  6
CONTINUOUS
 10
175.3992602926
 20
190.6640832992
 11
173.1492602926
 21
190.6640832992
  0
LINE
  5
2D6
100
AcDbEntity
  8
0
100
AcDbLine
 62
7
  6
CONTINUOUS
 10
172.3992604715
 20
190.6640832992
 11
171.8367604715
 21
190.6640832992
  0
LINE
  5
2D7
100
AcDbEntity
  8
0
100
AcDbLine
 62
7
  6
CONTINUOUS
 10
169.5867604715
 20
190.6640832992
 11
169.0242602032
 21
190.6640832992
  0
LINE
  5
2D8
100
AcDbEntity
  8
0
100
AcDbLine
 62
7
  6
CONTINUOUS
 10
166.9617602926
 20
190.6640832992
 11
164.7117602926
 21
190.6640832992
  0
LINE
  5
2D9
100
AcDbEntity
  8
0
100
AcDbLine
 62
7
  6
CONTINUOUS
 10
175.8680106503
 20
190.5577003331
 11
175.3992602926
 21
190.6640832992
  0
LINE
  5
2DA
100
AcDbEntity
  8
0
100
AcDbLine
 62
7
  6
CONTINUOUS
 10
200.2430110079
 20
178.3768492499
 11
200.4305102926
 21
178.2704662745
  0
LINE
  5
2DB
100
AcDbEntity
  8
0
100
AcDbLine
 62
7
  6
CONTINUOUS
 10
200.8055088621
 20
178.5896152006
 11
200.4305102926
 21
178.8023811699
  0
LINE
  5
2DC
100
AcDbEntity
  8
0
100
AcDbLine
 62
7
  6
CONTINUOUS
 10
198.3680095774
 20
181.3555725784
 11
198.1805102926
 21
181.4619555445
  0
LINE
  5
2DD
100
AcDbEntity
  8
0
100
AcDbLine
 62
7
  6
CONTINUOUS
 10
201.9305088621
 20
181.0364236803
 11
202.1180102926
 21
180.9300407143
  0
LINE
  5
2DE
100
AcDbEntity
  8
0
100
AcDbLine
 62
7
  6
CONTINUOUS
 10
190.5867602926
 20
182.738551435
 11
190.1180110079
 21
183.0577003331
  0
LINE
  5
2DF
100
AcDbEntity
  8
0
100
AcDbLine
 62
7
  6
CONTINUOUS
 10
194.7117595774
 20
182.738551435
 11
194.2430102926
 21
183.0577003331
  0
LINE
  5
2E0
100
AcDbEntity
  8
0
100
AcDbLine
 62
7
  6
CONTINUOUS
 10
190.0242602926
 20
182.5257855029
 11
190.3055102926
 21
182.3130195708
  0
LINE
  5
2E1
100
AcDbEntity
  8
0
100
AcDbLine
 62
7
  6
CONTINUOUS
 10
196.5867610079
 20
178.4832322345
 11
196.8680110079
 21
178.2704662745
  0
LINE
  5
2E2
100
AcDbEntity
  8
0
100
AcDbLine
 62
7
  6
CONTINUOUS
 10
197.0555102926
 20
178.8023811699
 11
196.7742602926
 21
179.015147102
  0
LINE
  5
2E3
100
AcDbEntity
  8
0
100
AcDbLine
 62
7
  6
CONTINUOUS
 10
194.1492595774
 20
182.5257855029
 11
194.4305095774
 21
182.3130195708
  0
LINE
  5
2E4
100
AcDbEntity
  8
0
100
AcDbLine
 62
7
  6
CONTINUOUS
 10
198.1805102926
 20
180.9300407143
 11
198.4617602926
 21
180.7172747822
  0
LINE
  5
2E5
100
AcDbEntity
  8
0
100
AcDbLine
 62
7
  6
CONTINUOUS
 10
188.2430095774
 20
178.908764136
 11
188.5242595774
 21
178.5896152006
  0
LINE
  5
2E6
100
AcDbEntity
  8
0
100
AcDbLine
 62
7
  6
CONTINUOUS
 10
186.7430110079
 20
182.4194025369
 11
186.4617610079
 21
182.738551435
  0
LINE
  5
2E7
100
AcDbEntity
  8
0
100
AcDbLine
 62
7
  6
CONTINUOUS
 10
192.3680110079
 20
178.908764136
 11
192.6492610079
 21
178.5896152006
  0
LINE
  5
2E8
100
AcDbEntity
  8
0
100
AcDbLine
 62
7
  6
CONTINUOUS
 10
190.8680102926
 20
182.4194025369
 11
190.5867602926
 21
182.738551435
  0
LINE
  5
2E9
100
AcDbEntity
  8
0
100
AcDbLine
 62
7
  6
CONTINUOUS
 10
196.3055110079
 20
178.8023811699
 11
196.5867610079
 21
178.4832322345
  0
LINE
  5
2EA
100
AcDbEntity
  8
0
100
AcDbLine
 62
7
  6
CONTINUOUS
 10
182.0555106503
 20
182.3130195708
 11
182.4305102926
 21
181.6747214765
  0
LINE
  5
2EB
100
AcDbEntity
  8
0
100
AcDbLine
 62
7
  6
CONTINUOUS
 10
184.6805102926
 20
179.015147102
 11
184.3055095774
 21
179.6534449727
  0
LINE
  5
2EC
100
AcDbEntity
  8
0
100
AcDbLine
 62
7
  6
CONTINUOUS
 10
186.1805110079
 20
182.3130195708
 11
186.5555095774
 21
181.6747214765
  0
LINE
  5
2ED
100
AcDbEntity
  8
0
100
AcDbLine
 62
7
  6
CONTINUOUS
 10
188.8055095774
 20
179.015147102
 11
188.4305110079
 21
179.6534449727
  0
LINE
  5
2EE
100
AcDbEntity
  8
0
100
AcDbLine
 62
7
  6
CONTINUOUS
 10
176.8055102926
 20
189.4938706727
 11
176.618009935
 21
189.9194025369
  0
LINE
  5
2EF
100
AcDbEntity
  8
0
100
AcDbLine
 62
7
  6
CONTINUOUS
 10
183.9305110079
 20
179.3342960746
 11
184.1180102926
 21
178.908764136
  0
LINE
  5
2F0
100
AcDbEntity
  8
0
100
AcDbLine
 62
7
  6
CONTINUOUS
 10
182.8055110079
 20
181.9938706727
 11
182.6180106503
 21
182.4194025369
  0
LINE
  5
2F1
100
AcDbEntity
  8
0
100
AcDbLine
 62
7
  6
CONTINUOUS
 10
179.711759935
 20
179.6534449727
 11
179.8055106503
 21
179.3342960746
  0
LINE
  5
2F2
100
AcDbEntity
  8
0
100
AcDbLine
 62
7
  6
CONTINUOUS
 10
182.8992595774
 20
181.6747214765
 11
182.8055110079
 21
181.9938706727
  0
LINE
  5
2F3
100
AcDbEntity
  8
0
100
AcDbLine
 62
7
  6
CONTINUOUS
 10
183.8367602926
 20
179.6534449727
 11
183.9305110079
 21
179.3342960746
  0
LINE
  5
2F4
100
AcDbEntity
  8
0
100
AcDbLine
 62
7
  6
CONTINUOUS
 10
176.2430102926
 20
189.3874874086
 11
176.336759935
 21
188.9619555445
  0
LINE
  5
2F5
100
AcDbEntity
  8
0
100
AcDbLine
 62
7
  6
CONTINUOUS
 10
176.899259935
 20
188.9619555445
 11
176.8055102926
 21
189.4938706727
  0
LINE
  5
2F6
100
AcDbEntity
  8
0
100
AcDbLine
 62
7
  6
CONTINUOUS
 10
179.6180102926
 20
180.185359952
 11
179.711759935
 21
179.6534449727
  0
LINE
  5
2F7
100
AcDbEntity
  8
0
100
AcDbLine
 62
7
  6
CONTINUOUS
 10
180.1805102926
 20
179.6534449727
 11
180.0867606503
 21
180.291742918
  0
LINE
  5
2F8
100
AcDbEntity
  8
0
100
AcDbLine
 62
7
  6
CONTINUOUS
 10
177.743009935
 20
182.4194025369
 11
177.743009935
 21
181.5683385105
  0
LINE
  5
2F9
100
AcDbEntity
  8
0
100
AcDbLine
 62
7
  6
CONTINUOUS
 10
178.305509935
 20
182.3130195708
 11
178.305509935
 21
178.1640832992
  0
LINE
  5
2FA
100
AcDbEntity
  8
0
100
AcDbLine
 62
7
  6
CONTINUOUS
 10
178.868009935
 20
178.1640832992
 11
178.868009935
 21
183.1640832992
  0
LINE
  5
2FB
100
AcDbEntity
  8
0
100
AcDbLine
 62
7
  6
CONTINUOUS
 10
179.6180102926
 20
181.1428066463
 11
179.6180102926
 21
180.185359952
  0
LINE
  5
2FC
100
AcDbEntity
  8
0
100
AcDbLine
 62
7
  6
CONTINUOUS
 10
180.0867606503
 20
180.291742918
 11
180.0867606503
 21
181.0364236803
  0
LINE
  5
2FD
100
AcDbEntity
  8
0
100
AcDbLine
 62
7
  6
CONTINUOUS
 10
182.524259935
 20
181.0364236803
 11
182.524259935
 21
180.291742918
  0
LINE
  5
2FE
100
AcDbEntity
  8
0
100
AcDbLine
 62
7
  6
CONTINUOUS
 10
182.9930102926
 20
180.185359952
 11
182.9930102926
 21
181.1428066463
  0
LINE
  5
2FF
100
AcDbEntity
  8
0
100
AcDbLine
 62
7
  6
CONTINUOUS
 10
172.3992604715
 20
178.908764136
 11
172.4930101138
 21
179.4406790407
  0
LINE
  5
300
100
AcDbEntity
  8
0
100
AcDbLine
 62
7
  6
CONTINUOUS
 10
176.8055102926
 20
186.8342960746
 11
176.899259935
 21
187.3662109048
  0
LINE
  5
301
100
AcDbEntity
  8
0
100
AcDbLine
 62
7
  6
CONTINUOUS
 10
176.336759935
 20
187.3662109048
 11
176.2430102926
 21
186.9406790407
  0
LINE
  5
302
100
AcDbEntity
  8
0
100
AcDbLine
 62
7
  6
CONTINUOUS
 10
171.9305101138
 20
179.4406790407
 11
171.8367604715
 21
179.1215301425
  0
LINE
  5
303
100
AcDbEntity
  8
0
100
AcDbLine
 62
7
  6
CONTINUOUS
 10
169.1180103821
 20
182.4194025369
 11
168.9305102926
 21
181.9938706727
  0
LINE
  5
304
100
AcDbEntity
  8
0
100
AcDbLine
 62
7
  6
CONTINUOUS
 10
172.1180104715
 20
186.408764136
 11
172.3055102926
 21
186.8342960746
  0
LINE
  5
305
100
AcDbEntity
  8
0
100
AcDbLine
 62
7
  6
CONTINUOUS
 10
167.8055102926
 20
188.3236577482
 11
168.0867602926
 21
188.7491896124
  0
LINE
  5
306
100
AcDbEntity
  8
0
100
AcDbLine
 62
7
  6
CONTINUOUS
 10
202.3992602926
 20
181.2491896124
 11
202.1180102926
 21
181.4619555445
  0
LINE
  5
307
100
AcDbEntity
  8
0
100
AcDbLine
 62
7
  6
CONTINUOUS
 10
194.9930095774
 20
182.4194025369
 11
194.7117595774
 21
182.738551435
  0
LINE
  5
308
100
AcDbEntity
  8
0
100
AcDbLine
 62
7
  6
CONTINUOUS
 10
199.9617610079
 20
178.6959982039
 11
200.2430110079
 21
178.3768492499
  0
LINE
  5
309
100
AcDbEntity
  8
0
100
AcDbLine
 62
7
  6
CONTINUOUS
 10
198.5555110079
 20
181.1428066463
 11
198.3680095774
 21
181.3555725784
  0
LINE
  5
30A
100
AcDbEntity
  8
0
100
AcDbLine
 62
7
  6
CONTINUOUS
 10
202.5867617232
 20
181.0364236803
 11
202.3992602926
 21
181.2491896124
  0
LINE
  5
30B
100
AcDbEntity
  8
0
100
AcDbLine
 62
7
  6
CONTINUOUS
 10
190.3055102926
 20
182.3130195708
 11
190.6805110079
 21
181.6747214765
  0
LINE
  5
30C
100
AcDbEntity
  8
0
100
AcDbLine
 62
7
  6
CONTINUOUS
 10
192.9305110079
 20
179.015147102
 11
192.5555102926
 21
179.6534449727
  0
LINE
  5
30D
100
AcDbEntity
  8
0
100
AcDbLine
 62
7
  6
CONTINUOUS
 10
194.4305095774
 20
182.3130195708
 11
194.8055102926
 21
181.6747214765
  0
LINE
  5
30E
100
AcDbEntity
  8
0
100
AcDbLine
 62
7
  6
CONTINUOUS
 10
188.0555102926
 20
179.3342960746
 11
188.2430095774
 21
178.908764136
  0
LINE
  5
30F
100
AcDbEntity
  8
0
100
AcDbLine
 62
7
  6
CONTINUOUS
 10
186.9305102926
 20
181.9938706727
 11
186.7430110079
 21
182.4194025369
  0
LINE
  5
310
100
AcDbEntity
  8
0
100
AcDbLine
 62
7
  6
CONTINUOUS
 10
192.1805095774
 20
179.3342960746
 11
192.3680110079
 21
178.908764136
  0
LINE
  5
311
100
AcDbEntity
  8
0
100
AcDbLine
 62
7
  6
CONTINUOUS
 10
191.0555095774
 20
181.9938706727
 11
190.8680102926
 21
182.4194025369
  0
LINE
  5
312
100
AcDbEntity
  8
0
100
AcDbLine
 62
7
  6
CONTINUOUS
 10
187.0242610079
 20
181.6747214765
 11
186.9305102926
 21
181.9938706727
  0
LINE
  5
313
100
AcDbEntity
  8
0
100
AcDbLine
 62
7
  6
CONTINUOUS
 10
187.9617595774
 20
179.6534449727
 11
188.0555102926
 21
179.3342960746
  0
LINE
  5
314
100
AcDbEntity
  8
0
100
AcDbLine
 62
7
  6
CONTINUOUS
 10
182.9930102926
 20
181.1428066463
 11
182.8992595774
 21
181.6747214765
  0
LINE
  5
315
100
AcDbEntity
  8
0
100
AcDbLine
 62
7
  6
CONTINUOUS
 10
183.7430095774
 20
180.185359952
 11
183.8367602926
 21
179.6534449727
  0
LINE
  5
316
100
AcDbEntity
  8
0
100
AcDbLine
 62
7
  6
CONTINUOUS
 10
187.1180095774
 20
181.1428066463
 11
187.0242610079
 21
181.6747214765
  0
LINE
  5
317
100
AcDbEntity
  8
0
100
AcDbLine
 62
7
  6
CONTINUOUS
 10
187.8680110079
 20
180.185359952
 11
187.9617595774
 21
179.6534449727
  0
LINE
  5
318
100
AcDbEntity
  8
0
100
AcDbLine
 62
7
  6
CONTINUOUS
 10
182.4305102926
 20
181.6747214765
 11
182.524259935
 21
181.0364236803
  0
LINE
  5
319
100
AcDbEntity
  8
0
100
AcDbLine
 62
7
  6
CONTINUOUS
 10
184.3055095774
 20
179.6534449727
 11
184.2117610079
 21
180.291742918
  0
LINE
  5
31A
100
AcDbEntity
  8
0
100
AcDbLine
 62
7
  6
CONTINUOUS
 10
186.5555095774
 20
181.6747214765
 11
186.6492602926
 21
181.0364236803
  0
LINE
  5
31B
100
AcDbEntity
  8
0
100
AcDbLine
 62
7
  6
CONTINUOUS
 10
183.7430095774
 20
181.1428066463
 11
183.7430095774
 21
180.185359952
  0
LINE
  5
31C
100
AcDbEntity
  8
0
100
AcDbLine
 62
7
  6
CONTINUOUS
 10
184.2117610079
 20
180.291742918
 11
184.2117610079
 21
181.0364236803
  0
LINE
  5
31D
100
AcDbEntity
  8
0
100
AcDbLine
 62
7
  6
CONTINUOUS
 10
186.6492602926
 20
181.0364236803
 11
186.6492602926
 21
180.291742918
  0
LINE
  5
31E
100
AcDbEntity
  8
0
100
AcDbLine
 62
7
  6
CONTINUOUS
 10
187.1180095774
 20
180.185359952
 11
187.1180095774
 21
181.1428066463
  0
LINE
  5
31F
100
AcDbEntity
  8
0
100
AcDbLine
 62
7
  6
CONTINUOUS
 10
187.8680110079
 20
181.1428066463
 11
187.8680110079
 21
180.185359952
  0
LINE
  5
320
100
AcDbEntity
  8
0
100
AcDbLine
 62
7
  6
CONTINUOUS
 10
188.3367602926
 20
180.291742918
 11
188.3367602926
 21
181.0364236803
  0
LINE
  5
321
100
AcDbEntity
  8
RUNDUNGEN
100
AcDbLine
 62
7
  6
CONTINUOUS
 10
189.7117602926
 20
156.6640832992
 11
189.7117602926
 21
158.8030905013
  0
LINE
  5
322
100
AcDbEntity
  8
0
100
AcDbLine
 62
7
  6
CONTINUOUS
 10
180.0867606503
 20
181.0364236803
 11
180.1805102926
 21
181.6747214765
  0
LINE
  5
323
100
AcDbEntity
  8
0
100
AcDbLine
 62
7
  6
CONTINUOUS
 10
182.524259935
 20
180.291742918
 11
182.4305102926
 21
179.6534449727
  0
LINE
  5
324
100
AcDbEntity
  8
0
100
AcDbLine
 62
7
  6
CONTINUOUS
 10
184.2117610079
 20
181.0364236803
 11
184.3055095774
 21
181.6747214765
  0
LINE
  5
325
100
AcDbEntity
  8
0
100
AcDbLine
 62
7
  6
CONTINUOUS
 10
179.711759935
 20
181.6747214765
 11
179.6180102926
 21
181.1428066463
  0
LINE
  5
326
100
AcDbEntity
  8
0
100
AcDbLine
 62
7
  6
CONTINUOUS
 10
182.8992595774
 20
179.6534449727
 11
182.9930102926
 21
180.185359952
  0
LINE
  5
327
100
AcDbEntity
  8
0
100
AcDbLine
 62
7
  6
CONTINUOUS
 10
183.8367602926
 20
181.6747214765
 11
183.7430095774
 21
181.1428066463
  0
LINE
  5
328
100
AcDbEntity
  8
0
100
AcDbLine
 62
7
  6
CONTINUOUS
 10
179.8055106503
 20
181.9938706727
 11
179.711759935
 21
181.6747214765
  0
LINE
  5
329
100
AcDbEntity
  8
0
100
AcDbLine
 62
7
  6
CONTINUOUS
 10
176.618009935
 20
186.408764136
 11
176.8055102926
 21
186.8342960746
  0
LINE
  5
32A
100
AcDbEntity
  8
0
100
AcDbLine
 62
7
  6
CONTINUOUS
 10
171.7430102926
 20
186.9406790407
 11
171.5555104715
 21
186.6215301425
  0
LINE
  5
32B
100
AcDbEntity
  8
0
100
AcDbLine
 62
7
  6
CONTINUOUS
 10
169.4930102926
 20
181.8874874086
 11
169.6805101138
 21
182.2066366048
  0
LINE
  5
32C
100
AcDbEntity
  8
0
100
AcDbLine
 62
7
  6
CONTINUOUS
 10
176.2430102926
 20
186.9406790407
 11
176.055509935
 21
186.6215301425
  0
LINE
  5
32D
100
AcDbEntity
  8
0
100
AcDbLine
 62
7
  6
CONTINUOUS
 10
167.5242602926
 20
188.8555725784
 11
167.3367602032
 21
188.6428066463
  0
LINE
  5
32E
100
AcDbEntity
  8
0
100
AcDbLine
 62
7
  6
CONTINUOUS
 10
171.7430102926
 20
185.9832322345
 11
172.1180104715
 21
186.408764136
  0
LINE
  5
32F
100
AcDbEntity
  8
0
100
AcDbLine
 62
7
  6
CONTINUOUS
 10
169.4930102926
 20
182.844934401
 11
169.1180103821
 21
182.4194025369
  0
LINE
  5
330
100
AcDbEntity
  8
0
100
AcDbLine
 62
7
  6
CONTINUOUS
 10
198.4617602926
 20
180.7172747822
 11
198.6492595774
 21
180.398125884
  0
LINE
  5
331
100
AcDbEntity
  8
0
100
AcDbLine
 62
7
  6
CONTINUOUS
 10
211.4023592159
 20
160.6640832992
 11
212.5570597543
 21
158.6640832992
  0
LINE
  5
332
100
AcDbEntity
  8
0
100
AcDbLine
 62
7
  6
CONTINUOUS
 10
216.0211613694
 20
160.6640832992
 11
214.866460831
 21
162.6640832992
  0
LINE
  5
333
100
AcDbEntity
  8
0
100
AcDbLine
 62
7
  6
CONTINUOUS
 10
196.2117602926
 20
179.015147102
 11
196.3055110079
 21
178.8023811699
  0
LINE
  5
334
100
AcDbEntity
  8
0
100
AcDbLine
 62
7
  6
CONTINUOUS
 10
195.1805110079
 20
181.9938706727
 11
194.9930095774
 21
182.4194025369
  0
LINE
  5
335
100
AcDbEntity
  8
0
100
AcDbLine
 62
7
  6
CONTINUOUS
 10
198.6492595774
 20
180.9300407143
 11
198.5555110079
 21
181.1428066463
  0
LINE
  5
336
100
AcDbEntity
  8
0
100
AcDbLine
 62
7
  6
CONTINUOUS
 10
200.4305102926
 20
178.8023811699
 11
200.3367595774
 21
179.015147102
  0
LINE
  5
337
100
AcDbEntity
  8
0
100
AcDbLine
 62
7
  6
CONTINUOUS
 10
196.7742602926
 20
179.015147102
 11
196.5867610079
 21
179.5470620067
  0
LINE
  5
338
100
AcDbEntity
  8
0
100
AcDbLine
 62
7
  6
CONTINUOUS
 10
191.1492602926
 20
181.6747214765
 11
191.0555095774
 21
181.9938706727
  0
LINE
  5
339
100
AcDbEntity
  8
0
100
AcDbLine
 62
7
  6
CONTINUOUS
 10
192.0867610079
 20
179.6534449727
 11
192.1805095774
 21
179.3342960746
  0
LINE
  5
33A
100
AcDbEntity
  8
0
100
AcDbLine
 62
7
  6
CONTINUOUS
 10
195.2742595774
 20
181.6747214765
 11
195.1805110079
 21
181.9938706727
  0
LINE
  5
33B
100
AcDbEntity
  8
0
100
AcDbLine
 62
7
  6
CONTINUOUS
 10
191.2430110079
 20
181.1428066463
 11
191.1492602926
 21
181.6747214765
  0
LINE
  5
33C
100
AcDbEntity
  8
0
100
AcDbLine
 62
7
  6
CONTINUOUS
 10
191.9930102926
 20
180.185359952
 11
192.0867610079
 21
179.6534449727
  0
LINE
  5
33D
100
AcDbEntity
  8
0
100
AcDbLine
 62
7
  6
CONTINUOUS
 10
188.4305110079
 20
179.6534449727
 11
188.3367602926
 21
180.291742918
  0
LINE
  5
33E
100
AcDbEntity
  8
0
100
AcDbLine
 62
7
  6
CONTINUOUS
 10
190.6805110079
 20
181.6747214765
 11
190.7742595774
 21
181.0364236803
  0
LINE
  5
33F
100
AcDbEntity
  8
0
100
AcDbLine
 62
7
  6
CONTINUOUS
 10
192.5555102926
 20
179.6534449727
 11
192.4617595774
 21
180.291742918
  0
LINE
  5
340
100
AcDbEntity
  8
0
100
AcDbLine
 62
7
  6
CONTINUOUS
 10
190.7742595774
 20
181.0364236803
 11
190.7742595774
 21
180.291742918
  0
LINE
  5
341
100
AcDbEntity
  8
0
100
AcDbLine
 62
7
  6
CONTINUOUS
 10
191.2430110079
 20
180.185359952
 11
191.2430110079
 21
181.1428066463
  0
LINE
  5
342
100
AcDbEntity
  8
0
100
AcDbLine
 62
7
  6
CONTINUOUS
 10
191.9930102926
 20
181.1428066463
 11
191.9930102926
 21
180.185359952
  0
LINE
  5
343
100
AcDbEntity
  8
0
100
AcDbLine
 62
7
  6
CONTINUOUS
 10
192.4617595774
 20
180.291742918
 11
192.4617595774
 21
181.0364236803
  0
LINE
  5
344
100
AcDbEntity
  8
0
100
AcDbLine
 62
7
  6
CONTINUOUS
 10
194.8992610079
 20
181.0364236803
 11
194.8992610079
 21
180.291742918
  0
LINE
  5
345
100
AcDbEntity
  8
0
100
AcDbLine
 62
7
  6
CONTINUOUS
 10
195.3680102926
 20
180.185359952
 11
195.3680102926
 21
181.1428066463
  0
LINE
  5
346
100
AcDbEntity
  8
0
100
AcDbLine
 62
7
  6
CONTINUOUS
 10
196.1180095774
 20
180.291742918
 11
196.1180095774
 21
179.4406790407
  0
LINE
  5
347
100
AcDbEntity
  8
0
100
AcDbLine
 62
7
  6
CONTINUOUS
 10
186.6492602926
 20
180.291742918
 11
186.5555095774
 21
179.6534449727
  0
LINE
  5
348
100
AcDbEntity
  8
0
100
AcDbLine
 62
7
  6
CONTINUOUS
 10
188.3367602926
 20
181.0364236803
 11
188.4305110079
 21
181.6747214765
  0
LINE
  5
349
100
AcDbEntity
  8
0
100
AcDbLine
 62
7
  6
CONTINUOUS
 10
190.7742595774
 20
180.291742918
 11
190.6805110079
 21
179.6534449727
  0
LINE
  5
34A
100
AcDbEntity
  8
0
100
AcDbLine
 62
7
  6
CONTINUOUS
 10
192.4617595774
 20
181.0364236803
 11
192.5555102926
 21
181.6747214765
  0
LINE
  5
34B
100
AcDbEntity
  8
0
100
AcDbLine
 62
7
  6
CONTINUOUS
 10
187.0242610079
 20
179.6534449727
 11
187.1180095774
 21
180.185359952
  0
LINE
  5
34C
100
AcDbEntity
  8
0
100
AcDbLine
 62
7
  6
CONTINUOUS
 10
187.9617595774
 20
181.6747214765
 11
187.8680110079
 21
181.1428066463
  0
LINE
  5
34D
100
AcDbEntity
  8
0
100
AcDbLine
 62
7
  6
CONTINUOUS
 10
191.1492602926
 20
179.6534449727
 11
191.2430110079
 21
180.185359952
  0
LINE
  5
34E
100
AcDbEntity
  8
0
100
AcDbLine
 62
7
  6
CONTINUOUS
 10
192.0867610079
 20
181.6747214765
 11
191.9930102926
 21
181.1428066463
  0
LINE
  5
34F
100
AcDbEntity
  8
0
100
AcDbLine
 62
7
  6
CONTINUOUS
 10
182.8055110079
 20
179.3342960746
 11
182.8992595774
 21
179.6534449727
  0
LINE
  5
350
100
AcDbEntity
  8
0
100
AcDbLine
 62
7
  6
CONTINUOUS
 10
183.9305110079
 20
181.9938706727
 11
183.8367602926
 21
181.6747214765
  0
LINE
  5
351
100
AcDbEntity
  8
0
100
AcDbLine
 62
7
  6
CONTINUOUS
 10
186.9305102926
 20
179.3342960746
 11
187.0242610079
 21
179.6534449727
  0
LINE
  5
352
100
AcDbEntity
  8
0
100
AcDbLine
 62
7
  6
CONTINUOUS
 10
188.0555102926
 20
181.9938706727
 11
187.9617595774
 21
181.6747214765
  0
LINE
  5
353
100
AcDbEntity
  8
0
100
AcDbLine
 62
7
  6
CONTINUOUS
 10
179.993009935
 20
182.4194025369
 11
179.8055106503
 21
181.9938706727
  0
LINE
  5
354
100
AcDbEntity
  8
0
100
AcDbLine
 62
7
  6
CONTINUOUS
 10
184.1180102926
 20
182.4194025369
 11
183.9305110079
 21
181.9938706727
  0
LINE
  5
355
100
AcDbEntity
  8
0
100
AcDbLine
 62
7
  6
CONTINUOUS
 10
182.6180106503
 20
178.908764136
 11
182.8055110079
 21
179.3342960746
  0
LINE
  5
356
100
AcDbEntity
  8
0
100
AcDbLine
 62
7
  6
CONTINUOUS
 10
180.1805102926
 20
181.6747214765
 11
180.555509935
 21
182.3130195708
  0
LINE
  5
357
100
AcDbEntity
  8
0
100
AcDbLine
 62
7
  6
CONTINUOUS
 10
178.305509935
 20
183.1640832992
 11
177.743009935
 21
182.4194025369
  0
LINE
  5
358
100
AcDbEntity
  8
0
100
AcDbLine
 62
7
  6
CONTINUOUS
 10
177.743009935
 20
181.5683385105
 11
178.305509935
 21
182.3130195708
  0
LINE
  5
359
100
AcDbEntity
  8
0
100
AcDbLine
 62
7
  6
CONTINUOUS
 10
176.2430102926
 20
185.9832322345
 11
176.618009935
 21
186.408764136
  0
LINE
  5
35A
100
AcDbEntity
  8
0
100
AcDbLine
 62
7
  6
CONTINUOUS
 10
172.0242602926
 20
178.4832322345
 11
172.3992604715
 21
178.908764136
  0
LINE
  5
35B
100
AcDbEntity
  8
0
100
AcDbLine
 62
7
  6
CONTINUOUS
 10
171.5555104715
 20
186.6215301425
 11
171.2742604715
 21
186.408764136
  0
LINE
  5
35C
100
AcDbEntity
  8
0
100
AcDbLine
 62
7
  6
CONTINUOUS
 10
169.6805101138
 20
182.2066366048
 11
169.9617601138
 21
182.4194025369
  0
LINE
  5
35D
100
AcDbEntity
  8
0
100
AcDbLine
 62
7
  6
CONTINUOUS
 10
167.4305103821
 20
188.1108918161
 11
167.8055102926
 21
188.3236577482
  0
LINE
  5
35E
100
AcDbEntity
  8
0
100
AcDbLine
 62
7
  6
CONTINUOUS
 10
206.8055117232
 20
178.908764136
 11
204.4617588621
 21
183.1640832992
  0
LINE
  5
35F
100
AcDbEntity
  8
0
100
AcDbLine
 62
7
  6
CONTINUOUS
 10
204.1805088621
 20
182.5257855029
 11
206.5242617232
 21
178.1640832992
  0
LINE
  5
360
100
AcDbEntity
  8
0
100
AcDbLine
 62
7
  6
CONTINUOUS
 10
202.3055117232
 20
178.3768492499
 11
202.3992602926
 21
178.1640832992
  0
LINE
  5
361
100
AcDbEntity
  8
0
100
AcDbLine
 62
7
  6
CONTINUOUS
 10
202.1180102926
 20
180.9300407143
 11
202.2117588621
 21
180.7172747822
  0
LINE
  5
362
100
AcDbEntity
  8
0
100
AcDbLine
 62
7
  6
CONTINUOUS
 10
202.2117588621
 20
178.6959982039
 11
202.3055117232
 21
178.3768492499
  0
LINE
  5
363
100
AcDbEntity
  8
0
100
AcDbLine
 62
7
  6
CONTINUOUS
 10
202.8680117232
 20
178.1640832992
 11
202.7742588621
 21
178.4832322345
  0
LINE
  5
364
100
AcDbEntity
  8
0
100
AcDbLine
 62
7
  6
CONTINUOUS
 10
202.6805102926
 20
180.7172747822
 11
202.5867617232
 21
181.0364236803
  0
LINE
  5
365
100
AcDbEntity
  8
0
100
AcDbLine
 62
7
  6
CONTINUOUS
 10
196.1180095774
 20
179.4406790407
 11
196.2117602926
 21
179.015147102
  0
LINE
  5
366
100
AcDbEntity
  8
0
100
AcDbLine
 62
7
  6
CONTINUOUS
 10
199.8680102926
 20
179.1215301425
 11
199.9617610079
 21
178.6959982039
  0
LINE
  5
367
100
AcDbEntity
  8
0
100
AcDbLine
 62
7
  6
CONTINUOUS
 10
195.3680102926
 20
181.1428066463
 11
195.2742595774
 21
181.6747214765
  0
LINE
  5
368
100
AcDbEntity
  8
0
100
AcDbLine
 62
7
  6
CONTINUOUS
 10
194.8055102926
 20
181.6747214765
 11
194.8992610079
 21
181.0364236803
  0
LINE
  5
369
100
AcDbEntity
  8
0
100
AcDbLine
 62
7
  6
CONTINUOUS
 10
196.5867610079
 20
179.5470620067
 11
196.5867610079
 21
180.185359952
  0
LINE
  5
36A
100
AcDbEntity
  8
0
100
AcDbLine
 62
7
  6
CONTINUOUS
 10
198.6492595774
 20
183.1640832992
 11
198.6492595774
 21
180.9300407143
  0
LINE
  5
36B
100
AcDbEntity
  8
0
100
AcDbLine
 62
7
  6
CONTINUOUS
 10
198.6492595774
 20
180.398125884
 11
198.6492595774
 21
179.3342960746
  0
LINE
  5
36C
100
AcDbEntity
  8
0
100
AcDbLine
 62
7
  6
CONTINUOUS
 10
198.6492595774
 20
178.8023811699
 11
198.6492595774
 21
178.1640832992
  0
LINE
  5
36D
100
AcDbEntity
  8
0
100
AcDbLine
 62
7
  6
CONTINUOUS
 10
199.1180110079
 20
178.1640832992
 11
199.1180110079
 21
183.1640832992
  0
LINE
  5
36E
100
AcDbEntity
  8
0
100
AcDbLine
 62
7
  6
CONTINUOUS
 10
199.8680102926
 20
180.9300407143
 11
199.8680102926
 21
180.7172747822
  0
LINE
  5
36F
100
AcDbEntity
  8
0
100
AcDbLine
 62
7
  6
CONTINUOUS
 10
199.8680102926
 20
179.4406790407
 11
199.8680102926
 21
179.1215301425
  0
LINE
  5
370
100
AcDbEntity
  8
0
100
AcDbLine
 62
7
  6
CONTINUOUS
 10
200.3367595774
 20
179.015147102
 11
200.3367595774
 21
179.2279131086
  0
LINE
  5
371
100
AcDbEntity
  8
0
100
AcDbLine
 62
7
  6
CONTINUOUS
 10
202.2117588621
 20
180.7172747822
 11
202.2117588621
 21
180.398125884
  0
LINE
  5
372
100
AcDbEntity
  8
0
100
AcDbLine
 62
7
  6
CONTINUOUS
 10
202.2117588621
 20
179.9725938709
 11
202.2117588621
 21
179.3342960746
  0
LINE
  5
373
100
AcDbEntity
  8
0
100
AcDbLine
 62
7
  6
CONTINUOUS
 10
202.6805102926
 20
179.015147102
 11
202.6805102926
 21
180.7172747822
  0
LINE
  5
374
100
AcDbEntity
  8
0
100
AcDbLine
 62
7
  6
CONTINUOUS
 10
194.8992610079
 20
180.291742918
 11
194.8055102926
 21
179.6534449727
  0
LINE
  5
375
100
AcDbEntity
  8
0
100
AcDbLine
 62
7
  6
CONTINUOUS
 10
195.2742595774
 20
179.6534449727
 11
195.3680102926
 21
180.185359952
  0
LINE
  5
376
100
AcDbEntity
  8
0
100
AcDbLine
 62
7
  6
CONTINUOUS
 10
196.2117602926
 20
180.7172747822
 11
196.1180095774
 21
180.291742918
  0
LINE
  5
377
100
AcDbEntity
  8
0
100
AcDbLine
 62
7
  6
CONTINUOUS
 10
191.0555095774
 20
179.3342960746
 11
191.1492602926
 21
179.6534449727
  0
LINE
  5
378
100
AcDbEntity
  8
0
100
AcDbLine
 62
7
  6
CONTINUOUS
 10
192.1805095774
 20
181.9938706727
 11
192.0867610079
 21
181.6747214765
  0
LINE
  5
379
100
AcDbEntity
  8
0
100
AcDbLine
 62
7
  6
CONTINUOUS
 10
195.1805110079
 20
179.3342960746
 11
195.2742595774
 21
179.6534449727
  0
LINE
  5
37A
100
AcDbEntity
  8
0
100
AcDbLine
 62
7
  6
CONTINUOUS
 10
188.2430095774
 20
182.4194025369
 11
188.0555102926
 21
181.9938706727
  0
LINE
  5
37B
100
AcDbEntity
  8
0
100
AcDbLine
 62
7
  6
CONTINUOUS
 10
186.7430110079
 20
178.908764136
 11
186.9305102926
 21
179.3342960746
  0
LINE
  5
37C
100
AcDbEntity
  8
0
100
AcDbLine
 62
7
  6
CONTINUOUS
 10
192.3680110079
 20
182.4194025369
 11
192.1805095774
 21
181.9938706727
  0
LINE
  5
37D
100
AcDbEntity
  8
0
100
AcDbLine
 62
7
  6
CONTINUOUS
 10
190.8680102926
 20
178.908764136
 11
191.0555095774
 21
179.3342960746
  0
LINE
  5
37E
100
AcDbEntity
  8
0
100
AcDbLine
 62
7
  6
CONTINUOUS
 10
182.4305102926
 20
179.6534449727
 11
182.0555106503
 21
179.015147102
  0
LINE
  5
37F
100
AcDbEntity
  8
0
100
AcDbLine
 62
7
  6
CONTINUOUS
 10
184.3055095774
 20
181.6747214765
 11
184.6805102926
 21
182.3130195708
  0
LINE
  5
380
100
AcDbEntity
  8
0
100
AcDbLine
 62
7
  6
CONTINUOUS
 10
186.5555095774
 20
179.6534449727
 11
186.1805110079
 21
179.015147102
  0
LINE
  5
381
100
AcDbEntity
  8
0
100
AcDbLine
 62
7
  6
CONTINUOUS
 10
188.4305110079
 20
181.6747214765
 11
188.8055095774
 21
182.3130195708
  0
LINE
  5
382
100
AcDbEntity
  8
0
100
AcDbLine
 62
7
  6
CONTINUOUS
 10
180.274259935
 20
182.738551435
 11
179.993009935
 21
182.4194025369
  0
LINE
  5
383
100
AcDbEntity
  8
0
100
AcDbLine
 62
7
  6
CONTINUOUS
 10
184.3992602926
 20
182.738551435
 11
184.1180102926
 21
182.4194025369
  0
LINE
  5
384
100
AcDbEntity
  8
0
100
AcDbLine
 62
7
  6
CONTINUOUS
 10
182.3367606503
 20
178.5896152006
 11
182.6180106503
 21
178.908764136
  0
LINE
  5
385
100
AcDbEntity
  8
0
100
AcDbLine
 62
7
  6
CONTINUOUS
 10
176.055509935
 20
186.6215301425
 11
175.774259935
 21
186.408764136
  0
LINE
  5
386
100
AcDbEntity
  8
0
100
AcDbLine
 62
7
  6
CONTINUOUS
 10
171.8367604715
 20
179.1215301425
 11
171.5555104715
 21
178.908764136
  0
LINE
  5
387
100
AcDbEntity
  8
0
100
AcDbLine
 62
7
  6
CONTINUOUS
 10
180.555509935
 20
182.3130195708
 11
180.836759935
 21
182.5257855029
  0
LINE
  5
388
100
AcDbEntity
  8
0
100
AcDbLine
 62
7
  6
CONTINUOUS
 10
171.3680101138
 20
185.7704662745
 11
171.7430102926
 21
185.9832322345
  0
LINE
  5
389
100
AcDbEntity
  8
0
100
AcDbLine
 62
7
  6
CONTINUOUS
 10
169.8680104715
 20
183.0577003331
 11
169.4930102926
 21
182.844934401
  0
LINE
  5
38A
100
AcDbEntity
  8
0
100
AcDbLine
 62
7
  6
CONTINUOUS
 10
175.8680106503
 20
185.7704662745
 11
176.2430102926
 21
185.9832322345
  0
LINE
  5
38B
100
AcDbEntity
  8
0
100
AcDbLine
 62
7
  6
CONTINUOUS
 10
167.3367602032
 20
188.6428066463
 11
167.0555102032
 21
188.5364236803
  0
LINE
  5
38C
100
AcDbEntity
  8
0
100
AcDbLine
 62
7
  6
CONTINUOUS
 10
202.7742588621
 20
178.4832322345
 11
202.6805102926
 21
179.015147102
  0
LINE
  5
38D
100
AcDbEntity
  8
0
100
AcDbLine
 62
7
  6
CONTINUOUS
 10
203.6180088621
 20
183.1640832992
 11
203.6180088621
 21
178.1640832992
  0
LINE
  5
38E
100
AcDbEntity
  8
0
100
AcDbLine
 62
7
  6
CONTINUOUS
 10
204.1805088621
 20
178.1640832992
 11
204.1805088621
 21
182.5257855029
  0
LINE
  5
38F
100
AcDbEntity
  8
0
100
AcDbLine
 62
7
  6
CONTINUOUS
 10
206.8055117232
 20
183.1640832992
 11
206.8055117232
 21
178.908764136
  0
LINE
  5
390
100
AcDbEntity
  8
0
100
AcDbLine
 62
7
  6
CONTINUOUS
 10
207.3680117232
 20
178.1640832992
 11
207.3680117232
 21
183.1640832992
  0
LINE
  5
391
100
AcDbEntity
  8
0
100
AcDbLine
 62
7
  6
CONTINUOUS
 10
196.5867610079
 20
180.185359952
 11
196.6805095774
 21
180.5045088501
  0
LINE
  5
392
100
AcDbEntity
  8
0
100
AcDbLine
 62
7
  6
CONTINUOUS
 10
200.3367595774
 20
179.2279131086
 11
200.4305102926
 21
179.5470620067
  0
LINE
  5
393
100
AcDbEntity
  8
0
100
AcDbLine
 62
7
  6
CONTINUOUS
 10
194.9930095774
 20
178.908764136
 11
195.1805110079
 21
179.3342960746
  0
LINE
  5
394
100
AcDbEntity
  8
0
100
AcDbLine
 62
7
  6
CONTINUOUS
 10
196.3055110079
 20
180.9300407143
 11
196.2117602926
 21
180.7172747822
  0
LINE
  5
395
100
AcDbEntity
  8
0
100
AcDbLine
 62
7
  6
CONTINUOUS
 10
198.5555110079
 20
178.5896152006
 11
198.6492595774
 21
178.8023811699
  0
LINE
  5
396
100
AcDbEntity
  8
0
100
AcDbLine
 62
7
  6
CONTINUOUS
 10
199.9617610079
 20
181.1428066463
 11
199.8680102926
 21
180.9300407143
  0
LINE
  5
397
100
AcDbEntity
  8
0
100
AcDbLine
 62
7
  6
CONTINUOUS
 10
200.3367595774
 20
180.7172747822
 11
200.4305102926
 21
180.9300407143
  0
LINE
  5
398
100
AcDbEntity
  8
0
100
AcDbLine
 62
7
  6
CONTINUOUS
 10
190.6805110079
 20
179.6534449727
 11
190.3055102926
 21
179.015147102
  0
LINE
  5
399
100
AcDbEntity
  8
0
100
AcDbLine
 62
7
  6
CONTINUOUS
 10
192.5555102926
 20
181.6747214765
 11
192.9305110079
 21
182.3130195708
  0
LINE
  5
39A
100
AcDbEntity
  8
0
100
AcDbLine
 62
7
  6
CONTINUOUS
 10
194.8055102926
 20
179.6534449727
 11
194.4305095774
 21
179.015147102
  0
LINE
  5
39B
100
AcDbEntity
  8
0
100
AcDbLine
 62
7
  6
CONTINUOUS
 10
196.6805095774
 20
180.5045088501
 11
196.8680110079
 21
180.8236577482
  0
LINE
  5
39C
100
AcDbEntity
  8
0
100
AcDbLine
 62
7
  6
CONTINUOUS
 10
188.5242595774
 20
182.738551435
 11
188.2430095774
 21
182.4194025369
  0
LINE
  5
39D
100
AcDbEntity
  8
0
100
AcDbLine
 62
7
  6
CONTINUOUS
 10
186.4617610079
 20
178.5896152006
 11
186.7430110079
 21
178.908764136
  0
LINE
  5
39E
100
AcDbEntity
  8
0
100
AcDbLine
 62
7
  6
CONTINUOUS
 10
192.6492610079
 20
182.738551435
 11
192.3680110079
 21
182.4194025369
  0
LINE
  5
39F
100
AcDbEntity
  8
0
100
AcDbLine
 62
7
  6
CONTINUOUS
 10
190.5867602926
 20
178.5896152006
 11
190.8680102926
 21
178.908764136
  0
LINE
  5
3A0
100
AcDbEntity
  8
0
100
AcDbLine
 62
7
  6
CONTINUOUS
 10
184.6805102926
 20
182.3130195708
 11
184.9617602926
 21
182.5257855029
  0
LINE
  5
3A1
100
AcDbEntity
  8
0
100
AcDbLine
 62
7
  6
CONTINUOUS
 10
182.0555106503
 20
179.015147102
 11
181.7742606503
 21
178.8023811699
  0
LINE
  5
3A2
100
AcDbEntity
  8
0
100
AcDbLine
 62
7
  6
CONTINUOUS
 10
188.8055095774
 20
182.3130195708
 11
189.0867595774
 21
182.5257855029
  0
LINE
  5
3A3
100
AcDbEntity
  8
0
100
AcDbLine
 62
7
  6
CONTINUOUS
 10
186.1805110079
 20
179.015147102
 11
185.8992610079
 21
178.8023811699
  0
LINE
  5
3A4
100
AcDbEntity
  8
0
100
AcDbLine
 62
7
  6
CONTINUOUS
 10
180.7430102926
 20
183.0577003331
 11
180.274259935
 21
182.738551435
  0
LINE
  5
3A5
100
AcDbEntity
  8
0
100
AcDbLine
 62
7
  6
CONTINUOUS
 10
184.8680095774
 20
183.0577003331
 11
184.3992602926
 21
182.738551435
  0
LINE
  5
3A6
100
AcDbEntity
  8
0
100
AcDbLine
 62
7
  6
CONTINUOUS
 10
181.8680102926
 20
178.2704662745
 11
182.3367606503
 21
178.5896152006
  0
LINE
  5
3A7
100
AcDbEntity
  8
0
100
AcDbLine
 62
7
  6
CONTINUOUS
 10
188.9930110079
 20
183.0577003331
 11
188.5242595774
 21
182.738551435
  0
LINE
  5
3A8
100
AcDbEntity
  8
0
100
AcDbLine
 62
7
  6
CONTINUOUS
 10
171.6492601138
 20
178.2704662745
 11
172.0242602926
 21
178.4832322345
  0
LINE
  5
3A9
100
AcDbEntity
  8
RUNDUNGEN
100
AcDbLine
 62
7
  6
CONTINUOUS
 10
213.7117602926
 20
199.5250316884
 11
213.7117602926
 21
175.0169469927
  0
LINE
  5
3AA
100
AcDbEntity
  8
RUNDUNGEN
100
AcDbLine
 62
7
  6
CONTINUOUS
 10
218.7591353892
 20
220.6640832992
 11
216.3385207978
 21
211.2890832992
  0
LINE
  5
3AB
100
AcDbEntity
  8
0
100
AcDbLine
 62
7
  6
CONTINUOUS
 10
200.0555095774
 20
179.8662109048
 11
199.8680102926
 21
179.4406790407
  0
LINE
  5
3AC
100
AcDbEntity
  8
0
100
AcDbLine
 62
7
  6
CONTINUOUS
 10
202.2117588621
 20
179.3342960746
 11
202.1180102926
 21
179.1215301425
  0
LINE
  5
3AD
100
AcDbEntity
  8
0
100
AcDbLine
 62
7
  6
CONTINUOUS
 10
202.1180102926
 20
178.4832322345
 11
202.2117588621
 21
178.6959982039
  0
LINE
  5
3AE
100
AcDbEntity
  8
0
100
AcDbLine
 62
7
  6
CONTINUOUS
 10
198.6492595774
 20
179.3342960746
 11
198.4617602926
 21
179.015147102
  0
LINE
  5
3AF
100
AcDbEntity
  8
0
100
AcDbLine
 62
7
  6
CONTINUOUS
 10
196.5867610079
 20
181.2491896124
 11
196.3055110079
 21
180.9300407143
  0
LINE
  5
3B0
100
AcDbEntity
  8
0
100
AcDbLine
 62
7
  6
CONTINUOUS
 10
194.7117595774
 20
178.5896152006
 11
194.9930095774
 21
178.908764136
  0
LINE
  5
3B1
100
AcDbEntity
  8
0
100
AcDbLine
 62
7
  6
CONTINUOUS
 10
200.1492602926
 20
181.3555725784
 11
199.9617610079
 21
181.1428066463
  0
LINE
  5
3B2
100
AcDbEntity
  8
0
100
AcDbLine
 62
7
  6
CONTINUOUS
 10
198.3680095774
 20
178.3768492499
 11
198.5555110079
 21
178.5896152006
  0
LINE
  5
3B3
100
AcDbEntity
  8
0
100
AcDbLine
 62
7
  6
CONTINUOUS
 10
200.2430110079
 20
180.0789769859
 11
200.0555095774
 21
179.8662109048
  0
LINE
  5
3B4
100
AcDbEntity
  8
0
100
AcDbLine
 62
7
  6
CONTINUOUS
 10
200.4305102926
 20
179.5470620067
 11
200.6180095774
 21
179.7598279388
  0
LINE
  5
3B5
100
AcDbEntity
  8
0
100
AcDbLine
 62
7
  6
CONTINUOUS
 10
192.9305110079
 20
182.3130195708
 11
193.2117610079
 21
182.5257855029
  0
LINE
  5
3B6
100
AcDbEntity
  8
0
100
AcDbLine
 62
7
  6
CONTINUOUS
 10
190.3055102926
 20
179.015147102
 11
190.0242602926
 21
178.8023811699
  0
LINE
  5
3B7
100
AcDbEntity
  8
0
100
AcDbLine
 62
7
  6
CONTINUOUS
 10
196.8680110079
 20
181.4619555445
 11
196.5867610079
 21
181.2491896124
  0
LINE
  5
3B8
100
AcDbEntity
  8
0
100
AcDbLine
 62
7
  6
CONTINUOUS
 10
194.4305095774
 20
179.015147102
 11
194.1492595774
 21
178.8023811699
  0
LINE
  5
3B9
100
AcDbEntity
  8
0
100
AcDbLine
 62
7
  6
CONTINUOUS
 10
185.9930095774
 20
178.2704662745
 11
186.4617610079
 21
178.5896152006
  0
LINE
  5
3BA
100
AcDbEntity
  8
0
100
AcDbLine
 62
7
  6
CONTINUOUS
 10
193.1180102926
 20
183.0577003331
 11
192.6492610079
 21
182.738551435
  0
LINE
  5
3BB
100
AcDbEntity
  8
0
100
AcDbLine
 62
7
  6
CONTINUOUS
 10
190.1180110079
 20
178.2704662745
 11
190.5867602926
 21
178.5896152006
  0
LINE
  5
3BC
100
AcDbEntity
  8
0
100
AcDbLine
 62
7
  6
CONTINUOUS
 10
194.2430102926
 20
178.2704662745
 11
194.7117595774
 21
178.5896152006
  0
LINE
  5
3BD
100
AcDbEntity
  8
0
100
AcDbLine
 62
7
  6
CONTINUOUS
 10
196.8680110079
 20
180.8236577482
 11
197.2430095774
 21
181.0364236803
  0
LINE
  5
3BE
100
AcDbEntity
  8
0
100
AcDbLine
 62
7
  6
CONTINUOUS
 10
200.3367595774
 20
181.4619555445
 11
200.1492602926
 21
181.3555725784
  0
LINE
  5
3BF
100
AcDbEntity
  8
0
100
AcDbLine
 62
7
  6
CONTINUOUS
 10
202.1180102926
 20
179.1215301425
 11
201.8367602926
 21
178.8023811699
  0
LINE
  5
3C0
100
AcDbEntity
  8
0
100
AcDbLine
 62
7
  6
CONTINUOUS
 10
198.4617602926
 20
179.015147102
 11
198.1805102926
 21
178.8023811699
  0
LINE
  5
3C1
100
AcDbEntity
  8
0
100
AcDbLine
 62
7
  6
CONTINUOUS
 10
201.8367602926
 20
178.2704662745
 11
202.1180102926
 21
178.4832322345
  0
LINE
  5
3C2
100
AcDbEntity
  8
0
100
AcDbLine
 62
7
  6
CONTINUOUS
 10
200.4305102926
 20
180.9300407143
 11
200.6180095774
 21
181.0364236803
  0
LINE
  5
3C3
100
AcDbEntity
  8
0
100
AcDbLine
 62
7
  6
CONTINUOUS
 10
200.6180095774
 20
180.291742918
 11
200.2430110079
 21
180.0789769859
  0
LINE
  5
3C4
100
AcDbEntity
  8
0
100
AcDbLine
 62
7
  6
CONTINUOUS
 10
200.6180095774
 20
179.7598279388
 11
200.8055088621
 21
179.8662109048
  0
LINE
  5
3C5
100
AcDbEntity
  8
0
100
AcDbLine
 62
7
  6
CONTINUOUS
 10
198.1805102926
 20
178.2704662745
 11
198.3680095774
 21
178.3768492499
  0
LINE
  5
3C6
100
AcDbEntity
  8
0
100
AcDbLine
 62
7
  6
CONTINUOUS
 10
201.8367602926
 20
178.8023811699
 11
201.3680088621
 21
178.5896152006
  0
LINE
  5
3C7
100
AcDbEntity
  8
RUNDUNGEN
100
AcDbLine
 62
7
  6
CONTINUOUS
 10
223.7117602926
 20
138.1649400302
 11
223.7117602926
 21
152.8415717335
  0
LINE
  5
3C8
100
AcDbEntity
  8
RUNDUNGEN
100
AcDbLine
 62
7
  6
CONTINUOUS
 10
223.7117602926
 20
159.0334542996
 11
223.7117602926
 21
166.1370100572
  0
LINE
  5
3C9
100
AcDbEntity
  8
0
100
AcDbLine
 62
7
  6
CONTINUOUS
 10
212.5570597543
 20
162.6640832992
 11
211.4023592159
 21
160.6640832992
  0
LINE
  5
3CA
100
AcDbEntity
  8
0
100
AcDbLine
 62
7
  6
CONTINUOUS
 10
214.866460831
 20
158.6640832992
 11
216.0211613694
 21
160.6640832992
  0
LINE
  5
3CB
100
AcDbEntity
  8
0
100
AcDbLine
 62
7
  6
CONTINUOUS
 10
241.7117602926
 20
168.2139177344
 11
241.7117602926
 21
153.1142488639
  0
LINE
  5
3CC
100
AcDbEntity
  8
0
100
AcDbLine
 62
7
  6
CONTINUOUS
 10
241.7117602926
 20
180.6640832992
 11
241.7117602926
 21
227.7427841415
  0
LINE
  5
3CD
100
AcDbEntity
  8
0
100
AcDbLine
 62
7
  6
CONTINUOUS
 10
256.7117182374
 20
171.6638447918
 11
252.8326076352
 21
149.6643153574
  0
LINE
  5
3CE
100
AcDbEntity
  8
BEZUGSACHSEN
100
AcDbLine
 62
7
  6
CONTINUOUS
 10
351.5575854429
 20
155.6640832992
 11
353.3046757596
 21
155.6640832992
  0
LINE
  5
3CF
100
AcDbEntity
  8
RUNDUNGEN
100
AcDbLine
 62
7
  6
CONTINUOUS
 10
334.3046757596
 20
153.5226548706
 11
334.3046757596
 21
167.8055117277
  0
LINE
  5
3D0
100
AcDbEntity
  8
RUNDUNGEN
100
AcDbLine
 62
7
  6
CONTINUOUS
 10
339.3046757596
 20
205.6407502103
 11
339.3046757596
 21
272.1640832992
  0
LINE
  5
3D1
100
AcDbEntity
  8
RUNDUNGEN
100
AcDbLine
 62
7
  6
CONTINUOUS
 10
333.3393328324
 20
194.4720213611
 11
337.2382091625
 21
199.5531359202
  0
LINE
  5
3D2
100
AcDbEntity
  8
RUNDUNGEN
100
AcDbLine
 62
7
  6
CONTINUOUS
 10
313.8046757596
 20
182.3147183938
 11
330.4057994295
 21
191.8993816134
  0
LINE
  5
3D3
100
AcDbEntity
  8
BEZUGSACHSEN
100
AcDbLine
 62
7
  6
CONTINUOUS
 10
353.3046757596
 20
155.6640832992
 11
353.3046757596
 21
159.8732528002
  0
LINE
  5
3D4
100
AcDbEntity
  8
RUNDUNGEN
100
AcDbLine
 62
7
  6
CONTINUOUS
 10
356.3046757596
 20
272.1640832992
 11
356.3046757596
 21
176.9289844678
  0
LINE
  5
3D5
100
AcDbEntity
  8
RUNDUNGEN
100
AcDbLine
 62
7
  6
CONTINUOUS
 10
351.6200651115
 20
155.7980713807
 11
348.9623704356
 21
150.0986267556
  0
LINE
  5
3D6
100
AcDbEntity
  8
0
100
AcDbLine
 62
7
  6
CONTINUOUS
 10
343.3046757596
 20
276.1640832992
 11
352.3046757596
 21
276.1640832992
  0
LINE
  5
3D7
100
AcDbEntity
  8
RUNDUNGEN
100
AcDbLine
 62
7
  6
CONTINUOUS
 10
121.7117602926
 20
60.0496607316
 11
121.7117602926
 21
77.0496607236
  0
LINE
  5
3D8
100
AcDbEntity
  8
RUNDUNGEN
100
AcDbLine
 62
7
  6
CONTINUOUS
 10
137.7117602926
 20
41.0496607316
 11
137.7117602926
 21
88.0496446514
  0
LINE
  5
3D9
100
AcDbEntity
  8
RUNDUNGEN
100
AcDbLine
 62
7
  6
CONTINUOUS
 10
155.7117602926
 20
89.5495477247
 11
155.7117602926
 21
70.8604147131
  0
LINE
  5
3DA
100
AcDbEntity
  8
RUNDUNGEN
100
AcDbLine
 62
7
  6
CONTINUOUS
 10
237.7117602926
 20
37.0496607316
 11
141.7117602926
 21
37.0496607316
  0
LINE
  5
3DB
100
AcDbEntity
  8
0
100
AcDbLine
 62
7
  6
CONTINUOUS
 10
165.6492602926
 20
82.0080116868
 11
165.6492602926
 21
83.0496589646
  0
LINE
  5
3DC
100
AcDbEntity
  8
0
100
AcDbLine
 62
7
  6
CONTINUOUS
 10
165.7950936303
 20
81.9336811978
 11
165.7950936303
 21
82.9409811688
  0
LINE
  5
3DD
100
AcDbEntity
  8
0
100
AcDbLine
 62
7
  6
CONTINUOUS
 10
166.0867602926
 20
81.8469900543
 11
166.0867602926
 21
82.8598142756
  0
LINE
  5
3DE
100
AcDbEntity
  8
0
100
AcDbLine
 62
7
  6
CONTINUOUS
 10
166.5242602926
 20
83.0106213324
 11
166.5242602926
 21
83.0496589646
  0
LINE
  5
3DF
100
AcDbEntity
  8
0
100
AcDbLine
 62
7
  6
CONTINUOUS
 10
166.6700935912
 20
81.7356411797
 11
166.6700935912
 21
82.7556475431
  0
LINE
  5
3E0
100
AcDbEntity
  8
0
100
AcDbLine
 62
7
  6
CONTINUOUS
 10
167.2534269941
 20
81.6705489118
 11
167.2534269941
 21
82.6947996309
  0
LINE
  5
3E1
100
AcDbEntity
  8
0
100
AcDbLine
 62
7
  6
CONTINUOUS
 10
167.9825936955
 20
81.6356128774
 11
167.9825936955
 21
82.6621557276
  0
LINE
  5
3E2
100
AcDbEntity
  8
0
100
AcDbLine
 62
7
  6
CONTINUOUS
 10
169.1492602926
 20
81.6356128774
 11
169.1492602926
 21
82.6621557276
  0
LINE
  5
3E3
100
AcDbEntity
  8
0
100
AcDbLine
 62
7
  6
CONTINUOUS
 10
169.8784270984
 20
81.6705489118
 11
169.8784270984
 21
82.6947996309
  0
LINE
  5
3E4
100
AcDbEntity
  8
0
100
AcDbLine
 62
7
  6
CONTINUOUS
 10
170.4617602926
 20
81.7356411797
 11
170.4617602926
 21
82.7556475431
  0
LINE
  5
3E5
100
AcDbEntity
  8
0
100
AcDbLine
 62
7
  6
CONTINUOUS
 10
170.6075934869
 20
83.0496589646
 11
170.6075934869
 21
83.0106213324
  0
LINE
  5
3E6
100
AcDbEntity
  8
0
100
AcDbLine
 62
7
  6
CONTINUOUS
 10
171.0450934869
 20
81.8469900543
 11
171.0450934869
 21
82.8598142756
  0
LINE
  5
3E7
100
AcDbEntity
  8
0
100
AcDbLine
 62
7
  6
CONTINUOUS
 10
171.3367602926
 20
81.9336811978
 11
171.3367602926
 21
82.9409811688
  0
LINE
  5
3E8
100
AcDbEntity
  8
0
100
AcDbLine
 62
7
  6
CONTINUOUS
 10
171.4825934869
 20
82.0080116868
 11
171.4825934869
 21
83.0496589646
  0
LINE
  5
3E9
100
AcDbEntity
  8
0
100
AcDbLine
 62
7
  6
CONTINUOUS
 10
172.6492602926
 20
81.6356128774
 11
172.6492602926
 21
83.0496607316
  0
LINE
  5
3EA
100
AcDbEntity
  8
0
100
AcDbLine
 62
7
  6
CONTINUOUS
 10
173.5242602926
 20
81.6356128774
 11
173.5242602926
 21
83.0453277274
  0
LINE
  5
3EB
100
AcDbEntity
  8
0
100
AcDbLine
 62
7
  6
CONTINUOUS
 10
176.1492602926
 20
82.0450387742
 11
176.1492602926
 21
83.0453277274
  0
LINE
  5
3EC
100
AcDbEntity
  8
0
100
AcDbLine
 62
7
  6
CONTINUOUS
 10
176.8784266812
 20
82.047996991
 11
176.8784266812
 21
83.0481009853
  0
LINE
  5
3ED
100
AcDbEntity
  8
0
100
AcDbLine
 62
7
  6
CONTINUOUS
 10
177.4617602926
 20
82.047996991
 11
177.4617602926
 21
83.0481009853
  0
LINE
  5
3EE
100
AcDbEntity
  8
0
100
AcDbLine
 62
7
  6
CONTINUOUS
 10
177.8992602926
 20
82.0496607316
 11
177.8992602926
 21
83.0286780725
  0
LINE
  5
3EF
100
AcDbEntity
  8
0
100
AcDbLine
 62
7
  6
CONTINUOUS
 10
178.0450939041
 20
82.0496607316
 11
178.0450939041
 21
82.9994993554
  0
LINE
  5
3F0
100
AcDbEntity
  8
0
100
AcDbLine
 62
7
  6
CONTINUOUS
 10
179.2117602926
 20
82.0496607316
 11
179.2117602926
 21
82.8106320182
  0
LINE
  5
3F1
100
AcDbEntity
  8
RUNDUNGEN
100
AcDbLine
 62
7
  6
CONTINUOUS
 10
141.7117602926
 20
54.0496607316
 11
237.7117602926
 21
54.0496607316
  0
LINE
  5
3F2
100
AcDbEntity
  8
0
100
AcDbLine
 62
7
  6
CONTINUOUS
 10
181.5450930697
 20
81.6356128774
 11
181.5450930697
 21
83.0495761328
  0
LINE
  5
3F3
100
AcDbEntity
  8
0
100
AcDbLine
 62
7
  6
CONTINUOUS
 10
182.4200930697
 20
81.6356128774
 11
182.4200930697
 21
83.0495761328
  0
LINE
  5
3F4
100
AcDbEntity
  8
0
100
AcDbLine
 62
7
  6
CONTINUOUS
 10
184.7534275156
 20
82.0496607316
 11
184.7534275156
 21
82.8106320182
  0
LINE
  5
3F5
100
AcDbEntity
  8
RUNDUNGEN
100
AcDbLine
 62
7
  6
CONTINUOUS
 10
122.7117602926
 20
59.0496607316
 11
136.7117602926
 21
59.0496607316
  0
LINE
  5
3F6
100
AcDbEntity
  8
0
100
AcDbLine
 62
7
  6
CONTINUOUS
 10
241.7117602926
 20
59.0496607316
 11
256.1034030157
 21
59.0496607316
  0
LINE
  5
3F7
100
AcDbEntity
  8
0
100
AcDbLine
 62
7
  6
CONTINUOUS
 10
185.9200930697
 20
81.6356128774
 11
185.9200930697
 21
83.0496607316
  0
LINE
  5
3F8
100
AcDbEntity
  8
0
100
AcDbLine
 62
7
  6
CONTINUOUS
 10
186.7950930697
 20
81.6356128774
 11
186.7950930697
 21
83.0496607316
  0
LINE
  5
3F9
100
AcDbEntity
  8
0
100
AcDbLine
 62
7
  6
CONTINUOUS
 10
187.9617602926
 20
81.6356128774
 11
187.9617602926
 21
83.0496607316
  0
LINE
  5
3FA
100
AcDbEntity
  8
0
100
AcDbLine
 62
7
  6
CONTINUOUS
 10
188.8367602926
 20
82.8359448972
 11
188.8367602926
 21
83.0495952724
  0
LINE
  5
3FB
100
AcDbEntity
  8
0
100
AcDbLine
 62
7
  6
CONTINUOUS
 10
193.2117602926
 20
81.6356128774
 11
193.2117602926
 21
82.8359448972
  0
LINE
  5
3FC
100
AcDbEntity
  8
0
100
AcDbLine
 62
7
  6
CONTINUOUS
 10
194.3784258467
 20
81.6356128774
 11
194.3784258467
 21
82.6621557276
  0
LINE
  5
3FD
100
AcDbEntity
  8
0
100
AcDbLine
 62
7
  6
CONTINUOUS
 10
195.2534258467
 20
81.6356128774
 11
195.2534258467
 21
82.6621557276
  0
LINE
  5
3FE
100
AcDbEntity
  8
0
100
AcDbLine
 62
7
  6
CONTINUOUS
 10
195.8367602926
 20
81.951554328
 11
195.8367602926
 21
82.957722611
  0
LINE
  5
3FF
100
AcDbEntity
  8
0
100
AcDbLine
 62
7
  6
CONTINUOUS
 10
198.7534258467
 20
81.951554328
 11
198.7534258467
 21
82.957722611
  0
LINE
  5
400
100
AcDbEntity
  8
0
100
AcDbLine
 62
7
  6
CONTINUOUS
 10
199.3367602926
 20
81.6356128774
 11
199.3367602926
 21
82.6621557276
  0
LINE
  5
401
100
AcDbEntity
  8
0
100
AcDbLine
 62
7
  6
CONTINUOUS
 10
200.2117602926
 20
81.6356128774
 11
200.2117602926
 21
82.6621557276
  0
LINE
  5
402
100
AcDbEntity
  8
0
100
AcDbLine
 62
7
  6
CONTINUOUS
 10
201.3784258467
 20
81.96791922
 11
201.3784258467
 21
82.9730534708
  0
LINE
  5
403
100
AcDbEntity
  8
0
100
AcDbLine
 62
7
  6
CONTINUOUS
 10
201.5242602926
 20
81.89338797
 11
201.5242602926
 21
82.9032482855
  0
LINE
  5
404
100
AcDbEntity
  8
0
100
AcDbLine
 62
7
  6
CONTINUOUS
 10
201.8159258467
 20
82.9730534708
 11
201.8159258467
 21
82.9994993554
  0
LINE
  5
405
100
AcDbEntity
  8
0
100
AcDbLine
 62
7
  6
CONTINUOUS
 10
201.9617602926
 20
81.7658185499
 11
201.9617602926
 21
82.7838687171
  0
LINE
  5
406
100
AcDbEntity
  8
0
100
AcDbLine
 62
7
  6
CONTINUOUS
 10
201.9617602926
 20
82.9730534708
 11
201.9617602926
 21
83.0356175361
  0
LINE
  5
407
100
AcDbEntity
  8
0
100
AcDbLine
 62
7
  6
CONTINUOUS
 10
202.5450947386
 20
82.9032473799
 11
202.5450947386
 21
83.049487434
  0
LINE
  5
408
100
AcDbEntity
  8
0
100
AcDbLine
 62
7
  6
CONTINUOUS
 10
202.6909258467
 20
81.6705489118
 11
202.6909258467
 21
82.6947996309
  0
LINE
  5
409
100
AcDbEntity
  8
0
100
AcDbLine
 62
7
  6
CONTINUOUS
 10
203.1284258467
 20
82.8480596381
 11
203.1284258467
 21
83.0481009853
  0
LINE
  5
40A
100
AcDbEntity
  8
0
100
AcDbLine
 62
7
  6
CONTINUOUS
 10
203.4200947386
 20
81.6356128774
 11
203.4200947386
 21
82.6621557276
  0
LINE
  5
40B
100
AcDbEntity
  8
0
100
AcDbLine
 62
7
  6
CONTINUOUS
 10
203.7117602926
 20
82.8359448972
 11
203.7117602926
 21
83.0453277274
  0
LINE
  5
40C
100
AcDbEntity
  8
0
100
AcDbLine
 62
7
  6
CONTINUOUS
 10
136.7117602926
 20
78.0496607316
 11
122.7117602926
 21
78.0496607316
  0
LINE
  5
40D
100
AcDbEntity
  8
RUNDUNGEN
100
AcDbLine
 62
7
  6
CONTINUOUS
 10
241.6965761689
 20
78.0496607316
 11
254.7721635049
 21
78.0496607316
  0
LINE
  5
40E
100
AcDbEntity
  8
0
100
AcDbLine
 62
7
  6
CONTINUOUS
 10
241.6965761689
 20
78.0496607316
 11
254.7721635049
 21
78.0496607316
  0
LINE
  5
40F
100
AcDbEntity
  8
0
100
AcDbLine
 62
7
  6
CONTINUOUS
 10
204.5867602926
 20
81.6356128774
 11
204.5867602926
 21
82.6621557276
  0
LINE
  5
410
100
AcDbEntity
  8
0
100
AcDbLine
 62
7
  6
CONTINUOUS
 10
204.5867602926
 20
82.8359448972
 11
204.5867602926
 21
83.0453277274
  0
LINE
  5
411
100
AcDbEntity
  8
0
100
AcDbLine
 62
7
  6
CONTINUOUS
 10
205.1700947386
 20
82.8598142756
 11
205.1700947386
 21
83.0411669388
  0
LINE
  5
412
100
AcDbEntity
  8
0
100
AcDbLine
 62
7
  6
CONTINUOUS
 10
205.3159258467
 20
81.6705489118
 11
205.3159258467
 21
82.6947996309
  0
LINE
  5
413
100
AcDbEntity
  8
0
100
AcDbLine
 62
7
  6
CONTINUOUS
 10
205.6075947386
 20
82.9032482855
 11
205.6075947386
 21
83.0286780725
  0
LINE
  5
414
100
AcDbEntity
  8
0
100
AcDbLine
 62
7
  6
CONTINUOUS
 10
205.8992602926
 20
82.9994993388
 11
205.8992602926
 21
82.957722611
  0
LINE
  5
415
100
AcDbEntity
  8
0
100
AcDbLine
 62
7
  6
CONTINUOUS
 10
205.8992602926
 20
81.7356411797
 11
205.8992602926
 21
82.7556475431
  0
LINE
  5
416
100
AcDbEntity
  8
0
100
AcDbLine
 62
7
  6
CONTINUOUS
 10
206.4825947386
 20
81.8469900543
 11
206.4825947386
 21
82.8598142756
  0
LINE
  5
417
100
AcDbEntity
  8
0
100
AcDbLine
 62
7
  6
CONTINUOUS
 10
206.7742602926
 20
81.9336811978
 11
206.7742602926
 21
83.0106213324
  0
LINE
  5
418
100
AcDbEntity
  8
0
100
AcDbLine
 62
7
  6
CONTINUOUS
 10
207.9409258467
 20
81.6356128774
 11
207.9409258467
 21
83.0496607316
  0
LINE
  5
419
100
AcDbEntity
  8
0
100
AcDbLine
 62
7
  6
CONTINUOUS
 10
208.8159258467
 20
81.6356128774
 11
208.8159258467
 21
83.0481009853
  0
LINE
  5
41A
100
AcDbEntity
  8
0
100
AcDbLine
 62
7
  6
CONTINUOUS
 10
167.9825936955
 20
81.6356128774
 11
169.1492602926
 21
81.6356128774
  0
LINE
  5
41B
100
AcDbEntity
  8
0
100
AcDbLine
 62
7
  6
CONTINUOUS
 10
172.6492602926
 20
81.6356128774
 11
173.5242602926
 21
81.6356128774
  0
LINE
  5
41C
100
AcDbEntity
  8
0
100
AcDbLine
 62
7
  6
CONTINUOUS
 10
181.5450930697
 20
81.6356128774
 11
182.4200930697
 21
81.6356128774
  0
LINE
  5
41D
100
AcDbEntity
  8
0
100
AcDbLine
 62
7
  6
CONTINUOUS
 10
185.9200930697
 20
81.6356128774
 11
186.7950930697
 21
81.6356128774
  0
LINE
  5
41E
100
AcDbEntity
  8
0
100
AcDbLine
 62
7
  6
CONTINUOUS
 10
187.9617602926
 20
81.6356128774
 11
193.2117602926
 21
81.6356128774
  0
LINE
  5
41F
100
AcDbEntity
  8
0
100
AcDbLine
 62
7
  6
CONTINUOUS
 10
194.3784258467
 20
81.6356128774
 11
195.2534258467
 21
81.6356128774
  0
LINE
  5
420
100
AcDbEntity
  8
0
100
AcDbLine
 62
7
  6
CONTINUOUS
 10
199.3367602926
 20
81.6356128774
 11
200.2117602926
 21
81.6356128774
  0
LINE
  5
421
100
AcDbEntity
  8
0
100
AcDbLine
 62
7
  6
CONTINUOUS
 10
203.4200947386
 20
81.6356128774
 11
204.5867602926
 21
81.6356128774
  0
LINE
  5
422
100
AcDbEntity
  8
0
100
AcDbLine
 62
7
  6
CONTINUOUS
 10
207.9409258467
 20
81.6356128774
 11
208.8159258467
 21
81.6356128774
  0
LINE
  5
423
100
AcDbEntity
  8
0
100
AcDbLine
 62
7
  6
CONTINUOUS
 10
212.8992602926
 20
81.6356128774
 11
213.7742602926
 21
81.6356128774
  0
LINE
  5
424
100
AcDbEntity
  8
0
100
AcDbLine
 62
7
  6
CONTINUOUS
 10
195.8367602926
 20
81.951554328
 11
198.7534258467
 21
81.951554328
  0
LINE
  5
425
100
AcDbEntity
  8
0
100
AcDbLine
 62
7
  6
CONTINUOUS
 10
173.5242602926
 20
82.0450387742
 11
176.1492602926
 21
82.0450387742
  0
LINE
  5
426
100
AcDbEntity
  8
0
100
AcDbLine
 62
7
  6
CONTINUOUS
 10
208.8159258467
 20
82.047996991
 11
212.8992602926
 21
82.047996991
  0
LINE
  5
427
100
AcDbEntity
  8
0
100
AcDbLine
 62
7
  6
CONTINUOUS
 10
158.2117602926
 20
82.0496607316
 11
165.6492602926
 21
82.0496607316
  0
LINE
  5
428
100
AcDbEntity
  8
0
100
AcDbLine
 62
7
  6
CONTINUOUS
 10
171.4825934869
 20
82.0496607316
 11
172.6492602926
 21
82.0496607316
  0
LINE
  5
429
100
AcDbEntity
  8
0
100
AcDbLine
 62
7
  6
CONTINUOUS
 10
177.1700934869
 20
82.0496607316
 11
181.5450930697
 21
82.0496607316
  0
LINE
  5
42A
100
AcDbEntity
  8
0
100
AcDbLine
 62
7
  6
CONTINUOUS
 10
182.4200930697
 20
82.0496607316
 11
185.9200930697
 21
82.0496607316
  0
LINE
  5
42B
100
AcDbEntity
  8
0
100
AcDbLine
 62
7
  6
CONTINUOUS
 10
186.7950930697
 20
82.0496607316
 11
187.9617602926
 21
82.0496607316
  0
LINE
  5
42C
100
AcDbEntity
  8
0
100
AcDbLine
 62
7
  6
CONTINUOUS
 10
193.2117602926
 20
82.0496607316
 11
194.3784258467
 21
82.0496607316
  0
LINE
  5
42D
100
AcDbEntity
  8
0
100
AcDbLine
 62
7
  6
CONTINUOUS
 10
200.2117602926
 20
82.0496607316
 11
201.3784258467
 21
82.0496607316
  0
LINE
  5
42E
100
AcDbEntity
  8
0
100
AcDbLine
 62
7
  6
CONTINUOUS
 10
206.7742602926
 20
82.0496607316
 11
207.9409258467
 21
82.0496607316
  0
LINE
  5
42F
100
AcDbEntity
  8
0
100
AcDbLine
 62
7
  6
CONTINUOUS
 10
213.7742602926
 20
82.0496607316
 11
221.2117602926
 21
82.0496607316
  0
LINE
  5
430
100
AcDbEntity
  8
0
100
AcDbLine
 62
7
  6
CONTINUOUS
 10
167.9825936955
 20
82.6621557276
 11
169.1492602926
 21
82.6621557276
  0
LINE
  5
431
100
AcDbEntity
  8
0
100
AcDbLine
 62
7
  6
CONTINUOUS
 10
172.6492602926
 20
82.6621557276
 11
173.5242602926
 21
82.6621557276
  0
LINE
  5
432
100
AcDbEntity
  8
0
100
AcDbLine
 62
7
  6
CONTINUOUS
 10
181.5450930697
 20
82.6621557276
 11
182.4200930697
 21
82.6621557276
  0
LINE
  5
433
100
AcDbEntity
  8
0
100
AcDbLine
 62
7
  6
CONTINUOUS
 10
185.9200930697
 20
82.6621557276
 11
186.7950930697
 21
82.6621557276
  0
LINE
  5
434
100
AcDbEntity
  8
0
100
AcDbLine
 62
7
  6
CONTINUOUS
 10
187.9617602926
 20
82.6621557276
 11
193.2117602926
 21
82.6621557276
  0
LINE
  5
435
100
AcDbEntity
  8
0
100
AcDbLine
 62
7
  6
CONTINUOUS
 10
194.3784258467
 20
82.6621557276
 11
195.2534258467
 21
82.6621557276
  0
LINE
  5
436
100
AcDbEntity
  8
0
100
AcDbLine
 62
7
  6
CONTINUOUS
 10
199.3367602926
 20
82.6621557276
 11
200.2117602926
 21
82.6621557276
  0
LINE
  5
437
100
AcDbEntity
  8
0
100
AcDbLine
 62
7
  6
CONTINUOUS
 10
203.4200947386
 20
82.6621557276
 11
204.5867602926
 21
82.6621557276
  0
LINE
  5
438
100
AcDbEntity
  8
0
100
AcDbLine
 62
7
  6
CONTINUOUS
 10
207.9409258467
 20
82.6621557276
 11
208.8159258467
 21
82.6621557276
  0
LINE
  5
439
100
AcDbEntity
  8
0
100
AcDbLine
 62
7
  6
CONTINUOUS
 10
212.8992602926
 20
82.6621557276
 11
213.7742602926
 21
82.6621557276
  0
LINE
  5
43A
100
AcDbEntity
  8
0
100
AcDbLine
 62
7
  6
CONTINUOUS
 10
179.2117602926
 20
82.8106320182
 11
181.5450930697
 21
82.8106320182
  0
LINE
  5
43B
100
AcDbEntity
  8
0
100
AcDbLine
 62
7
  6
CONTINUOUS
 10
182.4200930697
 20
82.8106320182
 11
184.7534275156
 21
82.8106320182
  0
LINE
  5
43C
100
AcDbEntity
  8
0
100
AcDbLine
 62
7
  6
CONTINUOUS
 10
204.5867602926
 20
82.8359448972
 11
203.4200947386
 21
82.8359448972
  0
LINE
  5
43D
100
AcDbEntity
  8
0
100
AcDbLine
 62
7
  6
CONTINUOUS
 10
193.2117602926
 20
82.8359448972
 11
188.8367602926
 21
82.8359448972
  0
LINE
  5
43E
100
AcDbEntity
  8
0
100
AcDbLine
 62
7
  6
CONTINUOUS
 10
169.1492602926
 20
82.8359448972
 11
167.9825936955
 21
82.8359448972
  0
LINE
  5
43F
100
AcDbEntity
  8
0
100
AcDbLine
 62
7
  6
CONTINUOUS
 10
195.8367602926
 20
82.957722611
 11
198.7534258467
 21
82.957722611
  0
LINE
  5
440
100
AcDbEntity
  8
0
100
AcDbLine
 62
7
  6
CONTINUOUS
 10
202.2534258467
 20
82.9730534708
 11
201.3784258467
 21
82.9730534708
  0
LINE
  5
441
100
AcDbEntity
  8
0
100
AcDbLine
 62
7
  6
CONTINUOUS
 10
198.6075947386
 20
83.0106213324
 11
195.9825947386
 21
83.0106213324
  0
LINE
  5
442
100
AcDbEntity
  8
0
100
AcDbLine
 62
7
  6
CONTINUOUS
 10
173.5242602926
 20
83.0453277274
 11
176.1492602926
 21
83.0453277274
  0
LINE
  5
443
100
AcDbEntity
  8
0
100
AcDbLine
 62
7
  6
CONTINUOUS
 10
203.7117602926
 20
83.0453277274
 11
204.5867602926
 21
83.0453277274
  0
LINE
  5
444
100
AcDbEntity
  8
0
100
AcDbLine
 62
7
  6
CONTINUOUS
 10
165.6492602926
 20
83.0496607316
 11
166.5242602926
 21
83.0496607316
  0
LINE
  5
445
100
AcDbEntity
  8
0
100
AcDbLine
 62
7
  6
CONTINUOUS
 10
170.6075934869
 20
83.0496607316
 11
171.4825934869
 21
83.0496607316
  0
LINE
  5
446
100
AcDbEntity
  8
0
100
AcDbLine
 62
7
  6
CONTINUOUS
 10
172.6492602926
 20
83.0496607316
 11
173.5242602926
 21
83.0496607316
  0
LINE
  5
447
100
AcDbEntity
  8
0
100
AcDbLine
 62
7
  6
CONTINUOUS
 10
181.5450930697
 20
83.0496607316
 11
182.4200930697
 21
83.0496607316
  0
LINE
  5
448
100
AcDbEntity
  8
0
100
AcDbLine
 62
7
  6
CONTINUOUS
 10
185.9200930697
 20
83.0496607316
 11
186.7950930697
 21
83.0496607316
  0
LINE
  5
449
100
AcDbEntity
  8
0
100
AcDbLine
 62
7
  6
CONTINUOUS
 10
187.9617602926
 20
83.0496607316
 11
188.8367602926
 21
83.0496607316
  0
LINE
  5
44A
100
AcDbEntity
  8
0
100
AcDbLine
 62
7
  6
CONTINUOUS
 10
195.5450930697
 20
83.0496607316
 11
196.3472263914
 21
83.0496607316
  0
LINE
  5
44B
100
AcDbEntity
  8
0
100
AcDbLine
 62
7
  6
CONTINUOUS
 10
198.2429630858
 20
83.0496607316
 11
199.0450930697
 21
83.0496607316
  0
LINE
  5
44C
100
AcDbEntity
  8
0
100
AcDbLine
 62
7
  6
CONTINUOUS
 10
205.1700947386
 20
83.0496607316
 11
205.9721768055
 21
83.0496607316
  0
LINE
  5
44D
100
AcDbEntity
  8
0
100
AcDbLine
 62
7
  6
CONTINUOUS
 10
207.9409258467
 20
83.0496607316
 11
213.7742602926
 21
83.0496607316
  0
LINE
  5
44E
100
AcDbEntity
  8
0
100
AcDbLine
 62
7
  6
CONTINUOUS
 10
212.8992602926
 20
81.6356128774
 11
212.8992602926
 21
83.0481009853
  0
LINE
  5
44F
100
AcDbEntity
  8
0
100
AcDbLine
 62
7
  6
CONTINUOUS
 10
213.7742602926
 20
81.6356128774
 11
213.7742602926
 21
83.0496607316
  0
LINE
  5
450
100
AcDbEntity
  8
0
100
AcDbLine
 62
7
  6
CONTINUOUS
 10
141.7117602926
 20
92.0496607316
 11
153.2117602926
 21
92.0496607316
  0
LINE
  5
451
100
AcDbEntity
  8
0
100
AcDbLine
 62
7
  6
CONTINUOUS
 10
226.2117602926
 20
92.0496607316
 11
237.7117602926
 21
92.0496607316
  0
LINE
  5
452
100
AcDbEntity
  8
RUNDUNGEN
100
AcDbLine
 62
7
  6
CONTINUOUS
 10
223.7117602926
 20
70.8604147131
 11
223.7117602926
 21
89.5495477247
  0
LINE
  5
453
100
AcDbEntity
  8
RUNDUNGEN
100
AcDbLine
 62
7
  6
CONTINUOUS
 10
241.7117602926
 20
41.0496607316
 11
241.7117602926
 21
60.9485370618
  0
LINE
  5
454
100
AcDbEntity
  8
0
100
AcDbLine
 62
7
  6
CONTINUOUS
 10
241.7117602926
 20
60.9485370618
 11
241.7117602926
 21
74.4086445802
  0
LINE
  5
455
100
AcDbEntity
  8
RUNDUNGEN
100
AcDbLine
 62
7
  6
CONTINUOUS
 10
121.7117602926
 20
339.28318827
 11
121.7117602926
 21
356.2831882619
  0
LINE
  5
456
100
AcDbEntity
  8
RUNDUNGEN
100
AcDbLine
 62
7
  6
CONTINUOUS
 10
137.7117602926
 20
375.2831882619
 11
137.7117602926
 21
328.2832043422
  0
LINE
  5
457
100
AcDbEntity
  8
RUNDUNGEN
100
AcDbLine
 62
7
  6
CONTINUOUS
 10
155.7117602926
 20
375.5409799118
 11
155.7117602926
 21
326.7833012689
  0
LINE
  5
458
100
AcDbEntity
  8
RUNDUNGEN
100
AcDbLine
 62
7
  6
CONTINUOUS
 10
159.7117602926
 20
378.2831882619
 11
159.7117602926
 21
377.2831882619
  0
LINE
  5
459
100
AcDbEntity
  8
0
100
AcDbLine
 62
7
  6
CONTINUOUS
 10
164.7117602926
 20
376.2831882619
 11
164.7117602926
 21
376.7831882619
  0
LINE
  5
45A
100
AcDbEntity
  8
0
100
AcDbLine
 62
7
  6
CONTINUOUS
 10
141.7117602926
 20
324.2831882619
 11
153.2117602926
 21
324.2831882619
  0
LINE
  5
45B
100
AcDbEntity
  8
0
100
AcDbLine
 62
7
  6
CONTINUOUS
 10
226.2117602926
 20
324.2831882619
 11
237.7117602926
 21
324.2831882619
  0
LINE
  5
45C
100
AcDbEntity
  8
0
100
AcDbLine
 62
7
  6
CONTINUOUS
 10
165.6492602926
 20
334.3248372911
 11
165.6492602926
 21
333.2831900289
  0
LINE
  5
45D
100
AcDbEntity
  8
0
100
AcDbLine
 62
7
  6
CONTINUOUS
 10
165.7950936303
 20
334.3991678218
 11
165.7950936303
 21
333.3918678492
  0
LINE
  5
45E
100
AcDbEntity
  8
0
100
AcDbLine
 62
7
  6
CONTINUOUS
 10
166.0867602926
 20
334.4858589565
 11
166.0867602926
 21
333.4730347341
  0
LINE
  5
45F
100
AcDbEntity
  8
0
100
AcDbLine
 62
7
  6
CONTINUOUS
 10
166.5242602926
 20
333.2831900289
 11
166.5242602926
 21
333.3222276465
  0
LINE
  5
460
100
AcDbEntity
  8
0
100
AcDbLine
 62
7
  6
CONTINUOUS
 10
166.6700935912
 20
334.5972078246
 11
166.6700935912
 21
333.5772014606
  0
LINE
  5
461
100
AcDbEntity
  8
0
100
AcDbLine
 62
7
  6
CONTINUOUS
 10
167.2534269941
 20
334.6623000847
 11
167.2534269941
 21
333.6380493654
  0
LINE
  5
462
100
AcDbEntity
  8
0
100
AcDbLine
 62
7
  6
CONTINUOUS
 10
167.9825936955
 20
334.6972361161
 11
167.9825936955
 21
333.6706932659
  0
LINE
  5
463
100
AcDbEntity
  8
0
100
AcDbLine
 62
7
  6
CONTINUOUS
 10
168.0867602926
 20
376.2831882619
 11
168.0867602926
 21
376.7831882619
  0
LINE
  5
464
100
AcDbEntity
  8
0
100
AcDbLine
 62
7
  6
CONTINUOUS
 10
168.2742603821
 20
376.2831882619
 11
168.2742603821
 21
376.7831882619
  0
LINE
  5
465
100
AcDbEntity
  8
0
100
AcDbLine
 62
7
  6
CONTINUOUS
 10
168.8367603821
 20
376.2831882619
 11
168.8367603821
 21
376.7831882619
  0
LINE
  5
466
100
AcDbEntity
  8
0
100
AcDbLine
 62
7
  6
CONTINUOUS
 10
168.9305102926
 20
376.2831882619
 11
168.9305102926
 21
376.7831882619
  0
LINE
  5
467
100
AcDbEntity
  8
0
100
AcDbLine
 62
7
  6
CONTINUOUS
 10
169.1180103821
 20
376.2831882619
 11
169.1180103821
 21
376.7831882619
  0
LINE
  5
468
100
AcDbEntity
  8
0
100
AcDbLine
 62
7
  6
CONTINUOUS
 10
169.1492602926
 20
334.6972361161
 11
169.1492602926
 21
333.6706932659
  0
LINE
  5
469
100
AcDbEntity
  8
0
100
AcDbLine
 62
7
  6
CONTINUOUS
 10
169.4930102926
 20
376.2831882619
 11
169.4930102926
 21
376.7831882619
  0
LINE
  5
46A
100
AcDbEntity
  8
0
100
AcDbLine
 62
7
  6
CONTINUOUS
 10
169.8680104715
 20
376.2831882619
 11
169.8680104715
 21
376.7831882619
  0
LINE
  5
46B
100
AcDbEntity
  8
0
100
AcDbLine
 62
7
  6
CONTINUOUS
 10
169.8784270984
 20
334.6623000847
 11
169.8784270984
 21
333.6380493654
  0
LINE
  5
46C
100
AcDbEntity
  8
0
100
AcDbLine
 62
7
  6
CONTINUOUS
 10
170.3367602926
 20
376.2831882619
 11
170.3367602926
 21
376.7831882619
  0
LINE
  5
46D
100
AcDbEntity
  8
0
100
AcDbLine
 62
7
  6
CONTINUOUS
 10
170.4617602926
 20
334.5972078246
 11
170.4617602926
 21
333.5772014606
  0
LINE
  5
46E
100
AcDbEntity
  8
0
100
AcDbLine
 62
7
  6
CONTINUOUS
 10
170.6075934869
 20
333.3222276465
 11
170.6075934869
 21
333.2831900289
  0
LINE
  5
46F
100
AcDbEntity
  8
0
100
AcDbLine
 62
7
  6
CONTINUOUS
 10
171.0450934869
 20
334.4858589565
 11
171.0450934869
 21
333.4730347341
  0
LINE
  5
470
100
AcDbEntity
  8
0
100
AcDbLine
 62
7
  6
CONTINUOUS
 10
171.1805102926
 20
376.2831882619
 11
171.1805102926
 21
376.7831882619
  0
LINE
  5
471
100
AcDbEntity
  8
0
100
AcDbLine
 62
7
  6
CONTINUOUS
 10
171.3367602926
 20
334.3991678218
 11
171.3367602926
 21
333.3918678492
  0
LINE
  5
472
100
AcDbEntity
  8
0
100
AcDbLine
 62
7
  6
CONTINUOUS
 10
171.4825934869
 20
333.2831900289
 11
171.4825934869
 21
334.3248372911
  0
LINE
  5
473
100
AcDbEntity
  8
0
100
AcDbLine
 62
7
  6
CONTINUOUS
 10
171.6492601138
 20
376.2831882619
 11
171.6492601138
 21
376.7831882619
  0
LINE
  5
474
100
AcDbEntity
  8
0
100
AcDbLine
 62
7
  6
CONTINUOUS
 10
172.0242602926
 20
376.2831882619
 11
172.0242602926
 21
376.7831882619
  0
LINE
  5
475
100
AcDbEntity
  8
0
100
AcDbLine
 62
7
  6
CONTINUOUS
 10
172.3992604715
 20
376.2831882619
 11
172.3992604715
 21
376.7831882619
  0
LINE
  5
476
100
AcDbEntity
  8
0
100
AcDbLine
 62
7
  6
CONTINUOUS
 10
172.4930101138
 20
376.2831882619
 11
172.4930101138
 21
376.7831882619
  0
LINE
  5
477
100
AcDbEntity
  8
0
100
AcDbLine
 62
7
  6
CONTINUOUS
 10
172.6492602926
 20
334.6972361161
 11
172.6492602926
 21
333.2831882619
  0
LINE
  5
478
100
AcDbEntity
  8
0
100
AcDbLine
 62
7
  6
CONTINUOUS
 10
173.1492602926
 20
376.2831882619
 11
173.1492602926
 21
376.7831882619
  0
LINE
  5
479
100
AcDbEntity
  8
0
100
AcDbLine
 62
7
  6
CONTINUOUS
 10
173.5242602926
 20
333.2916820547
 11
173.5242602926
 21
333.5222169753
  0
LINE
  5
47A
100
AcDbEntity
  8
0
100
AcDbLine
 62
7
  6
CONTINUOUS
 10
165.6492602926
 20
333.2831882619
 11
166.5242602926
 21
333.2831882619
  0
LINE
  5
47B
100
AcDbEntity
  8
0
100
AcDbLine
 62
7
  6
CONTINUOUS
 10
170.6075934869
 20
333.2831882619
 11
171.4825934869
 21
333.2831882619
  0
LINE
  5
47C
100
AcDbEntity
  8
0
100
AcDbLine
 62
7
  6
CONTINUOUS
 10
172.6492602926
 20
333.2831882619
 11
173.5242602926
 21
333.2831882619
  0
LINE
  5
47D
100
AcDbEntity
  8
0
100
AcDbLine
 62
7
  6
CONTINUOUS
 10
176.2950939041
 20
333.2831882619
 11
177.1700934869
 21
333.2831882619
  0
LINE
  5
47E
100
AcDbEntity
  8
0
100
AcDbLine
 62
7
  6
CONTINUOUS
 10
181.5450930697
 20
333.2831882619
 11
182.4200930697
 21
333.2831882619
  0
LINE
  5
47F
100
AcDbEntity
  8
0
100
AcDbLine
 62
7
  6
CONTINUOUS
 10
185.9200930697
 20
333.2831882619
 11
186.7950930697
 21
333.2831882619
  0
LINE
  5
480
100
AcDbEntity
  8
0
100
AcDbLine
 62
7
  6
CONTINUOUS
 10
187.9617602926
 20
333.2831882619
 11
188.8367602926
 21
333.2831882619
  0
LINE
  5
481
100
AcDbEntity
  8
0
100
AcDbLine
 62
7
  6
CONTINUOUS
 10
195.5450930697
 20
333.2831882619
 11
196.3472263914
 21
333.2831882619
  0
LINE
  5
482
100
AcDbEntity
  8
0
100
AcDbLine
 62
7
  6
CONTINUOUS
 10
198.2429630858
 20
333.2831882619
 11
199.0450930697
 21
333.2831882619
  0
LINE
  5
483
100
AcDbEntity
  8
0
100
AcDbLine
 62
7
  6
CONTINUOUS
 10
202.6909276326
 20
333.2831882619
 11
203.7117602926
 21
333.2831882619
  0
LINE
  5
484
100
AcDbEntity
  8
0
100
AcDbLine
 62
7
  6
CONTINUOUS
 10
207.9409258467
 20
333.2831882619
 11
213.7742602926
 21
333.2831882619
  0
LINE
  5
485
100
AcDbEntity
  8
0
100
AcDbLine
 62
7
  6
CONTINUOUS
 10
204.5867602926
 20
333.2916820547
 11
203.7117602926
 21
333.2916820547
  0
LINE
  5
486
100
AcDbEntity
  8
0
100
AcDbLine
 62
7
  6
CONTINUOUS
 10
176.2950939041
 20
333.2916820547
 11
173.5242602926
 21
333.2916820547
  0
LINE
  5
487
100
AcDbEntity
  8
0
100
AcDbLine
 62
7
  6
CONTINUOUS
 10
212.8992602926
 20
333.2972314574
 11
208.8159258467
 21
333.2972314574
  0
LINE
  5
488
100
AcDbEntity
  8
0
100
AcDbLine
 62
7
  6
CONTINUOUS
 10
197.8915308141
 20
333.3222276611
 11
196.6986586662
 21
333.3222276611
  0
LINE
  5
489
100
AcDbEntity
  8
0
100
AcDbLine
 62
7
  6
CONTINUOUS
 10
201.8159258467
 20
333.3597955227
 11
201.3784258467
 21
333.3597955227
  0
LINE
  5
48A
100
AcDbEntity
  8
0
100
AcDbLine
 62
7
  6
CONTINUOUS
 10
205.4617602926
 20
333.3918678492
 11
206.3367602926
 21
333.3918678492
  0
LINE
  5
48B
100
AcDbEntity
  8
0
100
AcDbLine
 62
7
  6
CONTINUOUS
 10
193.2117602926
 20
333.4969040963
 11
188.8367602926
 21
333.4969040963
  0
LINE
  5
48C
100
AcDbEntity
  8
0
100
AcDbLine
 62
7
  6
CONTINUOUS
 10
167.9825936955
 20
333.4969041135
 11
169.1492602926
 21
333.4969041135
  0
LINE
  5
48D
100
AcDbEntity
  8
0
100
AcDbLine
 62
7
  6
CONTINUOUS
 10
203.7117602926
 20
333.4969041135
 11
204.5867602926
 21
333.4969041135
  0
LINE
  5
48E
100
AcDbEntity
  8
0
100
AcDbLine
 62
7
  6
CONTINUOUS
 10
173.5242602926
 20
333.5222169753
 11
176.2950939041
 21
333.5222169753
  0
LINE
  5
48F
100
AcDbEntity
  8
0
100
AcDbLine
 62
7
  6
CONTINUOUS
 10
179.2117602926
 20
333.5222169753
 11
181.5450930697
 21
333.5222169753
  0
LINE
  5
490
100
AcDbEntity
  8
0
100
AcDbLine
 62
7
  6
CONTINUOUS
 10
182.4200930697
 20
333.5222169753
 11
184.7534275156
 21
333.5222169753
  0
LINE
  5
491
100
AcDbEntity
  8
0
100
AcDbLine
 62
7
  6
CONTINUOUS
 10
213.7742602926
 20
333.6706932659
 11
212.8992602926
 21
333.6706932659
  0
LINE
  5
492
100
AcDbEntity
  8
0
100
AcDbLine
 62
7
  6
CONTINUOUS
 10
208.8159258467
 20
333.6706932659
 11
207.9409258467
 21
333.6706932659
  0
LINE
  5
493
100
AcDbEntity
  8
0
100
AcDbLine
 62
7
  6
CONTINUOUS
 10
204.4409258467
 20
333.6706932659
 11
203.7117602926
 21
333.6706932659
  0
LINE
  5
494
100
AcDbEntity
  8
0
100
AcDbLine
 62
7
  6
CONTINUOUS
 10
197.8784258467
 20
333.6706932659
 11
196.7117602926
 21
333.6706932659
  0
LINE
  5
495
100
AcDbEntity
  8
0
100
AcDbLine
 62
7
  6
CONTINUOUS
 10
188.8367602926
 20
333.6706932659
 11
187.9617602926
 21
333.6706932659
  0
LINE
  5
496
100
AcDbEntity
  8
0
100
AcDbLine
 62
7
  6
CONTINUOUS
 10
186.7950930697
 20
333.6706932659
 11
185.9200930697
 21
333.6706932659
  0
LINE
  5
497
100
AcDbEntity
  8
0
100
AcDbLine
 62
7
  6
CONTINUOUS
 10
184.7534275156
 20
333.6706932659
 11
179.2117602926
 21
333.6706932659
  0
LINE
  5
498
100
AcDbEntity
  8
0
100
AcDbLine
 62
7
  6
CONTINUOUS
 10
176.1492602926
 20
333.6706932659
 11
172.6492602926
 21
333.6706932659
  0
LINE
  5
499
100
AcDbEntity
  8
0
100
AcDbLine
 62
7
  6
CONTINUOUS
 10
169.1492602926
 20
333.6706932659
 11
167.9825936955
 21
333.6706932659
  0
LINE
  5
49A
100
AcDbEntity
  8
0
100
AcDbLine
 62
7
  6
CONTINUOUS
 10
158.2117602926
 20
334.2831882619
 11
165.6492602926
 21
334.2831882619
  0
LINE
  5
49B
100
AcDbEntity
  8
0
100
AcDbLine
 62
7
  6
CONTINUOUS
 10
171.4825934869
 20
334.2831882619
 11
172.6492602926
 21
334.2831882619
  0
LINE
  5
49C
100
AcDbEntity
  8
0
100
AcDbLine
 62
7
  6
CONTINUOUS
 10
178.0450939041
 20
334.2831882619
 11
179.2117602926
 21
334.2831882619
  0
LINE
  5
49D
100
AcDbEntity
  8
0
100
AcDbLine
 62
7
  6
CONTINUOUS
 10
184.7534275156
 20
334.2831882619
 11
185.9200930697
 21
334.2831882619
  0
LINE
  5
49E
100
AcDbEntity
  8
0
100
AcDbLine
 62
7
  6
CONTINUOUS
 10
186.7950930697
 20
334.2831882619
 11
187.9617602926
 21
334.2831882619
  0
LINE
  5
49F
100
AcDbEntity
  8
0
100
AcDbLine
 62
7
  6
CONTINUOUS
 10
188.8367602926
 20
334.2831882619
 11
195.5450930709
 21
334.2831882619
  0
LINE
  5
4A0
100
AcDbEntity
  8
0
100
AcDbLine
 62
7
  6
CONTINUOUS
 10
199.0450930684
 20
334.2831882619
 11
201.8159258467
 21
334.2831882619
  0
LINE
  5
4A1
100
AcDbEntity
  8
0
100
AcDbLine
 62
7
  6
CONTINUOUS
 10
206.3367602926
 20
334.2831882619
 11
207.9409258467
 21
334.2831882619
  0
LINE
  5
4A2
100
AcDbEntity
  8
0
100
AcDbLine
 62
7
  6
CONTINUOUS
 10
213.7742602926
 20
334.2831882619
 11
221.2117602926
 21
334.2831882619
  0
LINE
  5
4A3
100
AcDbEntity
  8
0
100
AcDbLine
 62
7
  6
CONTINUOUS
 10
208.8159258467
 20
334.2981685771
 11
212.8992602926
 21
334.2981685771
  0
LINE
  5
4A4
100
AcDbEntity
  8
0
100
AcDbLine
 62
7
  6
CONTINUOUS
 10
167.9825936955
 20
334.6972361161
 11
169.1492602926
 21
334.6972361161
  0
LINE
  5
4A5
100
AcDbEntity
  8
0
100
AcDbLine
 62
7
  6
CONTINUOUS
 10
172.6492602926
 20
334.6972361161
 11
176.1492602926
 21
334.6972361161
  0
LINE
  5
4A6
100
AcDbEntity
  8
0
100
AcDbLine
 62
7
  6
CONTINUOUS
 10
179.2117602926
 20
334.6972361161
 11
184.7534275156
 21
334.6972361161
  0
LINE
  5
4A7
100
AcDbEntity
  8
0
100
AcDbLine
 62
7
  6
CONTINUOUS
 10
185.9200930697
 20
334.6972361161
 11
186.7950930697
 21
334.6972361161
  0
LINE
  5
4A8
100
AcDbEntity
  8
0
100
AcDbLine
 62
7
  6
CONTINUOUS
 10
187.9617602926
 20
334.6972361161
 11
188.8367602926
 21
334.6972361161
  0
LINE
  5
4A9
100
AcDbEntity
  8
0
100
AcDbLine
 62
7
  6
CONTINUOUS
 10
196.7117602926
 20
334.6972361161
 11
197.8784258467
 21
334.6972361161
  0
LINE
  5
4AA
100
AcDbEntity
  8
0
100
AcDbLine
 62
7
  6
CONTINUOUS
 10
203.7117602926
 20
334.6972361161
 11
204.4409258467
 21
334.6972361161
  0
LINE
  5
4AB
100
AcDbEntity
  8
0
100
AcDbLine
 62
7
  6
CONTINUOUS
 10
207.9409258467
 20
334.6972361161
 11
208.8159258467
 21
334.6972361161
  0
LINE
  5
4AC
100
AcDbEntity
  8
0
100
AcDbLine
 62
7
  6
CONTINUOUS
 10
212.8992602926
 20
334.6972361161
 11
213.7742602926
 21
334.6972361161
  0
LINE
  5
4AD
100
AcDbEntity
  8
0
100
AcDbLine
 62
7
  6
CONTINUOUS
 10
205.9721803439
 20
333.2831883009
 11
205.8992602926
 21
333.2833615595
  0
LINE
  5
4AE
100
AcDbEntity
  8
0
100
AcDbLine
 62
7
  6
CONTINUOUS
 10
175.3992602926
 20
376.2831882619
 11
175.3992602926
 21
376.7831882619
  0
LINE
  5
4AF
100
AcDbEntity
  8
0
100
AcDbLine
 62
7
  6
CONTINUOUS
 10
175.8680106503
 20
376.2831882619
 11
175.8680106503
 21
376.7831882619
  0
LINE
  5
4B0
100
AcDbEntity
  8
0
100
AcDbLine
 62
7
  6
CONTINUOUS
 10
176.1492602926
 20
334.6972361161
 11
176.1492602926
 21
333.6706932659
  0
LINE
  5
4B1
100
AcDbEntity
  8
0
100
AcDbLine
 62
7
  6
CONTINUOUS
 10
176.2430102926
 20
376.2831882619
 11
176.2430102926
 21
376.7831882619
  0
LINE
  5
4B2
100
AcDbEntity
  8
0
100
AcDbLine
 62
7
  6
CONTINUOUS
 10
176.2950939041
 20
333.5222169753
 11
176.2950939041
 21
333.2916820547
  0
LINE
  5
4B3
100
AcDbEntity
  8
0
100
AcDbLine
 62
7
  6
CONTINUOUS
 10
176.618009935
 20
376.2831882619
 11
176.618009935
 21
376.7831882619
  0
LINE
  5
4B4
100
AcDbEntity
  8
0
100
AcDbLine
 62
7
  6
CONTINUOUS
 10
176.7325939041
 20
333.4969041135
 11
176.7325939041
 21
333.2972314574
  0
LINE
  5
4B5
100
AcDbEntity
  8
0
100
AcDbLine
 62
7
  6
CONTINUOUS
 10
176.8055102926
 20
376.2831882619
 11
176.8055102926
 21
376.7831882619
  0
LINE
  5
4B6
100
AcDbEntity
  8
0
100
AcDbLine
 62
7
  6
CONTINUOUS
 10
176.8784266812
 20
334.6623000847
 11
176.8784266812
 21
333.6380493654
  0
LINE
  5
4B7
100
AcDbEntity
  8
0
100
AcDbLine
 62
7
  6
CONTINUOUS
 10
176.899259935
 20
376.2831882619
 11
176.899259935
 21
376.7831882619
  0
LINE
  5
4B8
100
AcDbEntity
  8
0
100
AcDbLine
 62
7
  6
CONTINUOUS
 10
177.0242602926
 20
333.4506023083
 11
177.0242602926
 21
333.3125022575
  0
LINE
  5
4B9
100
AcDbEntity
  8
0
100
AcDbLine
 62
7
  6
CONTINUOUS
 10
177.1700939041
 20
333.3918678492
 11
177.1700939041
 21
333.3458711561
  0
LINE
  5
4BA
100
AcDbEntity
  8
0
100
AcDbLine
 62
7
  6
CONTINUOUS
 10
177.4617602926
 20
334.567030454
 11
177.4617602926
 21
333.548980286
  0
LINE
  5
4BB
100
AcDbEntity
  8
0
100
AcDbLine
 62
7
  6
CONTINUOUS
 10
177.743009935
 20
376.2831882619
 11
177.743009935
 21
376.7831882619
  0
LINE
  5
4BC
100
AcDbEntity
  8
0
100
AcDbLine
 62
7
  6
CONTINUOUS
 10
177.8992602926
 20
334.4618935149
 11
177.8992602926
 21
333.4506023083
  0
LINE
  5
4BD
100
AcDbEntity
  8
0
100
AcDbLine
 62
7
  6
CONTINUOUS
 10
178.0450939041
 20
333.3333496381
 11
178.0450939041
 21
334.3991678218
  0
LINE
  5
4BE
100
AcDbEntity
  8
0
100
AcDbLine
 62
7
  6
CONTINUOUS
 10
178.305509935
 20
376.2831882619
 11
178.305509935
 21
376.7831882619
  0
LINE
  5
4BF
100
AcDbEntity
  8
0
100
AcDbLine
 62
7
  6
CONTINUOUS
 10
178.868009935
 20
376.2831882619
 11
178.868009935
 21
376.7831882619
  0
LINE
  5
4C0
100
AcDbEntity
  8
0
100
AcDbLine
 62
7
  6
CONTINUOUS
 10
179.2117602926
 20
334.6972361161
 11
179.2117602926
 21
333.5222169753
  0
LINE
  5
4C1
100
AcDbEntity
  8
0
100
AcDbLine
 62
7
  6
CONTINUOUS
 10
179.6180102926
 20
376.2831882619
 11
179.6180102926
 21
376.7831882619
  0
LINE
  5
4C2
100
AcDbEntity
  8
0
100
AcDbLine
 62
7
  6
CONTINUOUS
 10
179.711759935
 20
376.2831882619
 11
179.711759935
 21
376.7831882619
  0
LINE
  5
4C3
100
AcDbEntity
  8
0
100
AcDbLine
 62
7
  6
CONTINUOUS
 10
179.8055106503
 20
376.2831882619
 11
179.8055106503
 21
376.7831882619
  0
LINE
  5
4C4
100
AcDbEntity
  8
0
100
AcDbLine
 62
7
  6
CONTINUOUS
 10
179.993009935
 20
376.2831882619
 11
179.993009935
 21
376.7831882619
  0
LINE
  5
4C5
100
AcDbEntity
  8
0
100
AcDbLine
 62
7
  6
CONTINUOUS
 10
136.7117602926
 20
338.2831882619
 11
122.7117602926
 21
338.2831882619
  0
LINE
  5
4C6
100
AcDbEntity
  8
RUNDUNGEN
100
AcDbLine
 62
7
  6
CONTINUOUS
 10
239.691350004
 20
338.2831882619
 11
254.7721635049
 21
338.2831882619
  0
LINE
  5
4C7
100
AcDbEntity
  8
0
100
AcDbLine
 62
7
  6
CONTINUOUS
 10
239.691350004
 20
338.2831882619
 11
254.7721635049
 21
338.2831882619
  0
LINE
  5
4C8
100
AcDbEntity
  8
0
100
AcDbLine
 62
7
  6
CONTINUOUS
 10
180.274259935
 20
376.2831882619
 11
180.274259935
 21
376.7831882619
  0
LINE
  5
4C9
100
AcDbEntity
  8
0
100
AcDbLine
 62
7
  6
CONTINUOUS
 10
180.7430102926
 20
376.2831882619
 11
180.7430102926
 21
376.7831882619
  0
LINE
  5
4CA
100
AcDbEntity
  8
0
100
AcDbLine
 62
7
  6
CONTINUOUS
 10
181.3055102926
 20
376.2831882619
 11
181.3055102926
 21
376.7831882619
  0
LINE
  5
4CB
100
AcDbEntity
  8
0
100
AcDbLine
 62
7
  6
CONTINUOUS
 10
181.5450930697
 20
333.5222169753
 11
181.5450930697
 21
333.2832728607
  0
LINE
  5
4CC
100
AcDbEntity
  8
0
100
AcDbLine
 62
7
  6
CONTINUOUS
 10
181.8680102926
 20
376.2831882619
 11
181.8680102926
 21
376.7831882619
  0
LINE
  5
4CD
100
AcDbEntity
  8
0
100
AcDbLine
 62
7
  6
CONTINUOUS
 10
182.3367606503
 20
376.2831882619
 11
182.3367606503
 21
376.7831882619
  0
LINE
  5
4CE
100
AcDbEntity
  8
0
100
AcDbLine
 62
7
  6
CONTINUOUS
 10
182.4200930697
 20
333.2832728607
 11
182.4200930697
 21
333.5222169753
  0
LINE
  5
4CF
100
AcDbEntity
  8
0
100
AcDbLine
 62
7
  6
CONTINUOUS
 10
182.6180106503
 20
376.2831882619
 11
182.6180106503
 21
376.7831882619
  0
LINE
  5
4D0
100
AcDbEntity
  8
0
100
AcDbLine
 62
7
  6
CONTINUOUS
 10
182.8055110079
 20
376.2831882619
 11
182.8055110079
 21
376.7831882619
  0
LINE
  5
4D1
100
AcDbEntity
  8
0
100
AcDbLine
 62
7
  6
CONTINUOUS
 10
182.8992595774
 20
376.2831882619
 11
182.8992595774
 21
376.7831882619
  0
LINE
  5
4D2
100
AcDbEntity
  8
0
100
AcDbLine
 62
7
  6
CONTINUOUS
 10
182.9930102926
 20
376.2831882619
 11
182.9930102926
 21
376.7831882619
  0
LINE
  5
4D3
100
AcDbEntity
  8
0
100
AcDbLine
 62
7
  6
CONTINUOUS
 10
183.7430095774
 20
376.2831882619
 11
183.7430095774
 21
376.7831882619
  0
LINE
  5
4D4
100
AcDbEntity
  8
0
100
AcDbLine
 62
7
  6
CONTINUOUS
 10
183.8367602926
 20
376.2831882619
 11
183.8367602926
 21
376.7831882619
  0
LINE
  5
4D5
100
AcDbEntity
  8
0
100
AcDbLine
 62
7
  6
CONTINUOUS
 10
183.9305110079
 20
376.2831882619
 11
183.9305110079
 21
376.7831882619
  0
LINE
  5
4D6
100
AcDbEntity
  8
0
100
AcDbLine
 62
7
  6
CONTINUOUS
 10
184.1180102926
 20
376.2831882619
 11
184.1180102926
 21
376.7831882619
  0
LINE
  5
4D7
100
AcDbEntity
  8
0
100
AcDbLine
 62
7
  6
CONTINUOUS
 10
184.3992602926
 20
376.2831882619
 11
184.3992602926
 21
376.7831882619
  0
LINE
  5
4D8
100
AcDbEntity
  8
0
100
AcDbLine
 62
7
  6
CONTINUOUS
 10
184.7534275156
 20
333.5222169753
 11
184.7534275156
 21
334.6972361161
  0
LINE
  5
4D9
100
AcDbEntity
  8
0
100
AcDbLine
 62
7
  6
CONTINUOUS
 10
184.8680095774
 20
376.2831882619
 11
184.8680095774
 21
376.7831882619
  0
LINE
  5
4DA
100
AcDbEntity
  8
0
100
AcDbLine
 62
7
  6
CONTINUOUS
 10
185.4305095774
 20
376.2831882619
 11
185.4305095774
 21
376.7831882619
  0
LINE
  5
4DB
100
AcDbEntity
  8
0
100
AcDbLine
 62
7
  6
CONTINUOUS
 10
185.9200930697
 20
334.6972361161
 11
185.9200930697
 21
333.2831882619
  0
LINE
  5
4DC
100
AcDbEntity
  8
0
100
AcDbLine
 62
7
  6
CONTINUOUS
 10
185.9930095774
 20
376.2831882619
 11
185.9930095774
 21
376.7831882619
  0
LINE
  5
4DD
100
AcDbEntity
  8
0
100
AcDbLine
 62
7
  6
CONTINUOUS
 10
186.4617610079
 20
376.2831882619
 11
186.4617610079
 21
376.7831882619
  0
LINE
  5
4DE
100
AcDbEntity
  8
0
100
AcDbLine
 62
7
  6
CONTINUOUS
 10
186.7430110079
 20
376.2831882619
 11
186.7430110079
 21
376.7831882619
  0
LINE
  5
4DF
100
AcDbEntity
  8
0
100
AcDbLine
 62
7
  6
CONTINUOUS
 10
186.7950930697
 20
333.2831882619
 11
186.7950930697
 21
334.6972361161
  0
LINE
  5
4E0
100
AcDbEntity
  8
0
100
AcDbLine
 62
7
  6
CONTINUOUS
 10
186.9305102926
 20
376.2831882619
 11
186.9305102926
 21
376.7831882619
  0
LINE
  5
4E1
100
AcDbEntity
  8
0
100
AcDbLine
 62
7
  6
CONTINUOUS
 10
187.0242610079
 20
376.2831882619
 11
187.0242610079
 21
376.7831882619
  0
LINE
  5
4E2
100
AcDbEntity
  8
0
100
AcDbLine
 62
7
  6
CONTINUOUS
 10
187.1180095774
 20
376.2831882619
 11
187.1180095774
 21
376.7831882619
  0
LINE
  5
4E3
100
AcDbEntity
  8
0
100
AcDbLine
 62
7
  6
CONTINUOUS
 10
187.8680110079
 20
376.2831882619
 11
187.8680110079
 21
376.7831882619
  0
LINE
  5
4E4
100
AcDbEntity
  8
0
100
AcDbLine
 62
7
  6
CONTINUOUS
 10
187.9617595774
 20
376.2831882619
 11
187.9617595774
 21
376.7831882619
  0
LINE
  5
4E5
100
AcDbEntity
  8
0
100
AcDbLine
 62
7
  6
CONTINUOUS
 10
187.9617602926
 20
334.6972361161
 11
187.9617602926
 21
333.2831882619
  0
LINE
  5
4E6
100
AcDbEntity
  8
0
100
AcDbLine
 62
7
  6
CONTINUOUS
 10
188.0555102926
 20
376.2831882619
 11
188.0555102926
 21
376.7831882619
  0
LINE
  5
4E7
100
AcDbEntity
  8
0
100
AcDbLine
 62
7
  6
CONTINUOUS
 10
188.2430095774
 20
376.2831882619
 11
188.2430095774
 21
376.7831882619
  0
LINE
  5
4E8
100
AcDbEntity
  8
0
100
AcDbLine
 62
7
  6
CONTINUOUS
 10
188.5242595774
 20
376.2831882619
 11
188.5242595774
 21
376.7831882619
  0
LINE
  5
4E9
100
AcDbEntity
  8
0
100
AcDbLine
 62
7
  6
CONTINUOUS
 10
188.8367602926
 20
333.2832537211
 11
188.8367602926
 21
334.6972361161
  0
LINE
  5
4EA
100
AcDbEntity
  8
0
100
AcDbLine
 62
7
  6
CONTINUOUS
 10
188.9930110079
 20
376.2831882619
 11
188.9930110079
 21
376.7831882619
  0
LINE
  5
4EB
100
AcDbEntity
  8
0
100
AcDbLine
 62
7
  6
CONTINUOUS
 10
189.5555110079
 20
376.2831882619
 11
189.5555110079
 21
376.7831882619
  0
LINE
  5
4EC
100
AcDbEntity
  8
RUNDUNGEN
100
AcDbLine
 62
7
  6
CONTINUOUS
 10
189.7117602926
 20
367.6419053622
 11
189.7117602926
 21
369.2831882619
  0
LINE
  5
4ED
100
AcDbEntity
  8
0
100
AcDbLine
 62
7
  6
CONTINUOUS
 10
190.1180110079
 20
376.2831882619
 11
190.1180110079
 21
376.7831882619
  0
LINE
  5
4EE
100
AcDbEntity
  8
0
100
AcDbLine
 62
7
  6
CONTINUOUS
 10
190.5867602926
 20
376.2831882619
 11
190.5867602926
 21
376.7831882619
  0
LINE
  5
4EF
100
AcDbEntity
  8
0
100
AcDbLine
 62
7
  6
CONTINUOUS
 10
190.8680102926
 20
376.2831882619
 11
190.8680102926
 21
376.7831882619
  0
LINE
  5
4F0
100
AcDbEntity
  8
0
100
AcDbLine
 62
7
  6
CONTINUOUS
 10
191.0555095774
 20
376.2831882619
 11
191.0555095774
 21
376.7831882619
  0
LINE
  5
4F1
100
AcDbEntity
  8
0
100
AcDbLine
 62
7
  6
CONTINUOUS
 10
191.1492602926
 20
376.2831882619
 11
191.1492602926
 21
376.7831882619
  0
LINE
  5
4F2
100
AcDbEntity
  8
0
100
AcDbLine
 62
7
  6
CONTINUOUS
 10
191.2430110079
 20
376.2831882619
 11
191.2430110079
 21
376.7831882619
  0
LINE
  5
4F3
100
AcDbEntity
  8
0
100
AcDbLine
 62
7
  6
CONTINUOUS
 10
191.9930102926
 20
376.2831882619
 11
191.9930102926
 21
376.7831882619
  0
LINE
  5
4F4
100
AcDbEntity
  8
0
100
AcDbLine
 62
7
  6
CONTINUOUS
 10
192.0867610079
 20
376.2831882619
 11
192.0867610079
 21
376.7831882619
  0
LINE
  5
4F5
100
AcDbEntity
  8
0
100
AcDbLine
 62
7
  6
CONTINUOUS
 10
192.1805095774
 20
376.2831882619
 11
192.1805095774
 21
376.7831882619
  0
LINE
  5
4F6
100
AcDbEntity
  8
0
100
AcDbLine
 62
7
  6
CONTINUOUS
 10
192.3680110079
 20
376.2831882619
 11
192.3680110079
 21
376.7831882619
  0
LINE
  5
4F7
100
AcDbEntity
  8
0
100
AcDbLine
 62
7
  6
CONTINUOUS
 10
192.6492610079
 20
376.2831882619
 11
192.6492610079
 21
376.7831882619
  0
LINE
  5
4F8
100
AcDbEntity
  8
0
100
AcDbLine
 62
7
  6
CONTINUOUS
 10
193.1180102926
 20
376.2831882619
 11
193.1180102926
 21
376.7831882619
  0
LINE
  5
4F9
100
AcDbEntity
  8
0
100
AcDbLine
 62
7
  6
CONTINUOUS
 10
193.2117602926
 20
334.2831882619
 11
193.2117602926
 21
333.4969040963
  0
LINE
  5
4FA
100
AcDbEntity
  8
0
100
AcDbLine
 62
7
  6
CONTINUOUS
 10
193.6805102926
 20
376.2831882619
 11
193.6805102926
 21
376.7831882619
  0
LINE
  5
4FB
100
AcDbEntity
  8
0
100
AcDbLine
 62
7
  6
CONTINUOUS
 10
194.2430102926
 20
376.2831882619
 11
194.2430102926
 21
376.7831882619
  0
LINE
  5
4FC
100
AcDbEntity
  8
0
100
AcDbLine
 62
7
  6
CONTINUOUS
 10
194.3784258467
 20
334.2831882619
 11
194.3784258467
 21
333.6706932659
  0
LINE
  5
4FD
100
AcDbEntity
  8
0
100
AcDbLine
 62
7
  6
CONTINUOUS
 10
194.7117595774
 20
376.2831882619
 11
194.7117595774
 21
376.7831882619
  0
LINE
  5
4FE
100
AcDbEntity
  8
RUNDUNGEN
100
AcDbLine
 62
7
  6
CONTINUOUS
 10
122.7117602926
 20
357.2831882619
 11
136.7117602926
 21
357.2831882619
  0
LINE
  5
4FF
100
AcDbEntity
  8
0
100
AcDbLine
 62
7
  6
CONTINUOUS
 10
241.7117602926
 20
357.2831882619
 11
256.1034030157
 21
357.2831882619
  0
LINE
  5
500
100
AcDbEntity
  8
0
100
AcDbLine
 62
7
  6
CONTINUOUS
 10
194.9930095774
 20
376.2831882619
 11
194.9930095774
 21
376.7831882619
  0
LINE
  5
501
100
AcDbEntity
  8
0
100
AcDbLine
 62
7
  6
CONTINUOUS
 10
195.1805110079
 20
376.2831882619
 11
195.1805110079
 21
376.7831882619
  0
LINE
  5
502
100
AcDbEntity
  8
0
100
AcDbLine
 62
7
  6
CONTINUOUS
 10
195.2742595774
 20
376.2831882619
 11
195.2742595774
 21
376.7831882619
  0
LINE
  5
503
100
AcDbEntity
  8
0
100
AcDbLine
 62
7
  6
CONTINUOUS
 10
195.3680102926
 20
376.2831882619
 11
195.3680102926
 21
376.7831882619
  0
LINE
  5
504
100
AcDbEntity
  8
0
100
AcDbLine
 62
7
  6
CONTINUOUS
 10
196.1180095774
 20
376.2831882619
 11
196.1180095774
 21
376.7831882619
  0
LINE
  5
505
100
AcDbEntity
  8
0
100
AcDbLine
 62
7
  6
CONTINUOUS
 10
196.2117602926
 20
376.2831882619
 11
196.2117602926
 21
376.7831882619
  0
LINE
  5
506
100
AcDbEntity
  8
0
100
AcDbLine
 62
7
  6
CONTINUOUS
 10
196.3055110079
 20
376.2831882619
 11
196.3055110079
 21
376.7831882619
  0
LINE
  5
507
100
AcDbEntity
  8
0
100
AcDbLine
 62
7
  6
CONTINUOUS
 10
196.5867610079
 20
376.2831882619
 11
196.5867610079
 21
376.7831882619
  0
LINE
  5
508
100
AcDbEntity
  8
0
100
AcDbLine
 62
7
  6
CONTINUOUS
 10
196.7117602926
 20
334.6972361161
 11
196.7117602926
 21
333.6706932659
  0
LINE
  5
509
100
AcDbEntity
  8
0
100
AcDbLine
 62
7
  6
CONTINUOUS
 10
196.8680110079
 20
376.2831882619
 11
196.8680110079
 21
376.7831882619
  0
LINE
  5
50A
100
AcDbEntity
  8
0
100
AcDbLine
 62
7
  6
CONTINUOUS
 10
197.2430095774
 20
376.2831882619
 11
197.2430095774
 21
376.7831882619
  0
LINE
  5
50B
100
AcDbEntity
  8
0
100
AcDbLine
 62
7
  6
CONTINUOUS
 10
197.8055095774
 20
376.2831882619
 11
197.8055095774
 21
376.7831882619
  0
LINE
  5
50C
100
AcDbEntity
  8
0
100
AcDbLine
 62
7
  6
CONTINUOUS
 10
197.8784258467
 20
334.6972361161
 11
197.8784258467
 21
333.6706932659
  0
LINE
  5
50D
100
AcDbEntity
  8
0
100
AcDbLine
 62
7
  6
CONTINUOUS
 10
198.1805102926
 20
376.2831882619
 11
198.1805102926
 21
376.7831882619
  0
LINE
  5
50E
100
AcDbEntity
  8
0
100
AcDbLine
 62
7
  6
CONTINUOUS
 10
198.3680095774
 20
376.2831882619
 11
198.3680095774
 21
376.7831882619
  0
LINE
  5
50F
100
AcDbEntity
  8
0
100
AcDbLine
 62
7
  6
CONTINUOUS
 10
198.5555110079
 20
376.2831882619
 11
198.5555110079
 21
376.7831882619
  0
LINE
  5
510
100
AcDbEntity
  8
0
100
AcDbLine
 62
7
  6
CONTINUOUS
 10
198.6492595774
 20
376.2831882619
 11
198.6492595774
 21
376.7831882619
  0
LINE
  5
511
100
AcDbEntity
  8
0
100
AcDbLine
 62
7
  6
CONTINUOUS
 10
199.1180110079
 20
376.2831882619
 11
199.1180110079
 21
376.7831882619
  0
LINE
  5
512
100
AcDbEntity
  8
BEZUGSACHSEN
100
AcDbLine
 62
7
  6
CONTINUOUS
 10
239.691350004
 20
360.2831882619
 11
241.7117602926
 21
360.2831882619
  0
LINE
  5
513
100
AcDbEntity
  8
0
100
AcDbLine
 62
7
  6
CONTINUOUS
 10
239.691350004
 20
360.2831882619
 11
241.7117602926
 21
360.2831882619
  0
LINE
  5
514
100
AcDbEntity
  8
0
100
AcDbLine
 62
7
  6
CONTINUOUS
 10
199.8680102926
 20
376.2831882619
 11
199.8680102926
 21
376.7831882619
  0
LINE
  5
515
100
AcDbEntity
  8
0
100
AcDbLine
 62
7
  6
CONTINUOUS
 10
199.9617610079
 20
376.2831882619
 11
199.9617610079
 21
376.7831882619
  0
LINE
  5
516
100
AcDbEntity
  8
0
100
AcDbLine
 62
7
  6
CONTINUOUS
 10
200.2117602926
 20
334.2831882619
 11
200.2117602926
 21
333.6706932659
  0
LINE
  5
517
100
AcDbEntity
  8
0
100
AcDbLine
 62
7
  6
CONTINUOUS
 10
200.2430110079
 20
376.2831882619
 11
200.2430110079
 21
376.7831882619
  0
LINE
  5
518
100
AcDbEntity
  8
0
100
AcDbLine
 62
7
  6
CONTINUOUS
 10
200.4305102926
 20
376.2831882619
 11
200.4305102926
 21
376.7831882619
  0
LINE
  5
519
100
AcDbEntity
  8
0
100
AcDbLine
 62
7
  6
CONTINUOUS
 10
200.8055088621
 20
376.2831882619
 11
200.8055088621
 21
376.7831882619
  0
LINE
  5
51A
100
AcDbEntity
  8
0
100
AcDbLine
 62
7
  6
CONTINUOUS
 10
201.3680088621
 20
376.2831882619
 11
201.3680088621
 21
376.7831882619
  0
LINE
  5
51B
100
AcDbEntity
  8
0
100
AcDbLine
 62
7
  6
CONTINUOUS
 10
201.3784258467
 20
334.2831882619
 11
201.3784258467
 21
333.3597955227
  0
LINE
  5
51C
100
AcDbEntity
  8
0
100
AcDbLine
 62
7
  6
CONTINUOUS
 10
201.8159258467
 20
334.3991678218
 11
201.8159258467
 21
333.3333496381
  0
LINE
  5
51D
100
AcDbEntity
  8
0
100
AcDbLine
 62
7
  6
CONTINUOUS
 10
201.8367602926
 20
376.2831882619
 11
201.8367602926
 21
376.7831882619
  0
LINE
  5
51E
100
AcDbEntity
  8
0
100
AcDbLine
 62
7
  6
CONTINUOUS
 10
201.9617602926
 20
334.4858589565
 11
201.9617602926
 21
333.4730347341
  0
LINE
  5
51F
100
AcDbEntity
  8
0
100
AcDbLine
 62
7
  6
CONTINUOUS
 10
202.1180102926
 20
376.2831882619
 11
202.1180102926
 21
376.7831882619
  0
LINE
  5
520
100
AcDbEntity
  8
0
100
AcDbLine
 62
7
  6
CONTINUOUS
 10
202.2117588621
 20
376.2831882619
 11
202.2117588621
 21
376.7831882619
  0
LINE
  5
521
100
AcDbEntity
  8
0
100
AcDbLine
 62
7
  6
CONTINUOUS
 10
202.3055117232
 20
376.2831882619
 11
202.3055117232
 21
376.7831882619
  0
LINE
  5
522
100
AcDbEntity
  8
0
100
AcDbLine
 62
7
  6
CONTINUOUS
 10
202.3992602926
 20
376.2831882619
 11
202.3992602926
 21
376.7831882619
  0
LINE
  5
523
100
AcDbEntity
  8
0
100
AcDbLine
 62
7
  6
CONTINUOUS
 10
202.5450947386
 20
334.5972078246
 11
202.5450947386
 21
333.5772014606
  0
LINE
  5
524
100
AcDbEntity
  8
0
100
AcDbLine
 62
7
  6
CONTINUOUS
 10
202.6909258467
 20
333.3458711561
 11
202.6909258467
 21
333.37512636
  0
LINE
  5
525
100
AcDbEntity
  8
0
100
AcDbLine
 62
7
  6
CONTINUOUS
 10
202.8367602926
 20
333.4296007365
 11
202.8367602926
 21
333.3125022575
  0
LINE
  5
526
100
AcDbEntity
  8
0
100
AcDbLine
 62
7
  6
CONTINUOUS
 10
202.8680117232
 20
376.2831882619
 11
202.8680117232
 21
376.7831882619
  0
LINE
  5
527
100
AcDbEntity
  8
0
100
AcDbLine
 62
7
  6
CONTINUOUS
 10
203.1284258467
 20
334.6623000847
 11
203.1284258467
 21
333.6380493654
  0
LINE
  5
528
100
AcDbEntity
  8
0
100
AcDbLine
 62
7
  6
CONTINUOUS
 10
203.2742602926
 20
333.4730347341
 11
203.2742602926
 21
333.2972314574
  0
LINE
  5
529
100
AcDbEntity
  8
0
100
AcDbLine
 62
7
  6
CONTINUOUS
 10
203.6180088621
 20
376.2831882619
 11
203.6180088621
 21
376.7831882619
  0
LINE
  5
52A
100
AcDbEntity
  8
0
100
AcDbLine
 62
7
  6
CONTINUOUS
 10
203.7117602926
 20
334.6972361161
 11
203.7117602926
 21
333.6706932659
  0
LINE
  5
52B
100
AcDbEntity
  8
0
100
AcDbLine
 62
7
  6
CONTINUOUS
 10
203.7117602926
 20
333.4969041135
 11
203.7117602926
 21
333.2916820547
  0
LINE
  5
52C
100
AcDbEntity
  8
0
100
AcDbLine
 62
7
  6
CONTINUOUS
 10
204.1805088621
 20
376.2831882619
 11
204.1805088621
 21
376.7831882619
  0
LINE
  5
52D
100
AcDbEntity
  8
0
100
AcDbLine
 62
7
  6
CONTINUOUS
 10
204.4409258467
 20
334.6972361161
 11
204.4409258467
 21
333.6706932659
  0
LINE
  5
52E
100
AcDbEntity
  8
0
100
AcDbLine
 62
7
  6
CONTINUOUS
 10
204.5867602926
 20
333.4969041135
 11
204.5867602926
 21
333.2916820547
  0
LINE
  5
52F
100
AcDbEntity
  8
0
100
AcDbLine
 62
7
  6
CONTINUOUS
 10
205.1700947386
 20
334.6623000847
 11
205.1700947386
 21
333.6380493654
  0
LINE
  5
530
100
AcDbEntity
  8
0
100
AcDbLine
 62
7
  6
CONTINUOUS
 10
205.3159258467
 20
333.4296007365
 11
205.3159258467
 21
333.2875212661
  0
LINE
  5
531
100
AcDbEntity
  8
0
100
AcDbLine
 62
7
  6
CONTINUOUS
 10
205.7534258467
 20
334.567030454
 11
205.7534258467
 21
333.548980286
  0
LINE
  5
532
100
AcDbEntity
  8
0
100
AcDbLine
 62
7
  6
CONTINUOUS
 10
205.8992602926
 20
333.3918678492
 11
205.8992602926
 21
333.2833615595
  0
LINE
  5
533
100
AcDbEntity
  8
0
100
AcDbLine
 62
7
  6
CONTINUOUS
 10
206.1909258467
 20
334.4618935149
 11
206.1909258467
 21
333.4506023083
  0
LINE
  5
534
100
AcDbEntity
  8
0
100
AcDbLine
 62
7
  6
CONTINUOUS
 10
206.3367602926
 20
334.3991678218
 11
206.3367602926
 21
333.3918678492
  0
LINE
  5
535
100
AcDbEntity
  8
0
100
AcDbLine
 62
7
  6
CONTINUOUS
 10
206.4825947386
 20
334.2922486391
 11
206.4825947386
 21
333.2916820547
  0
LINE
  5
536
100
AcDbEntity
  8
0
100
AcDbLine
 62
7
  6
CONTINUOUS
 10
206.5242617232
 20
376.2831882619
 11
206.5242617232
 21
376.7831882619
  0
LINE
  5
537
100
AcDbEntity
  8
0
100
AcDbLine
 62
7
  6
CONTINUOUS
 10
206.7742602926
 20
334.2831882619
 11
206.7742602926
 21
333.3222276611
  0
LINE
  5
538
100
AcDbEntity
  8
0
100
AcDbLine
 62
7
  6
CONTINUOUS
 10
207.3680117232
 20
376.2831882619
 11
207.3680117232
 21
376.7831882619
  0
LINE
  5
539
100
AcDbEntity
  8
0
100
AcDbLine
 62
7
  6
CONTINUOUS
 10
207.9409258467
 20
334.6972361161
 11
207.9409258467
 21
333.2831882619
  0
LINE
  5
53A
100
AcDbEntity
  8
BEZUGSACHSEN
100
AcDbLine
 62
7
  6
CONTINUOUS
 10
208.7117602926
 20
376.2831882619
 11
208.7117602926
 21
372.2831882619
  0
LINE
  5
53B
100
AcDbEntity
  8
0
100
AcDbLine
 62
7
  6
CONTINUOUS
 10
208.8159258467
 20
333.2972314574
 11
208.8159258467
 21
334.6972361161
  0
LINE
  5
53C
100
AcDbEntity
  8
RUNDUNGEN
100
AcDbLine
 62
7
  6
CONTINUOUS
 10
191.7117602926
 20
371.2831882619
 11
221.8115467607
 21
371.2831882619
  0
LINE
  5
53D
100
AcDbEntity
  8
BEZUGSACHSEN
100
AcDbLine
 62
7
  6
CONTINUOUS
 10
210.7117602926
 20
372.2831882619
 11
210.7117602926
 21
371.2831882619
  0
LINE
  5
53E
100
AcDbEntity
  8
0
100
AcDbLine
 62
7
  6
CONTINUOUS
 10
212.8992602926
 20
334.6972361161
 11
212.8992602926
 21
333.2972314574
  0
LINE
  5
53F
100
AcDbEntity
  8
RUNDUNGEN
100
AcDbLine
 62
7
  6
CONTINUOUS
 10
213.7117602926
 20
378.2831882619
 11
213.7117602926
 21
377.2831882619
  0
LINE
  5
540
100
AcDbEntity
  8
0
100
AcDbLine
 62
7
  6
CONTINUOUS
 10
213.7742602926
 20
333.2831882619
 11
213.7742602926
 21
334.6972361161
  0
LINE
  5
541
100
AcDbEntity
  8
BEZUGSACHSEN
100
AcDbLine
 62
7
  6
CONTINUOUS
 10
218.7117602926
 20
372.2831882619
 11
208.7117602926
 21
372.2831882619
  0
LINE
  5
542
100
AcDbEntity
  8
BEZUGSACHSEN
100
AcDbLine
 62
7
  6
CONTINUOUS
 10
218.7117602926
 20
376.2831882619
 11
208.7117602926
 21
376.2831882619
  0
LINE
  5
543
100
AcDbEntity
  8
RUNDUNGEN
100
AcDbLine
 62
7
  6
CONTINUOUS
 10
208.7117602926
 20
376.2831882619
 11
160.7117602932
 21
376.2831882619
  0
LINE
  5
544
100
AcDbEntity
  8
BEZUGSACHSEN
100
AcDbLine
 62
7
  6
CONTINUOUS
 10
216.7117602926
 20
372.2831882619
 11
216.7117602926
 21
371.2831882619
  0
LINE
  5
545
100
AcDbEntity
  8
BEZUGSACHSEN
100
AcDbLine
 62
7
  6
CONTINUOUS
 10
218.7117602926
 20
376.2831882619
 11
218.7117602926
 21
372.2831882619
  0
LINE
  5
546
100
AcDbEntity
  8
0
100
AcDbLine
 62
7
  6
CONTINUOUS
 10
164.7117602926
 20
376.7831882619
 11
168.2742603821
 21
376.7831882619
  0
LINE
  5
547
100
AcDbEntity
  8
0
100
AcDbLine
 62
7
  6
CONTINUOUS
 10
168.8367603821
 20
376.7831882619
 11
172.4930101138
 21
376.7831882619
  0
LINE
  5
548
100
AcDbEntity
  8
0
100
AcDbLine
 62
7
  6
CONTINUOUS
 10
173.1492602926
 20
376.7831882619
 11
176.899259935
 21
376.7831882619
  0
LINE
  5
549
100
AcDbEntity
  8
0
100
AcDbLine
 62
7
  6
CONTINUOUS
 10
177.743009935
 20
376.7831882619
 11
178.868009935
 21
376.7831882619
  0
LINE
  5
54A
100
AcDbEntity
  8
0
100
AcDbLine
 62
7
  6
CONTINUOUS
 10
179.6180102926
 20
376.7831882619
 11
182.9930102926
 21
376.7831882619
  0
LINE
  5
54B
100
AcDbEntity
  8
0
100
AcDbLine
 62
7
  6
CONTINUOUS
 10
183.7430095774
 20
376.7831882619
 11
187.1180095774
 21
376.7831882619
  0
LINE
  5
54C
100
AcDbEntity
  8
0
100
AcDbLine
 62
7
  6
CONTINUOUS
 10
187.8680110079
 20
376.7831882619
 11
191.2430110079
 21
376.7831882619
  0
LINE
  5
54D
100
AcDbEntity
  8
0
100
AcDbLine
 62
7
  6
CONTINUOUS
 10
191.9930102926
 20
376.7831882619
 11
195.3680102926
 21
376.7831882619
  0
LINE
  5
54E
100
AcDbEntity
  8
0
100
AcDbLine
 62
7
  6
CONTINUOUS
 10
196.1180095774
 20
376.7831882619
 11
199.1180110079
 21
376.7831882619
  0
LINE
  5
54F
100
AcDbEntity
  8
0
100
AcDbLine
 62
7
  6
CONTINUOUS
 10
199.8680102926
 20
376.7831882619
 11
202.8680117232
 21
376.7831882619
  0
LINE
  5
550
100
AcDbEntity
  8
0
100
AcDbLine
 62
7
  6
CONTINUOUS
 10
203.6180088621
 20
376.7831882619
 11
207.3680117232
 21
376.7831882619
  0
LINE
  5
551
100
AcDbEntity
  8
0
100
AcDbLine
 62
7
  6
CONTINUOUS
 10
141.7117602926
 20
379.2831882619
 11
156.1966321734
 21
379.2831882619
  0
LINE
  5
552
100
AcDbEntity
  8
RUNDUNGEN
100
AcDbLine
 62
7
  6
CONTINUOUS
 10
141.7117602926
 20
379.2831882619
 11
237.7117602926
 21
379.2831882619
  0
LINE
  5
553
100
AcDbEntity
  8
RUNDUNGEN
100
AcDbLine
 62
7
  6
CONTINUOUS
 10
223.7117602926
 20
373.2831882619
 11
223.7117602926
 21
375.5409799118
  0
LINE
  5
554
100
AcDbEntity
  8
RUNDUNGEN
100
AcDbLine
 62
7
  6
CONTINUOUS
 10
223.7117602926
 20
326.7833012689
 11
223.7117699862
 21
370.4724992004
  0
LINE
  5
555
100
AcDbEntity
  8
0
100
AcDbLine
 62
7
  6
CONTINUOUS
 10
241.7117602926
 20
357.2831882619
 11
241.7117602926
 21
375.2831882619
  0
LINE
  5
556
100
AcDbEntity
  8
0
100
AcDbLine
 62
7
  6
CONTINUOUS
 10
423.7855624969
 20
149.6643153574
 11
419.9064518948
 21
171.6638447918
  0
LINE
  5
557
100
AcDbEntity
  8
0
100
AcDbLine
 62
7
  6
CONTINUOUS
 10
534.9064098395
 20
135.6640832992
 11
523.4064098395
 21
135.6640832992
  0
LINE
  5
558
100
AcDbEntity
  8
0
100
AcDbLine
 62
7
  6
CONTINUOUS
 10
450.4064098395
 20
135.6640832992
 11
445.5838597948
 21
135.6640832992
  0
LINE
  5
559
100
AcDbEntity
  8
0
100
AcDbLine
 62
7
  6
CONTINUOUS
 10
518.4064098395
 20
145.6640832992
 11
455.4064098395
 21
145.6640832992
  0
LINE
  5
55A
100
AcDbEntity
  8
RUNDUNGEN
100
AcDbLine
 62
7
  6
CONTINUOUS
 10
434.9064098395
 20
227.7427841415
 11
434.9064098395
 21
188.4352799982
  0
LINE
  5
55B
100
AcDbEntity
  8
0
100
AcDbLine
 62
7
  6
CONTINUOUS
 10
434.9064098395
 20
188.4352799982
 11
434.9064098395
 21
180.6640832992
  0
LINE
  5
55C
100
AcDbEntity
  8
RUNDUNGEN
100
AcDbLine
 62
7
  6
CONTINUOUS
 10
434.9459355312
 20
228.6310135903
 11
434.9064098395
 21
227.7427841415
  0
LINE
  5
55D
100
AcDbEntity
  8
0
100
AcDbLine
 62
7
  6
CONTINUOUS
 10
509.2189098395
 20
158.2066363664
 11
508.6355764366
 21
158.0577002139
  0
LINE
  5
55E
100
AcDbEntity
  8
0
100
AcDbLine
 62
7
  6
CONTINUOUS
 10
508.6355764366
 20
157.1640832992
 11
509.364743138
 21
157.3130194516
  0
LINE
  5
55F
100
AcDbEntity
  8
0
100
AcDbLine
 62
7
  6
CONTINUOUS
 10
439.8327912541
 20
149.6640832992
 11
423.777636067
 21
149.6640832992
  0
LINE
  5
560
100
AcDbEntity
  8
0
100
AcDbLine
 62
7
  6
CONTINUOUS
 10
539.9064098395
 20
149.6640832992
 11
553.9064098395
 21
149.6640832992
  0
LINE
  5
561
100
AcDbEntity
  8
0
100
AcDbLine
 62
7
  6
CONTINUOUS
 10
506.8855766452
 20
163.1215301276
 11
507.4689098395
 21
163.2704662801
  0
LINE
  5
562
100
AcDbEntity
  8
0
100
AcDbLine
 62
7
  6
CONTINUOUS
 10
500.4689098395
 20
161.0364236803
 11
499.739743451
 21
160.8874875278
  0
LINE
  5
563
100
AcDbEntity
  8
0
100
AcDbLine
 62
7
  6
CONTINUOUS
 10
507.4689098395
 20
164.1640832992
 11
506.7397430337
 21
164.0151471337
  0
LINE
  5
564
100
AcDbEntity
  8
0
100
AcDbLine
 62
7
  6
CONTINUOUS
 10
462.8439098395
 20
157.1640832992
 11
463.7189098395
 21
157.1640832992
  0
LINE
  5
565
100
AcDbEntity
  8
0
100
AcDbLine
 62
7
  6
CONTINUOUS
 10
467.8022442854
 20
157.1640832992
 11
468.6772442854
 21
157.1640832992
  0
LINE
  5
566
100
AcDbEntity
  8
0
100
AcDbLine
 62
7
  6
CONTINUOUS
 10
472.1772442854
 20
157.1640832992
 11
472.9064098395
 21
157.1640832992
  0
LINE
  5
567
100
AcDbEntity
  8
0
100
AcDbLine
 62
7
  6
CONTINUOUS
 10
478.7397442854
 20
157.1640832992
 11
479.9064098395
 21
157.1640832992
  0
LINE
  5
568
100
AcDbEntity
  8
0
100
AcDbLine
 62
7
  6
CONTINUOUS
 10
487.7814098395
 20
157.1640832992
 11
488.6564098395
 21
157.1640832992
  0
LINE
  5
569
100
AcDbEntity
  8
0
100
AcDbLine
 62
7
  6
CONTINUOUS
 10
489.8230770625
 20
157.1640832992
 11
490.6980770625
 21
157.1640832992
  0
LINE
  5
56A
100
AcDbEntity
  8
0
100
AcDbLine
 62
7
  6
CONTINUOUS
 10
491.8647426165
 20
157.1640832992
 11
497.4064098395
 21
157.1640832992
  0
LINE
  5
56B
100
AcDbEntity
  8
0
100
AcDbLine
 62
7
  6
CONTINUOUS
 10
500.4689098395
 20
157.1640832992
 11
503.9689098395
 21
157.1640832992
  0
LINE
  5
56C
100
AcDbEntity
  8
0
100
AcDbLine
 62
7
  6
CONTINUOUS
 10
507.4689098395
 20
157.1640832992
 11
508.6355764366
 21
157.1640832992
  0
LINE
  5
56D
100
AcDbEntity
  8
0
100
AcDbLine
 62
7
  6
CONTINUOUS
 10
503.0939098395
 20
157.9087640614
 11
500.323076228
 21
157.9087640614
  0
LINE
  5
56E
100
AcDbEntity
  8
0
100
AcDbLine
 62
7
  6
CONTINUOUS
 10
497.4064098395
 20
157.9087640614
 11
495.0730770625
 21
157.9087640614
  0
LINE
  5
56F
100
AcDbEntity
  8
0
100
AcDbLine
 62
7
  6
CONTINUOUS
 10
494.1980770625
 20
157.9087640614
 11
491.8647426165
 21
157.9087640614
  0
LINE
  5
570
100
AcDbEntity
  8
0
100
AcDbLine
 62
7
  6
CONTINUOUS
 10
508.6355764366
 20
158.0577002139
 11
507.4689098395
 21
158.0577002139
  0
LINE
  5
571
100
AcDbEntity
  8
0
100
AcDbLine
 62
7
  6
CONTINUOUS
 10
472.9064098395
 20
158.0577002139
 11
472.0314098395
 21
158.0577002139
  0
LINE
  5
572
100
AcDbEntity
  8
0
100
AcDbLine
 62
7
  6
CONTINUOUS
 10
471.1564098395
 20
158.8023809762
 11
470.2814098395
 21
158.8023809762
  0
LINE
  5
573
100
AcDbEntity
  8
0
100
AcDbLine
 62
7
  6
CONTINUOUS
 10
463.7189098395
 20
159.9938706131
 11
467.8022442854
 21
159.9938706131
  0
LINE
  5
574
100
AcDbEntity
  8
0
100
AcDbLine
 62
7
  6
CONTINUOUS
 10
472.0314098395
 20
160.1428067655
 11
472.9064098395
 21
160.1428067655
  0
LINE
  5
575
100
AcDbEntity
  8
0
100
AcDbLine
 62
7
  6
CONTINUOUS
 10
500.323076228
 20
160.1428067655
 11
503.0939098395
 21
160.1428067655
  0
LINE
  5
576
100
AcDbEntity
  8
0
100
AcDbLine
 62
7
  6
CONTINUOUS
 10
467.8022442854
 20
160.8874875278
 11
463.7189098395
 21
160.8874875278
  0
LINE
  5
577
100
AcDbEntity
  8
0
100
AcDbLine
 62
7
  6
CONTINUOUS
 10
503.0939098395
 20
161.0364236803
 11
500.4689098395
 21
161.0364236803
  0
LINE
  5
578
100
AcDbEntity
  8
0
100
AcDbLine
 62
7
  6
CONTINUOUS
 10
472.9064098395
 20
161.0364236803
 11
472.0314098395
 21
161.0364236803
  0
LINE
  5
579
100
AcDbEntity
  8
0
100
AcDbLine
 62
7
  6
CONTINUOUS
 10
471.4480753935
 20
157.3130194516
 11
472.1772442854
 21
157.1640832992
  0
LINE
  5
57A
100
AcDbEntity
  8
0
100
AcDbLine
 62
7
  6
CONTINUOUS
 10
471.3022442854
 20
160.291742918
 11
472.0314098395
 21
160.1428067655
  0
LINE
  5
57B
100
AcDbEntity
  8
0
100
AcDbLine
 62
7
  6
CONTINUOUS
 10
499.739743451
 20
157.3130194516
 11
500.4689098395
 21
157.1640832992
  0
LINE
  5
57C
100
AcDbEntity
  8
0
100
AcDbLine
 62
7
  6
CONTINUOUS
 10
472.0314098395
 20
161.0364236803
 11
471.4480753935
 21
161.1853598328
  0
LINE
  5
57D
100
AcDbEntity
  8
0
100
AcDbLine
 62
7
  6
CONTINUOUS
 10
473.4897442854
 20
160.8874875278
 11
472.9064098395
 21
161.0364236803
  0
LINE
  5
57E
100
AcDbEntity
  8
0
100
AcDbLine
 62
7
  6
CONTINUOUS
 10
473.1980753935
 20
163.2704662801
 11
473.7814098395
 21
163.1215301276
  0
LINE
  5
57F
100
AcDbEntity
  8
0
100
AcDbLine
 62
7
  6
CONTINUOUS
 10
472.0314098395
 20
158.0577002139
 11
471.5939098395
 21
158.2066363664
  0
LINE
  5
580
100
AcDbEntity
  8
0
100
AcDbLine
 62
7
  6
CONTINUOUS
 10
472.9064098395
 20
160.1428067655
 11
473.3439098395
 21
159.9938706131
  0
LINE
  5
581
100
AcDbEntity
  8
0
100
AcDbLine
 62
7
  6
CONTINUOUS
 10
470.7189098395
 20
160.5896152229
 11
471.3022442854
 21
160.291742918
  0
LINE
  5
582
100
AcDbEntity
  8
0
100
AcDbLine
 62
7
  6
CONTINUOUS
 10
474.0730753935
 20
160.5896152229
 11
473.4897442854
 21
160.8874875278
  0
LINE
  5
583
100
AcDbEntity
  8
0
100
AcDbLine
 62
7
  6
CONTINUOUS
 10
471.4480753935
 20
161.1853598328
 11
471.0105753935
 21
161.4832321377
  0
LINE
  5
584
100
AcDbEntity
  8
0
100
AcDbLine
 62
7
  6
CONTINUOUS
 10
473.3439098395
 20
159.9938706131
 11
473.7814098395
 21
159.6959983082
  0
LINE
  5
585
100
AcDbEntity
  8
0
100
AcDbLine
 62
7
  6
CONTINUOUS
 10
470.8647442854
 20
157.759827909
 11
471.4480753935
 21
157.3130194516
  0
LINE
  5
586
100
AcDbEntity
  8
0
100
AcDbLine
 62
7
  6
CONTINUOUS
 10
471.5939098395
 20
158.2066363664
 11
471.3022442854
 21
158.5045086713
  0
LINE
  5
587
100
AcDbEntity
  8
0
100
AcDbLine
 62
7
  6
CONTINUOUS
 10
472.9064098395
 20
157.1640832992
 11
473.4897442854
 21
157.3130194516
  0
LINE
  5
588
100
AcDbEntity
  8
0
100
AcDbLine
 62
7
  6
CONTINUOUS
 10
478.0105753935
 20
161.7811046512
 11
480.6355753935
 21
161.7811046512
  0
LINE
  5
589
100
AcDbEntity
  8
0
100
AcDbLine
 62
7
  6
CONTINUOUS
 10
474.3647442854
 20
162.2279131086
 11
475.2397442854
 21
162.2279131086
  0
LINE
  5
58A
100
AcDbEntity
  8
0
100
AcDbLine
 62
7
  6
CONTINUOUS
 10
480.7814098395
 20
162.376849261
 11
477.8647442854
 21
162.376849261
  0
LINE
  5
58B
100
AcDbEntity
  8
0
100
AcDbLine
 62
7
  6
CONTINUOUS
 10
472.0314098395
 20
163.2704662801
 11
473.1980753935
 21
163.2704662801
  0
LINE
  5
58C
100
AcDbEntity
  8
0
100
AcDbLine
 62
7
  6
CONTINUOUS
 10
483.4064098395
 20
163.2704662801
 11
487.7814098395
 21
163.2704662801
  0
LINE
  5
58D
100
AcDbEntity
  8
0
100
AcDbLine
 62
7
  6
CONTINUOUS
 10
507.4689098395
 20
163.2704662801
 11
508.6355764366
 21
163.2704662801
  0
LINE
  5
58E
100
AcDbEntity
  8
0
100
AcDbLine
 62
7
  6
CONTINUOUS
 10
508.6355764366
 20
164.1640832992
 11
507.4689098395
 21
164.1640832992
  0
LINE
  5
58F
100
AcDbEntity
  8
0
100
AcDbLine
 62
7
  6
CONTINUOUS
 10
503.9689098395
 20
164.1640832992
 11
503.0939098395
 21
164.1640832992
  0
LINE
  5
590
100
AcDbEntity
  8
0
100
AcDbLine
 62
7
  6
CONTINUOUS
 10
495.0730770625
 20
164.1640832992
 11
494.1980770625
 21
164.1640832992
  0
LINE
  5
591
100
AcDbEntity
  8
0
100
AcDbLine
 62
7
  6
CONTINUOUS
 10
490.6980770625
 20
164.1640832992
 11
489.8230770625
 21
164.1640832992
  0
LINE
  5
592
100
AcDbEntity
  8
0
100
AcDbLine
 62
7
  6
CONTINUOUS
 10
488.6564098395
 20
164.1640832992
 11
483.4064098395
 21
164.1640832992
  0
LINE
  5
593
100
AcDbEntity
  8
0
100
AcDbLine
 62
7
  6
CONTINUOUS
 10
482.2397442854
 20
164.1640832992
 11
481.3647442854
 21
164.1640832992
  0
LINE
  5
594
100
AcDbEntity
  8
0
100
AcDbLine
 62
7
  6
CONTINUOUS
 10
477.2814098395
 20
164.1640832992
 11
476.4064098395
 21
164.1640832992
  0
LINE
  5
595
100
AcDbEntity
  8
0
100
AcDbLine
 62
7
  6
CONTINUOUS
 10
473.1980753935
 20
164.1640832992
 11
472.0314098395
 21
164.1640832992
  0
LINE
  5
596
100
AcDbEntity
  8
0
100
AcDbLine
 62
7
  6
CONTINUOUS
 10
468.6772442854
 20
164.1640832992
 11
467.8022442854
 21
164.1640832992
  0
LINE
  5
597
100
AcDbEntity
  8
0
100
AcDbLine
 62
7
  6
CONTINUOUS
 10
463.7189098395
 20
164.1640832992
 11
462.8439098395
 21
164.1640832992
  0
LINE
  5
598
100
AcDbEntity
  8
0
100
AcDbLine
 62
7
  6
CONTINUOUS
 10
506.7397430337
 20
157.3130194516
 11
507.4689098395
 21
157.1640832992
  0
LINE
  5
599
100
AcDbEntity
  8
0
100
AcDbLine
 62
7
  6
CONTINUOUS
 10
473.9272442854
 20
164.0151471337
 11
473.1980753935
 21
164.1640832992
  0
LINE
  5
59A
100
AcDbEntity
  8
0
100
AcDbLine
 62
7
  6
CONTINUOUS
 10
507.4689098395
 20
158.0577002139
 11
506.8855766452
 21
158.2066363664
  0
LINE
  5
59B
100
AcDbEntity
  8
0
100
AcDbLine
 62
7
  6
CONTINUOUS
 10
500.323076228
 20
157.9087640614
 11
499.885576228
 21
158.0577002139
  0
LINE
  5
59C
100
AcDbEntity
  8
0
100
AcDbLine
 62
7
  6
CONTINUOUS
 10
474.6564098395
 20
163.5683386372
 11
473.9272442854
 21
164.0151471337
  0
LINE
  5
59D
100
AcDbEntity
  8
0
100
AcDbLine
 62
7
  6
CONTINUOUS
 10
470.1355753935
 20
161.1853598328
 11
470.7189098395
 21
160.5896152229
  0
LINE
  5
59E
100
AcDbEntity
  8
0
100
AcDbLine
 62
7
  6
CONTINUOUS
 10
474.6564098395
 20
159.9938706131
 11
474.0730753935
 21
160.5896152229
  0
LINE
  5
59F
100
AcDbEntity
  8
0
100
AcDbLine
 62
7
  6
CONTINUOUS
 10
473.7814098395
 20
163.1215301276
 11
474.2189098395
 21
162.674721566
  0
LINE
  5
5A0
100
AcDbEntity
  8
0
100
AcDbLine
 62
7
  6
CONTINUOUS
 10
470.4272442854
 20
158.3555725188
 11
470.8647442854
 21
157.759827909
  0
LINE
  5
5A1
100
AcDbEntity
  8
RUNDUNGEN
100
AcDbLine
 62
7
  6
CONTINUOUS
 10
452.9064098395
 20
184.4447055757
 11
452.9064098395
 21
138.1640922663
  0
LINE
  5
5A2
100
AcDbEntity
  8
0
100
AcDbLine
 62
7
  6
CONTINUOUS
 10
471.4480753935
 20
163.1215301276
 11
472.0314098395
 21
163.2704662801
  0
LINE
  5
5A3
100
AcDbEntity
  8
0
100
AcDbLine
 62
7
  6
CONTINUOUS
 10
472.0314098395
 20
164.1640832992
 11
471.3022442854
 21
164.0151471337
  0
LINE
  5
5A4
100
AcDbEntity
  8
0
100
AcDbLine
 62
7
  6
CONTINUOUS
 10
435.3122313014
 20
171.6640832992
 11
419.9143818546
 21
171.6640832992
  0
LINE
  5
5A5
100
AcDbEntity
  8
0
100
AcDbLine
 62
7
  6
CONTINUOUS
 10
539.9064098395
 20
171.6640832992
 11
553.9064098395
 21
171.6640832992
  0
LINE
  5
5A6
100
AcDbEntity
  8
0
100
AcDbLine
 62
7
  6
CONTINUOUS
 10
509.364743138
 20
164.0151471337
 11
508.6355764366
 21
164.1640832992
  0
LINE
  5
5A7
100
AcDbEntity
  8
0
100
AcDbLine
 62
7
  6
CONTINUOUS
 10
508.6355764366
 20
163.2704662801
 11
509.2189098395
 21
163.1215301276
  0
LINE
  5
5A8
100
AcDbEntity
  8
0
100
AcDbLine
 62
7
  6
CONTINUOUS
 10
506.1564098395
 20
157.6108917565
 11
506.7397430337
 21
157.3130194516
  0
LINE
  5
5A9
100
AcDbEntity
  8
0
100
AcDbLine
 62
7
  6
CONTINUOUS
 10
471.0105753935
 20
161.4832321377
 11
470.7189098395
 21
161.9300408037
  0
LINE
  5
5AA
100
AcDbEntity
  8
0
100
AcDbLine
 62
7
  6
CONTINUOUS
 10
475.0939098395
 20
162.8236577184
 11
474.6564098395
 21
163.5683386372
  0
LINE
  5
5AB
100
AcDbEntity
  8
0
100
AcDbLine
 62
7
  6
CONTINUOUS
 10
471.3022442854
 20
158.5045086713
 11
471.1564098395
 21
158.8023809762
  0
LINE
  5
5AC
100
AcDbEntity
  8
0
100
AcDbLine
 62
7
  6
CONTINUOUS
 10
469.8439098395
 20
161.7811046512
 11
470.1355753935
 21
161.1853598328
  0
LINE
  5
5AD
100
AcDbEntity
  8
0
100
AcDbLine
 62
7
  6
CONTINUOUS
 10
509.9480765409
 20
163.7172747896
 11
509.364743138
 21
164.0151471337
  0
LINE
  5
5AE
100
AcDbEntity
  8
0
100
AcDbLine
 62
7
  6
CONTINUOUS
 10
506.8855766452
 20
158.2066363664
 11
506.4480766452
 21
158.5045086713
  0
LINE
  5
5AF
100
AcDbEntity
  8
0
100
AcDbLine
 62
7
  6
CONTINUOUS
 10
499.1564098395
 20
157.759827909
 11
499.739743451
 21
157.3130194516
  0
LINE
  5
5B0
100
AcDbEntity
  8
0
100
AcDbLine
 62
7
  6
CONTINUOUS
 10
470.2814098395
 20
158.8023809762
 11
470.4272442854
 21
158.3555725188
  0
LINE
  5
5B1
100
AcDbEntity
  8
0
100
AcDbLine
 62
7
  6
CONTINUOUS
 10
473.7814098395
 20
159.6959983082
 11
473.9272442854
 21
159.2491898508
  0
LINE
  5
5B2
100
AcDbEntity
  8
0
100
AcDbLine
 62
7
  6
CONTINUOUS
 10
474.2189098395
 20
162.674721566
 11
474.3647442854
 21
162.2279131086
  0
LINE
  5
5B3
100
AcDbEntity
  8
0
100
AcDbLine
 62
7
  6
CONTINUOUS
 10
462.8439098395
 20
164.1640832992
 11
462.8439098395
 21
157.1640832992
  0
LINE
  5
5B4
100
AcDbEntity
  8
0
100
AcDbLine
 62
7
  6
CONTINUOUS
 10
463.7189098395
 20
157.1640832992
 11
463.7189098395
 21
159.9938706131
  0
LINE
  5
5B5
100
AcDbEntity
  8
0
100
AcDbLine
 62
7
  6
CONTINUOUS
 10
463.7189098395
 20
160.8874875278
 11
463.7189098395
 21
164.1640832992
  0
LINE
  5
5B6
100
AcDbEntity
  8
0
100
AcDbLine
 62
7
  6
CONTINUOUS
 10
467.8022442854
 20
164.1640832992
 11
467.8022442854
 21
160.8874875278
  0
LINE
  5
5B7
100
AcDbEntity
  8
0
100
AcDbLine
 62
7
  6
CONTINUOUS
 10
467.8022442854
 20
159.9938706131
 11
467.8022442854
 21
157.1640832992
  0
LINE
  5
5B8
100
AcDbEntity
  8
0
100
AcDbLine
 62
7
  6
CONTINUOUS
 10
468.6772442854
 20
157.1640832992
 11
468.6772442854
 21
164.1640832992
  0
LINE
  5
5B9
100
AcDbEntity
  8
0
100
AcDbLine
 62
7
  6
CONTINUOUS
 10
509.2189098395
 20
163.1215301276
 11
509.6564098395
 21
162.8236577184
  0
LINE
  5
5BA
100
AcDbEntity
  8
0
100
AcDbLine
 62
7
  6
CONTINUOUS
 10
499.885576228
 20
158.0577002139
 11
499.5939098395
 21
158.3555725188
  0
LINE
  5
5BB
100
AcDbEntity
  8
0
100
AcDbLine
 62
7
  6
CONTINUOUS
 10
505.5730766452
 20
158.2066363664
 11
506.1564098395
 21
157.6108917565
  0
LINE
  5
5BC
100
AcDbEntity
  8
0
100
AcDbLine
 62
7
  6
CONTINUOUS
 10
498.7189098395
 20
158.3555725188
 11
499.1564098395
 21
157.759827909
  0
LINE
  5
5BD
100
AcDbEntity
  8
0
100
AcDbLine
 62
7
  6
CONTINUOUS
 10
476.4064098395
 20
164.1640832992
 11
478.7397442854
 21
157.1640832992
  0
LINE
  5
5BE
100
AcDbEntity
  8
0
100
AcDbLine
 62
7
  6
CONTINUOUS
 10
479.3230753935
 20
157.759827909
 11
478.0105753935
 21
161.7811046512
  0
LINE
  5
5BF
100
AcDbEntity
  8
0
100
AcDbLine
 62
7
  6
CONTINUOUS
 10
477.8647442854
 20
162.376849261
 11
477.2814098395
 21
164.1640832992
  0
LINE
  5
5C0
100
AcDbEntity
  8
RUNDUNGEN
100
AcDbLine
 62
7
  6
CONTINUOUS
 10
461.2821566801
 20
208.1817163443
 11
460.2796493343
 21
211.2890832992
  0
LINE
  5
5C1
100
AcDbEntity
  8
RUNDUNGEN
100
AcDbLine
 62
7
  6
CONTINUOUS
 10
457.8590347429
 20
220.6640832992
 11
460.2796493343
 21
211.2890832992
  0
LINE
  5
5C2
100
AcDbEntity
  8
0
100
AcDbLine
 62
7
  6
CONTINUOUS
 10
474.8022442854
 20
159.3981260033
 11
474.6564098395
 21
159.9938706131
  0
LINE
  5
5C3
100
AcDbEntity
  8
0
100
AcDbLine
 62
7
  6
CONTINUOUS
 10
475.2397442854
 20
162.2279131086
 11
475.0939098395
 21
162.8236577184
  0
LINE
  5
5C4
100
AcDbEntity
  8
0
100
AcDbLine
 62
7
  6
CONTINUOUS
 10
469.8439098395
 20
162.5257854135
 11
469.8439098395
 21
161.7811046512
  0
LINE
  5
5C5
100
AcDbEntity
  8
0
100
AcDbLine
 62
7
  6
CONTINUOUS
 10
470.7189098395
 20
161.9300408037
 11
470.7189098395
 21
162.376849261
  0
LINE
  5
5C6
100
AcDbEntity
  8
0
100
AcDbLine
 62
7
  6
CONTINUOUS
 10
473.9272442854
 20
159.2491898508
 11
473.9272442854
 21
158.9513175459
  0
LINE
  5
5C7
100
AcDbEntity
  8
0
100
AcDbLine
 62
7
  6
CONTINUOUS
 10
474.8022442854
 20
158.8023809762
 11
474.8022442854
 21
159.3981260033
  0
LINE
  5
5C8
100
AcDbEntity
  8
0
100
AcDbLine
 62
7
  6
CONTINUOUS
 10
510.5314098395
 20
163.1215301276
 11
509.9480765409
 21
163.7172747896
  0
LINE
  5
5C9
100
AcDbEntity
  8
0
100
AcDbLine
 62
7
  6
CONTINUOUS
 10
506.4480766452
 20
158.5045086713
 11
506.1564098395
 21
158.9513175459
  0
LINE
  5
5CA
100
AcDbEntity
  8
0
100
AcDbLine
 62
7
  6
CONTINUOUS
 10
483.4064098395
 20
164.1640832992
 11
483.4064098395
 21
163.2704662801
  0
LINE
  5
5CB
100
AcDbEntity
  8
0
100
AcDbLine
 62
7
  6
CONTINUOUS
 10
487.7814098395
 20
163.2704662801
 11
487.7814098395
 21
157.1640832992
  0
LINE
  5
5CC
100
AcDbEntity
  8
0
100
AcDbLine
 62
7
  6
CONTINUOUS
 10
474.6564098395
 20
158.2066363664
 11
474.8022442854
 21
158.8023809762
  0
LINE
  5
5CD
100
AcDbEntity
  8
0
100
AcDbLine
 62
7
  6
CONTINUOUS
 10
509.6564098395
 20
162.8236577184
 11
509.9480765409
 21
162.376849261
  0
LINE
  5
5CE
100
AcDbEntity
  8
0
100
AcDbLine
 62
7
  6
CONTINUOUS
 10
505.2814098395
 20
158.8023809762
 11
505.5730766452
 21
158.2066363664
  0
LINE
  5
5CF
100
AcDbEntity
  8
0
100
AcDbLine
 62
7
  6
CONTINUOUS
 10
498.573076228
 20
158.8023809762
 11
498.7189098395
 21
158.3555725188
  0
LINE
  5
5D0
100
AcDbEntity
  8
0
100
AcDbLine
 62
7
  6
CONTINUOUS
 10
499.5939098395
 20
158.3555725188
 11
499.448076228
 21
158.8023809762
  0
LINE
  5
5D1
100
AcDbEntity
  8
0
100
AcDbLine
 62
7
  6
CONTINUOUS
 10
488.6564098395
 20
157.1640832992
 11
488.6564098395
 21
164.1640832992
  0
LINE
  5
5D2
100
AcDbEntity
  8
0
100
AcDbLine
 62
7
  6
CONTINUOUS
 10
489.8230770625
 20
164.1640832992
 11
489.8230770625
 21
157.1640832992
  0
LINE
  5
5D3
100
AcDbEntity
  8
0
100
AcDbLine
 62
7
  6
CONTINUOUS
 10
490.6980770625
 20
157.1640832992
 11
490.6980770625
 21
164.1640832992
  0
LINE
  5
5D4
100
AcDbEntity
  8
0
100
AcDbLine
 62
7
  6
CONTINUOUS
 10
491.8647426165
 20
157.9087640614
 11
491.8647426165
 21
157.1640832992
  0
LINE
  5
5D5
100
AcDbEntity
  8
0
100
AcDbLine
 62
7
  6
CONTINUOUS
 10
494.1980770625
 20
164.1640832992
 11
494.1980770625
 21
157.9087640614
  0
LINE
  5
5D6
100
AcDbEntity
  8
0
100
AcDbLine
 62
7
  6
CONTINUOUS
 10
473.9272442854
 20
158.9513175459
 11
473.7814098395
 21
158.5045086713
  0
LINE
  5
5D7
100
AcDbEntity
  8
0
100
AcDbLine
 62
7
  6
CONTINUOUS
 10
481.3647442854
 20
164.1640832992
 11
480.7814098395
 21
162.376849261
  0
LINE
  5
5D8
100
AcDbEntity
  8
0
100
AcDbLine
 62
7
  6
CONTINUOUS
 10
480.6355753935
 20
161.7811046512
 11
479.3230753935
 21
157.759827909
  0
LINE
  5
5D9
100
AcDbEntity
  8
0
100
AcDbLine
 62
7
  6
CONTINUOUS
 10
470.1355753935
 20
163.1215301276
 11
469.8439098395
 21
162.5257854135
  0
LINE
  5
5DA
100
AcDbEntity
  8
0
100
AcDbLine
 62
7
  6
CONTINUOUS
 10
510.8230765018
 20
162.5257854135
 11
510.5314098395
 21
163.1215301276
  0
LINE
  5
5DB
100
AcDbEntity
  8
0
100
AcDbLine
 62
7
  6
CONTINUOUS
 10
506.1564098395
 20
158.9513175459
 11
506.0105766452
 21
159.5470621557
  0
LINE
  5
5DC
100
AcDbEntity
  8
0
100
AcDbLine
 62
7
  6
CONTINUOUS
 10
495.0730770625
 20
157.9087640614
 11
495.0730770625
 21
164.1640832992
  0
LINE
  5
5DD
100
AcDbEntity
  8
0
100
AcDbLine
 62
7
  6
CONTINUOUS
 10
497.4064098395
 20
157.1640832992
 11
497.4064098395
 21
157.9087640614
  0
LINE
  5
5DE
100
AcDbEntity
  8
0
100
AcDbLine
 62
7
  6
CONTINUOUS
 10
498.573076228
 20
159.3981260033
 11
498.573076228
 21
158.8023809762
  0
LINE
  5
5DF
100
AcDbEntity
  8
0
100
AcDbLine
 62
7
  6
CONTINUOUS
 10
499.448076228
 20
158.8023809762
 11
499.448076228
 21
159.2491898508
  0
LINE
  5
5E0
100
AcDbEntity
  8
0
100
AcDbLine
 62
7
  6
CONTINUOUS
 10
479.9064098395
 20
157.1640832992
 11
482.2397442854
 21
164.1640832992
  0
LINE
  5
5E1
100
AcDbEntity
  8
0
100
AcDbLine
 62
7
  6
CONTINUOUS
 10
470.7189098395
 20
162.376849261
 11
471.0105753935
 21
162.8236577184
  0
LINE
  5
5E2
100
AcDbEntity
  8
0
100
AcDbLine
 62
7
  6
CONTINUOUS
 10
509.9480765409
 20
162.376849261
 11
510.0939098395
 21
161.7811046512
  0
LINE
  5
5E3
100
AcDbEntity
  8
0
100
AcDbLine
 62
7
  6
CONTINUOUS
 10
505.1355766452
 20
159.5470621557
 11
505.2814098395
 21
158.8023809762
  0
LINE
  5
5E4
100
AcDbEntity
  8
0
100
AcDbLine
 62
7
  6
CONTINUOUS
 10
503.0939098395
 20
164.1640832992
 11
503.0939098395
 21
161.0364236803
  0
LINE
  5
5E5
100
AcDbEntity
  8
0
100
AcDbLine
 62
7
  6
CONTINUOUS
 10
503.0939098395
 20
160.1428067655
 11
503.0939098395
 21
157.9087640614
  0
LINE
  5
5E6
100
AcDbEntity
  8
0
100
AcDbLine
 62
7
  6
CONTINUOUS
 10
503.9689098395
 20
157.1640832992
 11
503.9689098395
 21
164.1640832992
  0
LINE
  5
5E7
100
AcDbEntity
  8
0
100
AcDbLine
 62
7
  6
CONTINUOUS
 10
505.1355766452
 20
161.7811046512
 11
505.1355766452
 21
159.5470621557
  0
LINE
  5
5E8
100
AcDbEntity
  8
0
100
AcDbLine
 62
7
  6
CONTINUOUS
 10
506.0105766452
 20
159.5470621557
 11
506.0105766452
 21
161.7811046512
  0
LINE
  5
5E9
100
AcDbEntity
  8
0
100
AcDbLine
 62
7
  6
CONTINUOUS
 10
470.7189098395
 20
163.7172747896
 11
470.1355753935
 21
163.1215301276
  0
LINE
  5
5EA
100
AcDbEntity
  8
0
100
AcDbLine
 62
7
  6
CONTINUOUS
 10
510.9689098395
 20
161.7811046512
 11
510.8230765018
 21
162.5257854135
  0
LINE
  5
5EB
100
AcDbEntity
  8
0
100
AcDbLine
 62
7
  6
CONTINUOUS
 10
510.0939098395
 20
161.7811046512
 11
510.0939098395
 21
159.5470621557
  0
LINE
  5
5EC
100
AcDbEntity
  8
0
100
AcDbLine
 62
7
  6
CONTINUOUS
 10
510.9689098395
 20
159.5470621557
 11
510.9689098395
 21
161.7811046512
  0
LINE
  5
5ED
100
AcDbEntity
  8
0
100
AcDbLine
 62
7
  6
CONTINUOUS
 10
505.2814098395
 20
162.5257854135
 11
505.1355766452
 21
161.7811046512
  0
LINE
  5
5EE
100
AcDbEntity
  8
RUNDUNGEN
100
AcDbLine
 62
7
  6
CONTINUOUS
 10
513.5331703447
 20
211.2890832992
 11
515.953784936
 21
220.6640832992
  0
LINE
  5
5EF
100
AcDbEntity
  8
RUNDUNGEN
100
AcDbLine
 62
7
  6
CONTINUOUS
 10
513.5331703447
 20
211.2890832992
 11
512.5306629989
 21
208.1817163443
  0
LINE
  5
5F0
100
AcDbEntity
  8
0
100
AcDbLine
 62
7
  6
CONTINUOUS
 10
498.7189098395
 20
159.8449344606
 11
498.573076228
 21
159.3981260033
  0
LINE
  5
5F1
100
AcDbEntity
  8
0
100
AcDbLine
 62
7
  6
CONTINUOUS
 10
499.448076228
 20
159.2491898508
 11
499.5939098395
 21
159.6959983082
  0
LINE
  5
5F2
100
AcDbEntity
  8
0
100
AcDbLine
 62
7
  6
CONTINUOUS
 10
474.0730753935
 20
157.6108917565
 11
474.6564098395
 21
158.2066363664
  0
LINE
  5
5F3
100
AcDbEntity
  8
0
100
AcDbLine
 62
7
  6
CONTINUOUS
 10
471.0105753935
 20
162.8236577184
 11
471.4480753935
 21
163.1215301276
  0
LINE
  5
5F4
100
AcDbEntity
  8
0
100
AcDbLine
 62
7
  6
CONTINUOUS
 10
510.8230765018
 20
158.8023809762
 11
510.9689098395
 21
159.5470621557
  0
LINE
  5
5F5
100
AcDbEntity
  8
0
100
AcDbLine
 62
7
  6
CONTINUOUS
 10
506.0105766452
 20
161.7811046512
 11
506.1564098395
 21
162.376849261
  0
LINE
  5
5F6
100
AcDbEntity
  8
0
100
AcDbLine
 62
7
  6
CONTINUOUS
 10
510.0939098395
 20
159.5470621557
 11
509.9480765409
 21
158.9513175459
  0
LINE
  5
5F7
100
AcDbEntity
  8
0
100
AcDbLine
 62
7
  6
CONTINUOUS
 10
473.7814098395
 20
158.5045086713
 11
473.3439098395
 21
158.2066363664
  0
LINE
  5
5F8
100
AcDbEntity
  8
0
100
AcDbLine
 62
7
  6
CONTINUOUS
 10
471.3022442854
 20
164.0151471337
 11
470.7189098395
 21
163.7172747896
  0
LINE
  5
5F9
100
AcDbEntity
  8
RUNDUNGEN
100
AcDbLine
 62
7
  6
CONTINUOUS
 10
520.9064098395
 20
138.1640922663
 11
520.9064098395
 21
184.4447055757
  0
LINE
  5
5FA
100
AcDbEntity
  8
0
100
AcDbLine
 62
7
  6
CONTINUOUS
 10
505.5730766452
 20
163.1215301276
 11
505.2814098395
 21
162.5257854135
  0
LINE
  5
5FB
100
AcDbEntity
  8
0
100
AcDbLine
 62
7
  6
CONTINUOUS
 10
506.1564098395
 20
162.376849261
 11
506.4480766452
 21
162.8236577184
  0
LINE
  5
5FC
100
AcDbEntity
  8
0
100
AcDbLine
 62
7
  6
CONTINUOUS
 10
499.1564098395
 20
160.4406790705
 11
498.7189098395
 21
159.8449344606
  0
LINE
  5
5FD
100
AcDbEntity
  8
0
100
AcDbLine
 62
7
  6
CONTINUOUS
 10
473.4897442854
 20
157.3130194516
 11
474.0730753935
 21
157.6108917565
  0
LINE
  5
5FE
100
AcDbEntity
  8
0
100
AcDbLine
 62
7
  6
CONTINUOUS
 10
510.5314098395
 20
158.2066363664
 11
510.8230765018
 21
158.8023809762
  0
LINE
  5
5FF
100
AcDbEntity
  8
0
100
AcDbLine
 62
7
  6
CONTINUOUS
 10
509.9480765409
 20
158.9513175459
 11
509.6564098395
 21
158.5045086713
  0
LINE
  5
600
100
AcDbEntity
  8
0
100
AcDbLine
 62
7
  6
CONTINUOUS
 10
499.5939098395
 20
159.6959983082
 11
499.885576228
 21
159.9938706131
  0
LINE
  5
601
100
AcDbEntity
  8
0
100
AcDbLine
 62
7
  6
CONTINUOUS
 10
506.1564098395
 20
163.7172747896
 11
505.5730766452
 21
163.1215301276
  0
LINE
  5
602
100
AcDbEntity
  8
0
100
AcDbLine
 62
7
  6
CONTINUOUS
 10
499.739743451
 20
160.8874875278
 11
499.1564098395
 21
160.4406790705
  0
LINE
  5
603
100
AcDbEntity
  8
0
100
AcDbLine
 62
7
  6
CONTINUOUS
 10
506.4480766452
 20
162.8236577184
 11
506.8855766452
 21
163.1215301276
  0
LINE
  5
604
100
AcDbEntity
  8
0
100
AcDbLine
 62
7
  6
CONTINUOUS
 10
506.7397430337
 20
164.0151471337
 11
506.1564098395
 21
163.7172747896
  0
LINE
  5
605
100
AcDbEntity
  8
0
100
AcDbLine
 62
7
  6
CONTINUOUS
 10
473.3439098395
 20
158.2066363664
 11
472.9064098395
 21
158.0577002139
  0
LINE
  5
606
100
AcDbEntity
  8
RUNDUNGEN
100
AcDbLine
 62
7
  6
CONTINUOUS
 10
538.9064098395
 20
227.7427841415
 11
538.8668841478
 21
228.6310135903
  0
LINE
  5
607
100
AcDbEntity
  8
RUNDUNGEN
100
AcDbLine
 62
7
  6
CONTINUOUS
 10
538.9064098395
 20
139.6641530527
 11
538.9064098395
 21
227.7427841415
  0
LINE
  5
608
100
AcDbEntity
  8
0
100
AcDbLine
 62
7
  6
CONTINUOUS
 10
509.9480765409
 20
157.6108917565
 11
510.5314098395
 21
158.2066363664
  0
LINE
  5
609
100
AcDbEntity
  8
0
100
AcDbLine
 62
7
  6
CONTINUOUS
 10
509.6564098395
 20
158.5045086713
 11
509.2189098395
 21
158.2066363664
  0
LINE
  5
60A
100
AcDbEntity
  8
0
100
AcDbLine
 62
7
  6
CONTINUOUS
 10
499.885576228
 20
159.9938706131
 11
500.323076228
 21
160.1428067655
  0
LINE
  5
60B
100
AcDbEntity
  8
0
100
AcDbLine
 62
7
  6
CONTINUOUS
 10
509.364743138
 20
157.3130194516
 11
509.9480765409
 21
157.6108917565
  0
LINE
  5
60C
100
AcDbEntity
  8
RUNDUNGEN
100
AcDbLine
 62
7
  6
CONTINUOUS
 10
554.9064098395
 20
170.6640782856
 11
554.9064098395
 21
150.6640881043
  0
LINE
  5
60D
100
AcDbEntity
  8
BEZUGSACHSEN
100
AcDbLine
 62
7
  6
CONTINUOUS
 10
24.9239856304
 20
155.6640832992
 11
23.1768953137
 21
155.6640832992
  0
LINE
  5
60E
100
AcDbEntity
  8
0
100
AcDbLine
 62
7
  6
CONTINUOUS
 10
27.5192006378
 20
150.0986267556
 11
24.8615059618
 21
155.7980713807
  0
LINE
  5
60F
100
AcDbEntity
  8
RUNDUNGEN
100
AcDbLine
 62
7
  6
CONTINUOUS
 10
20.1768953137
 20
176.9289844678
 11
20.1768953137
 21
272.1640832992
  0
LINE
  5
610
100
AcDbEntity
  8
BEZUGSACHSEN
100
AcDbLine
 62
7
  6
CONTINUOUS
 10
23.1768953137
 20
159.8732527997
 11
23.1768953137
 21
155.6640832992
  0
LINE
  5
611
100
AcDbEntity
  8
RUNDUNGEN
100
AcDbLine
 62
7
  6
CONTINUOUS
 10
37.1768953137
 20
272.1640832992
 11
37.1768953137
 21
205.6407502103
  0
LINE
  5
612
100
AcDbEntity
  8
RUNDUNGEN
100
AcDbLine
 62
7
  6
CONTINUOUS
 10
46.0757716439
 20
191.8993816134
 11
62.6768953137
 21
182.3147183938
  0
LINE
  5
613
100
AcDbEntity
  8
RUNDUNGEN
100
AcDbLine
 62
7
  6
CONTINUOUS
 10
39.2433619108
 20
199.5531359202
 11
43.1422382409
 21
194.4720213611
  0
LINE
  5
614
100
AcDbEntity
  8
0
100
AcDbLine
 62
7
  6
CONTINUOUS
 10
42.1768953137
 20
168.2139177344
 11
42.1768953137
 21
153.1142488639
  0
LINE
  5
615
100
AcDbEntity
  8
0
100
AcDbLine
 62
7
  6
CONTINUOUS
 10
33.1768953137
 20
276.1640832992
 11
24.1768953137
 21
276.1640832992
  0
ARC
  5
616
100
AcDbEntity
  8
0
100
AcDbCircle
 62
7
  6
CONTINUOUS
 10
141.7117602926
 20
180.6640832992
 40
100.0
100
AcDbArc
 50
333.2563266238
 51
360.0
  0
ARC
  5
617
100
AcDbEntity
  8
RUNDUNGEN
100
AcDbCircle
 62
7
  6
CONTINUOUS
 10
189.7117602926
 20
223.9974166325
 40
52.1666666667
100
AcDbArc
 50
5.0958955962
 51
174.9041044038
  0
ARC
  5
618
100
AcDbEntity
  8
RUNDUNGEN
100
AcDbCircle
 62
7
  6
CONTINUOUS
 10
189.7117602926
 20
228.1640832992
 40
30.0
100
AcDbArc
 50
345.5224878141
 51
194.4775121859
  0
ARC
  5
619
100
AcDbEntity
  8
RUNDUNGEN
100
AcDbCircle
 62
7
  6
CONTINUOUS
 10
189.7117602926
 20
218.1640832992
 40
27.5
100
AcDbArc
 50
194.4775121859
 51
345.5224878141
  0
ARC
  5
61A
100
AcDbEntity
  8
RUNDUNGEN
100
AcDbCircle
 62
7
  6
CONTINUOUS
 10
231.7117602926
 20
227.7427841415
 40
10.0
100
AcDbArc
 50
0.0
 51
5.0958955962
  0
ARC
  5
61B
100
AcDbEntity
  8
RUNDUNGEN
100
AcDbCircle
 62
7
  6
CONTINUOUS
 10
147.7117602926
 20
227.7427841415
 40
10.0
100
AcDbArc
 50
174.9041044038
 51
180.0
  0
CIRCLE
  5
61C
100
AcDbEntity
  8
BEZUGSACHSEN
100
AcDbCircle
 62
7
  6
CONTINUOUS
 10
213.7117602926
 20
160.6640832992
 40
5.0
  0
ARC
  5
61D
100
AcDbEntity
  8
RUNDUNGEN
100
AcDbCircle
 62
7
  6
CONTINUOUS
 10
141.7117602926
 20
139.6640832992
 40
4.0
100
AcDbArc
 50
180.0
 51
270.0
  0
ARC
  5
61E
100
AcDbEntity
  8
0
100
AcDbCircle
 62
7
  6
CONTINUOUS
 10
197.7117602926
 20
160.6640832992
 40
3.0
100
AcDbArc
 50
90.0
 51
270.0
  0
ARC
  5
61F
100
AcDbEntity
  8
RUNDUNGEN
100
AcDbCircle
 62
7
  6
CONTINUOUS
 10
153.2117602926
 20
138.1640832992
 40
2.5
100
AcDbArc
 50
270.0
 51
360.0
  0
ARC
  5
620
100
AcDbEntity
  8
RUNDUNGEN
100
AcDbCircle
 62
7
  6
CONTINUOUS
 10
158.2117602926
 20
143.1640832992
 40
2.5
100
AcDbArc
 50
90.0
 51
180.0
  0
ARC
  5
621
100
AcDbEntity
  8
RUNDUNGEN
100
AcDbCircle
 62
7
  6
CONTINUOUS
 10
226.2117602926
 20
138.1640832992
 40
2.5
100
AcDbArc
 50
180.0
 51
270.0
  0
ARC
  5
622
100
AcDbEntity
  8
RUNDUNGEN
100
AcDbCircle
 62
7
  6
CONTINUOUS
 10
221.2117602926
 20
143.1640832992
 40
2.5
100
AcDbArc
 50
0.0
 51
90.0
  0
ARC
  5
623
100
AcDbEntity
  8
RUNDUNGEN
100
AcDbCircle
 62
7
  6
CONTINUOUS
 10
221.7117602926
 20
152.6640832992
 40
2.0
100
AcDbArc
 50
6.4285684448
 51
90.0
  0
ARC
  5
624
100
AcDbEntity
  8
RUNDUNGEN
100
AcDbCircle
 62
7
  6
CONTINUOUS
 10
191.7117602926
 20
156.6640832992
 40
2.0
100
AcDbArc
 50
180.0002234839
 51
269.996333677
  0
ARC
  5
625
100
AcDbEntity
  8
RUNDUNGEN
100
AcDbCircle
 62
7
  6
CONTINUOUS
 10
136.7117602926
 20
148.6640832992
 40
1.0
100
AcDbArc
 50
0.0
 51
90.0
  0
ARC
  5
626
100
AcDbEntity
  8
RUNDUNGEN
100
AcDbCircle
 62
7
  6
CONTINUOUS
 10
136.7117602926
 20
172.6640832992
 40
1.0
100
AcDbArc
 50
270.0
 51
360.0
  0
ARC
  5
627
100
AcDbEntity
  8
RUNDUNGEN
100
AcDbCircle
 62
7
  6
CONTINUOUS
 10
122.7117602926
 20
150.6640832992
 40
1.0
100
AcDbArc
 50
180.0
 51
270.0
  0
ARC
  5
628
100
AcDbEntity
  8
RUNDUNGEN
100
AcDbCircle
 62
7
  6
CONTINUOUS
 10
122.7117602926
 20
170.6640832992
 40
1.0
100
AcDbArc
 50
90.0
 51
180.0
  0
ARC
  5
629
100
AcDbEntity
  8
RUNDUNGEN
100
AcDbCircle
 62
7
  6
CONTINUOUS
 10
306.3046757596
 20
176.9289844678
 40
50.0
100
AcDbArc
 50
335.0
 51
360.0
  0
ARC
  5
62A
100
AcDbEntity
  8
0
100
AcDbCircle
 62
7
  6
CONTINUOUS
 10
326.3046757596
 20
160.6640832992
 40
25.0
100
AcDbArc
 50
152.1802872163
 51
152.2499786798
  0
ARC
  5
62B
100
AcDbEntity
  8
RUNDUNGEN
100
AcDbCircle
 62
7
  6
CONTINUOUS
 10
326.3046757596
 20
160.6640832992
 40
25.0
100
AcDbArc
 50
120.0
 51
335.0
  0
ARC
  5
62C
100
AcDbEntity
  8
RUNDUNGEN
100
AcDbCircle
 62
7
  6
CONTINUOUS
 10
326.3046757596
 20
160.6640832992
 40
11.0
100
AcDbArc
 50
45.5729959992
 51
314.4270040008
  0
ARC
  5
62D
100
AcDbEntity
  8
RUNDUNGEN
100
AcDbCircle
 62
7
  6
CONTINUOUS
 10
325.4057994295
 20
200.5596356512
 40
10.0
100
AcDbArc
 50
300.0
 51
322.5
  0
ARC
  5
62E
100
AcDbEntity
  8
RUNDUNGEN
100
AcDbCircle
 62
7
  6
CONTINUOUS
 10
329.3046757596
 20
205.6407502103
 40
10.0
100
AcDbArc
 50
322.5
 51
360.0
  0
ARC
  5
62F
100
AcDbEntity
  8
RUNDUNGEN
100
AcDbCircle
 62
7
  6
CONTINUOUS
 10
333.3046757596
 20
153.5226548706
 40
1.0
100
AcDbArc
 50
314.4270040008
 51
360.0
  0
ARC
  5
630
100
AcDbEntity
  8
RUNDUNGEN
100
AcDbCircle
 62
7
  6
CONTINUOUS
 10
333.3046757596
 20
167.8055117277
 40
1.0
100
AcDbArc
 50
0.0
 51
45.5729959992
  0
ARC
  5
631
100
AcDbEntity
  8
RUNDUNGEN
100
AcDbCircle
 62
7
  6
CONTINUOUS
 10
343.3046757596
 20
272.1640832992
 40
4.0
100
AcDbArc
 50
90.0
 51
180.0
  0
ARC
  5
632
100
AcDbEntity
  8
RUNDUNGEN
100
AcDbCircle
 62
7
  6
CONTINUOUS
 10
352.3046757596
 20
272.1640832992
 40
4.0
100
AcDbArc
 50
0.0
 51
90.0
  0
ARC
  5
633
100
AcDbEntity
  8
0
100
AcDbCircle
 62
7
  6
CONTINUOUS
 10
-212.5667399463
 20
74.4091596733
 40
454.2785002392
100
AcDbArc
 50
359.999935034
 51
0.4155823287
  0
ARC
  5
634
100
AcDbEntity
  8
RUNDUNGEN
100
AcDbCircle
 62
7
  6
CONTINUOUS
 10
237.7117602926
 20
41.0496607316
 40
4.0
100
AcDbArc
 50
270.0
 51
360.0
  0
ARC
  5
635
100
AcDbEntity
  8
RUNDUNGEN
100
AcDbCircle
 62
7
  6
CONTINUOUS
 10
237.7117602926
 20
88.0496607316
 40
4.0
100
AcDbArc
 50
60.4066732752
 51
90.0
  0
ARC
  5
636
100
AcDbEntity
  8
RUNDUNGEN
100
AcDbCircle
 62
7
  6
CONTINUOUS
 10
237.7117602926
 20
50.0496607316
 40
4.0
100
AcDbArc
 50
0.0
 51
90.0
  0
ARC
  5
637
100
AcDbEntity
  8
RUNDUNGEN
100
AcDbCircle
 62
7
  6
CONTINUOUS
 10
141.7117602926
 20
88.0496607316
 40
4.0
100
AcDbArc
 50
90.0
 51
180.0
  0
ARC
  5
638
100
AcDbEntity
  8
RUNDUNGEN
100
AcDbCircle
 62
7
  6
CONTINUOUS
 10
141.7117602926
 20
41.0496607316
 40
4.0
100
AcDbArc
 50
180.0
 51
270.0
  0
ARC
  5
639
100
AcDbEntity
  8
RUNDUNGEN
100
AcDbCircle
 62
7
  6
CONTINUOUS
 10
141.7117602926
 20
50.0496607316
 40
4.0
100
AcDbArc
 50
90.0
 51
180.0
  0
ARC
  5
63A
100
AcDbEntity
  8
RUNDUNGEN
100
AcDbCircle
 62
7
  6
CONTINUOUS
 10
153.2117602926
 20
89.5496607316
 40
2.5
100
AcDbArc
 50
0.0
 51
90.0
  0
ARC
  5
63B
100
AcDbEntity
  8
RUNDUNGEN
100
AcDbCircle
 62
7
  6
CONTINUOUS
 10
158.2117602926
 20
84.5496607316
 40
2.5
100
AcDbArc
 50
180.0
 51
270.0
  0
ARC
  5
63C
100
AcDbEntity
  8
RUNDUNGEN
100
AcDbCircle
 62
7
  6
CONTINUOUS
 10
226.2117602926
 20
89.5496607316
 40
2.5
100
AcDbArc
 50
90.0
 51
180.0
  0
ARC
  5
63D
100
AcDbEntity
  8
RUNDUNGEN
100
AcDbCircle
 62
7
  6
CONTINUOUS
 10
221.2117602926
 20
84.5496607316
 40
2.5
100
AcDbArc
 50
270.0
 51
360.0
  0
ARC
  5
63E
100
AcDbEntity
  8
RUNDUNGEN
100
AcDbCircle
 62
7
  6
CONTINUOUS
 10
136.7117602926
 20
79.0496607316
 40
1.0
100
AcDbArc
 50
270.0
 51
360.0
  0
ARC
  5
63F
100
AcDbEntity
  8
RUNDUNGEN
100
AcDbCircle
 62
7
  6
CONTINUOUS
 10
122.7117602926
 20
77.0496607316
 40
1.0
100
AcDbArc
 50
90.0
 51
180.0
  0
ARC
  5
640
100
AcDbEntity
  8
RUNDUNGEN
100
AcDbCircle
 62
7
  6
CONTINUOUS
 10
136.7117602926
 20
58.0496607316
 40
1.0
100
AcDbArc
 50
0.0
 51
90.0
  0
ARC
  5
641
100
AcDbEntity
  8
RUNDUNGEN
100
AcDbCircle
 62
7
  6
CONTINUOUS
 10
122.7117602926
 20
60.0496607316
 40
1.0
100
AcDbArc
 50
180.0
 51
270.0
  0
ARC
  5
642
100
AcDbEntity
  8
RUNDUNGEN
100
AcDbCircle
 62
7
  6
CONTINUOUS
 10
141.7117602926
 20
328.2831882619
 40
4.0
100
AcDbArc
 50
180.0
 51
270.0
  0
ARC
  5
643
100
AcDbEntity
  8
RUNDUNGEN
100
AcDbCircle
 62
7
  6
CONTINUOUS
 10
153.2117602926
 20
326.7831882619
 40
2.5
100
AcDbArc
 50
270.0
 51
360.0
  0
ARC
  5
644
100
AcDbEntity
  8
RUNDUNGEN
100
AcDbCircle
 62
7
  6
CONTINUOUS
 10
158.2117602926
 20
331.7831882619
 40
2.5
100
AcDbArc
 50
90.0
 51
180.0
  0
ARC
  5
645
100
AcDbEntity
  8
RUNDUNGEN
100
AcDbCircle
 62
7
  6
CONTINUOUS
 10
136.7117602926
 20
337.2831882619
 40
1.0
100
AcDbArc
 50
0.0
 51
90.0
  0
ARC
  5
646
100
AcDbEntity
  8
RUNDUNGEN
100
AcDbCircle
 62
7
  6
CONTINUOUS
 10
122.7117602926
 20
339.2831882619
 40
1.0
100
AcDbArc
 50
180.0
 51
270.0
  0
ARC
  5
647
100
AcDbEntity
  8
RUNDUNGEN
100
AcDbCircle
 62
7
  6
CONTINUOUS
 10
141.7117602926
 20
375.2831882619
 40
4.0
100
AcDbArc
 50
90.0
 51
180.0
  0
ARC
  5
648
100
AcDbEntity
  8
RUNDUNGEN
100
AcDbCircle
 62
7
  6
CONTINUOUS
 10
136.7117602926
 20
358.2831882619
 40
1.0
100
AcDbArc
 50
270.0
 51
360.0
  0
ARC
  5
649
100
AcDbEntity
  8
RUNDUNGEN
100
AcDbCircle
 62
7
  6
CONTINUOUS
 10
122.7117602926
 20
356.2831882619
 40
1.0
100
AcDbArc
 50
90.0
 51
180.0
  0
ARC
  5
64A
100
AcDbEntity
  8
RUNDUNGEN
100
AcDbCircle
 62
7
  6
CONTINUOUS
 10
158.7117602926
 20
378.2831882619
 40
1.0
100
AcDbArc
 50
0.0
 51
90.0
  0
ARC
  5
64B
100
AcDbEntity
  8
RUNDUNGEN
100
AcDbCircle
 62
7
  6
CONTINUOUS
 10
160.7117602926
 20
377.2831882619
 40
1.0
100
AcDbArc
 50
180.0
 51
270.0078133132
  0
ARC
  5
64C
100
AcDbEntity
  8
RUNDUNGEN
100
AcDbCircle
 62
7
  6
CONTINUOUS
 10
237.7117602926
 20
328.2831882619
 40
4.0
100
AcDbArc
 50
270.0
 51
299.5933267248
  0
ARC
  5
64D
100
AcDbEntity
  8
RUNDUNGEN
100
AcDbCircle
 62
7
  6
CONTINUOUS
 10
226.2117602926
 20
326.7831882619
 40
2.5
100
AcDbArc
 50
180.0
 51
270.0
  0
ARC
  5
64E
100
AcDbEntity
  8
RUNDUNGEN
100
AcDbCircle
 62
7
  6
CONTINUOUS
 10
221.2117602926
 20
331.7831882619
 40
2.5
100
AcDbArc
 50
0.0
 51
90.0
  0
ARC
  5
64F
100
AcDbEntity
  8
RUNDUNGEN
100
AcDbCircle
 62
7
  6
CONTINUOUS
 10
237.7117602926
 20
375.2831882619
 40
4.0
100
AcDbArc
 50
10.7177565138
 51
90.0
  0
ARC
  5
650
100
AcDbEntity
  8
0
100
AcDbCircle
 62
7
  6
CONTINUOUS
 10
237.7117602926
 20
375.2831882619
 40
4.0
100
AcDbArc
 50
0.0
 51
90.0
  0
ARC
  5
651
100
AcDbEntity
  8
RUNDUNGEN
100
AcDbCircle
 62
7
  6
CONTINUOUS
 10
221.7117602926
 20
373.2831882619
 40
2.0
100
AcDbArc
 50
272.8556721747
 51
360.0
  0
ARC
  5
652
100
AcDbEntity
  8
RUNDUNGEN
100
AcDbCircle
 62
7
  6
CONTINUOUS
 10
191.7117602926
 20
369.2831882619
 40
2.0
100
AcDbArc
 50
90.0
 51
179.9988242641
  0
ARC
  5
653
100
AcDbEntity
  8
RUNDUNGEN
100
AcDbCircle
 62
7
  6
CONTINUOUS
 10
214.7117602926
 20
378.2831882619
 40
1.0
100
AcDbArc
 50
90.0
 51
180.0
  0
ARC
  5
654
100
AcDbEntity
  8
RUNDUNGEN
100
AcDbCircle
 62
7
  6
CONTINUOUS
 10
212.7117602926
 20
377.2831882619
 40
1.0
100
AcDbArc
 50
269.9918463356
 51
360.0
  0
ARC
  5
655
100
AcDbEntity
  8
RUNDUNGEN
100
AcDbCircle
 62
7
  6
CONTINUOUS
 10
450.4064098395
 20
138.1640832992
 40
2.5
100
AcDbArc
 50
270.0
 51
360.0
  0
ARC
  5
656
100
AcDbEntity
  8
RUNDUNGEN
100
AcDbCircle
 62
7
  6
CONTINUOUS
 10
455.4064098395
 20
143.1640832992
 40
2.5
100
AcDbArc
 50
90.0
 51
180.0
  0
ARC
  5
657
100
AcDbEntity
  8
RUNDUNGEN
100
AcDbCircle
 62
7
  6
CONTINUOUS
 10
444.9064098395
 20
227.7427841415
 40
10.0
100
AcDbArc
 50
174.9041044038
 51
180.0
  0
ARC
  5
658
100
AcDbEntity
  8
RUNDUNGEN
100
AcDbCircle
 62
7
  6
CONTINUOUS
 10
486.9064098395
 20
218.1640832992
 40
27.5
100
AcDbArc
 50
194.4775121859
 51
345.5224878141
  0
ARC
  5
659
100
AcDbEntity
  8
RUNDUNGEN
100
AcDbCircle
 62
7
  6
CONTINUOUS
 10
486.9064098395
 20
223.9974166325
 40
52.1666666667
100
AcDbArc
 50
5.0958955962
 51
174.9041044038
  0
ARC
  5
65A
100
AcDbEntity
  8
RUNDUNGEN
100
AcDbCircle
 62
7
  6
CONTINUOUS
 10
486.9064098395
 20
228.1640832992
 40
30.0
100
AcDbArc
 50
345.5224878141
 51
194.4775121859
  0
ARC
  5
65B
100
AcDbEntity
  8
0
100
AcDbCircle
 62
7
  6
CONTINUOUS
 10
534.9064098395
 20
180.6640832992
 40
100.0
100
AcDbArc
 50
180.0
 51
206.7436733762
  0
ARC
  5
65C
100
AcDbEntity
  8
RUNDUNGEN
100
AcDbCircle
 62
7
  6
CONTINUOUS
 10
534.9064098395
 20
139.6640832992
 40
4.0
100
AcDbArc
 50
270.0
 51
360.0
  0
ARC
  5
65D
100
AcDbEntity
  8
RUNDUNGEN
100
AcDbCircle
 62
7
  6
CONTINUOUS
 10
523.4064098395
 20
138.1640832992
 40
2.5
100
AcDbArc
 50
180.0
 51
270.0
  0
ARC
  5
65E
100
AcDbEntity
  8
RUNDUNGEN
100
AcDbCircle
 62
7
  6
CONTINUOUS
 10
518.4064098395
 20
143.1640832992
 40
2.5
100
AcDbArc
 50
0.0
 51
90.0
  0
ARC
  5
65F
100
AcDbEntity
  8
RUNDUNGEN
100
AcDbCircle
 62
7
  6
CONTINUOUS
 10
539.9064098395
 20
172.6640832992
 40
1.0
100
AcDbArc
 50
180.0
 51
270.0
  0
ARC
  5
660
100
AcDbEntity
  8
RUNDUNGEN
100
AcDbCircle
 62
7
  6
CONTINUOUS
 10
539.9064098395
 20
148.6640832992
 40
1.0
100
AcDbArc
 50
90.0
 51
180.0
  0
ARC
  5
661
100
AcDbEntity
  8
RUNDUNGEN
100
AcDbCircle
 62
7
  6
CONTINUOUS
 10
553.9064098395
 20
170.6640832992
 40
1.0
100
AcDbArc
 50
0.0
 51
90.0
  0
ARC
  5
662
100
AcDbEntity
  8
RUNDUNGEN
100
AcDbCircle
 62
7
  6
CONTINUOUS
 10
553.9064098395
 20
150.6640832992
 40
1.0
100
AcDbArc
 50
270.0
 51
360.0
  0
ARC
  5
663
100
AcDbEntity
  8
RUNDUNGEN
100
AcDbCircle
 62
7
  6
CONTINUOUS
 10
528.9064098395
 20
227.7427841415
 40
10.0
100
AcDbArc
 50
0.0
 51
5.0958955962
  0
ARC
  5
664
100
AcDbEntity
  8
RUNDUNGEN
100
AcDbCircle
 62
7
  6
CONTINUOUS
 10
33.1768953137
 20
272.1640832992
 40
4.0
100
AcDbArc
 50
0.0
 51
90.0
  0
ARC
  5
665
100
AcDbEntity
  8
RUNDUNGEN
100
AcDbCircle
 62
7
  6
CONTINUOUS
 10
24.1768953137
 20
272.1640832992
 40
4.0
100
AcDbArc
 50
90.0
 51
180.0
  0
ARC
  5
666
100
AcDbEntity
  8
0
100
AcDbCircle
 62
7
  6
CONTINUOUS
 10
50.1768953137
 20
160.6640832992
 40
25.0
100
AcDbArc
 50
205.0
 51
60.0
  0
CIRCLE
  5
667
100
AcDbEntity
  8
0
100
AcDbCircle
 62
7
  6
CONTINUOUS
 10
50.1768953137
 20
160.6640832992
 40
11.0
  0
ARC
  5
668
100
AcDbEntity
  8
RUNDUNGEN
100
AcDbCircle
 62
7
  6
CONTINUOUS
 10
47.1768953137
 20
205.6407502103
 40
10.0
100
AcDbArc
 50
180.0
 51
217.5
  0
ARC
  5
669
100
AcDbEntity
  8
RUNDUNGEN
100
AcDbCircle
 62
7
  6
CONTINUOUS
 10
51.0757716439
 20
200.5596356512
 40
10.0
100
AcDbArc
 50
217.5
 51
240.0
  0
ARC
  5
66A
100
AcDbEntity
  8
RUNDUNGEN
100
AcDbCircle
 62
7
  6
CONTINUOUS
 10
70.1768953137
 20
176.9289844678
 40
50.0
100
AcDbArc
 50
180.000224381
 51
205.0
  0
ARC
  5
66B
100
AcDbEntity
  8
0
100
AcDbCircle
 62
7
  6
CONTINUOUS
 10
1562.7439387275
 20
-127.6994721857
 40
1569.164309252
100
AcDbArc
 50
168.666789348
 51
168.8058496331
  0
SPLINE
  5
66C
100
AcDbEntity
  8
0
100
AcDbSpline
 62
7
  6
CONTINUOUS
 70
0
 71
3
 72
17
 73
13
 74
0
 42
0.0000001
 43
0.0000001
 44
0.0000000001
 40
0.0
 40
0.0
 40
0.0
 40
0.0
 40
0.1865040082
 40
0.3595419516
 40
0.5166174634
 40
0.6554165254
 40
0.7739021705
 40
0.8250365473
 40
0.8705902406
 40
0.9105586932
 40
0.9451136352
 40
1.0
 40
1.0
 40
1.0
 40
1.0
 10
241.6998105335
 20
77.7041399184
 30
0.0
 10
241.6933922465
 20
78.5888638132
 30
0.0
 10
241.67441222
 20
80.294412977
 30
0.0
 10
241.6114242487
 20
82.7444746814
 30
0.0
 10
241.5011013527
 20
84.9665725721
 30
0.0
 10
241.329187996
 20
86.9252199544
 30
0.0
 10
241.1159759107
 20
88.3744186171
 30
0.0
 10
240.8904459123
 20
89.3706233323
 30
0.0
 10
240.7064306675
 20
89.9925205854
 30
0.0
 10
240.4972053998
 20
90.5244420416
 30
0.0
 10
240.2085770588
 20
91.0639784265
 30
0.0
 10
239.915295903
 20
91.3987042529
 30
0.0
 10
239.6887029156
 20
91.526960139
 30
0.0
  0
SPLINE
  5
66D
100
AcDbEntity
  8
0
100
AcDbSpline
 62
7
  6
CONTINUOUS
 70
0
 71
3
 72
31
 73
27
 74
0
 42
0.0000001
 43
0.0000001
 44
0.0000000001
 40
0.0
 40
0.0
 40
0.0
 40
0.0
 40
0.0098267475
 40
0.0218185703
 40
0.0368596676
 40
0.0553127285
 40
0.0772722336
 40
0.1026991588
 40
0.1314755745
 40
0.1634291536
 40
0.2359637375
 40
0.3181600025
 40
0.4072675072
 40
0.4999999832
 40
0.5927324627
 40
0.6818399652
 40
0.7640362347
 40
0.8365708257
 40
0.8685244052
 40
0.8973008199
 40
0.9227277529
 40
0.9446872707
 40
0.96314034
 40
0.9781814278
 40
0.9901732471
 40
1.0
 40
1.0
 40
1.0
 40
1.0
 10
239.691350004
 20
338.2831882619
 30
0.0
 10
239.614335083
 20
338.2831882619
 30
0.0
 10
239.4430811983
 20
338.3289466198
 30
0.0
 10
239.205869139
 20
338.4995512186
 30
0.0
 10
238.9661212412
 20
338.7656663866
 30
0.0
 10
238.7236000411
 20
339.1275064451
 30
0.0
 10
238.4800047381
 20
339.5830839219
 30
0.0
 10
238.2387385887
 20
340.1295417782
 30
0.0
 10
238.0034118437
 20
340.7628034262
 30
0.0
 10
237.6894334871
 20
341.759297125
 30
0.0
 10
237.345197437
 20
343.1831493299
 30
0.0
 10
237.0320448253
 20
345.0697931003
 30
0.0
 10
236.8312809772
 20
347.1309065791
 30
0.0
 10
236.7620427254
 20
349.2831878878
 30
0.0
 10
236.831280913
 20
351.4354691824
 30
0.0
 10
237.0320447538
 20
353.4965827059
 30
0.0
 10
237.3451972939
 20
355.3832265631
 30
0.0
 10
237.6894333438
 20
356.8070788647
 30
0.0
 10
238.0034116782
 20
357.8035726242
 30
0.0
 10
238.2387384263
 20
358.4368343298
 30
0.0
 10
238.4800045872
 20
358.983292348
 30
0.0
 10
238.723600033
 20
359.4388700116
 30
0.0
 10
238.966121263
 20
359.8007101416
 30
0.0
 10
239.20586908
 20
360.0668253692
 30
0.0
 10
239.4430811787
 20
360.237429761
 30
0.0
 10
239.6143350406
 20
360.2831882619
 30
0.0
 10
239.691350004
 20
360.2831882619
 30
0.0
  0
SPLINE
  5
66E
100
AcDbEntity
  8
0
100
AcDbSpline
 62
7
  6
CONTINUOUS
 70
0
 71
3
 72
17
 73
13
 74
0
 42
0.0000001
 43
0.0000001
 44
0.0000000001
 40
0.0
 40
0.0
 40
0.0
 40
0.0
 40
0.1866539359
 40
0.3596406465
 40
0.5165570892
 40
0.6551580508
 40
0.773479699
 40
0.8245679299
 40
0.8701119022
 40
0.9101164571
 40
0.9447616769
 40
1.0
 40
1.0
 40
1.0
 40
1.0
 10
241.6970916207
 20
338.2800010443
 30
0.0
 10
241.6898730762
 20
337.4162501766
 30
0.0
 10
241.6690430287
 20
335.7520215217
 30
0.0
 10
241.6027194484
 20
333.3623411613
 30
0.0
 10
241.4891932231
 20
331.1968199499
 30
0.0
 10
241.3149074223
 20
329.2891133101
 30
0.0
 10
241.1009246808
 20
327.8781593124
 30
0.0
 10
240.8761566378
 20
326.9084742671
 30
0.0
 10
240.6932866088
 20
326.3028834591
 30
0.0
 10
240.4859448624
 20
325.7847191328
 30
0.0
 10
240.2001516373
 20
325.2580241754
 30
0.0
 10
239.9111660121
 20
324.9318071448
 30
0.0
 10
239.6887029156
 20
324.8058888545
 30
0.0
  0
SPLINE
  5
66F
100
AcDbEntity
  8
0
100
AcDbSpline
 62
7
  6
CONTINUOUS
 70
0
 71
3
 72
21
 73
17
 74
0
 42
0.0000001
 43
0.0000001
 44
0.0000000001
 40
0.0
 40
0.0
 40
0.0
 40
0.0
 40
0.0170706087
 40
0.0363499044
 40
0.0812440484
 40
0.1340364964
 40
0.1939227689
 40
0.2600047599
 40
0.3312461426
 40
0.4838476533
 40
0.6390885076
 40
0.7833864426
 40
0.848030354
 40
0.9062474051
 40
0.9571623705
 40
1.0
 40
1.0
 40
1.0
 40
1.0
 10
237.7117602926
 20
325.5977496973
 30
0.0
 10
237.5306382491
 20
325.8074953979
 30
0.0
 10
237.1651499104
 20
326.2716802426
 30
0.0
 10
236.4200681075
 20
327.3608021699
 30
0.0
 10
235.4840748402
 20
329.0168328356
 30
0.0
 10
234.4135469551
 20
331.3425755114
 30
0.0
 10
233.3975834154
 20
334.0636802609
 30
0.0
 10
232.4918634911
 20
337.1373013585
 30
0.0
 10
231.4852715935
 20
341.7384568638
 30
0.0
 10
230.8448650274
 20
347.8849321607
 30
0.0
 10
231.1933100986
 20
355.2438151873
 30
0.0
 10
232.3412815053
 20
361.0669010803
 30
0.0
 10
233.6399860002
 20
365.2080578889
 30
0.0
 10
234.6745726303
 20
367.835523245
 30
0.0
 10
235.7501368064
 20
370.0582217895
 30
0.0
 10
236.5316674521
 20
371.3680678417
 30
0.0
 10
236.9260074739
 20
371.9408829378
 30
0.0
  0
SPLINE
  5
670
100
AcDbEntity
  8
0
100
AcDbSpline
 62
7
  6
CONTINUOUS
 70
0
 71
3
 72
14
 73
10
 74
0
 42
0.0000001
 43
0.0000001
 44
0.0000000001
 40
0.0
 40
0.0
 40
0.0
 40
0.0
 40
0.1002300793
 40
0.1986549811
 40
0.3005000054
 40
0.4106971086
 40
0.5332535764
 40
0.6711562662
 40
1.0
 40
1.0
 40
1.0
 40
1.0
 10
239.6887029156
 20
324.8058888545
 30
0.0
 10
239.6215300286
 20
324.767867739
 30
0.0
 10
239.4798188336
 20
324.7061895926
 30
0.0
 10
239.2495216681
 20
324.6668489136
 30
0.0
 10
239.0089095679
 20
324.6840377727
 30
0.0
 10
238.7601976255
 20
324.7575081741
 30
0.0
 10
238.5041451879
 20
324.886460097
 30
0.0
 10
238.1317260427
 20
325.147799331
 30
0.0
 10
237.8772723361
 20
325.406080926
 30
0.0
 10
237.7117602926
 20
325.5977496973
 30
0.0
  0
SPLINE
  5
671
100
AcDbEntity
  8
0
100
AcDbSpline
 62
7
  6
CONTINUOUS
 70
0
 71
3
 72
9
 73
5
 74
0
 42
0.0000001
 43
0.0000001
 44
0.0000000001
 40
0.0
 40
0.0
 40
0.0
 40
0.0
 40
0.2605485502
 40
1.0
 40
1.0
 40
1.0
 40
1.0
 10
237.7117602926
 20
373.1371749707
 30
0.0
 10
237.7866743181
 20
373.2569452009
 30
0.0
 10
238.0751159801
 20
373.7160568037
 30
0.0
 10
238.3661915963
 20
374.1735044162
 30
0.0
 10
238.581207773
 20
374.5119022912
 30
0.0
  0
SPLINE
  5
672
100
AcDbEntity
  8
0
100
AcDbSpline
 62
7
  6
CONTINUOUS
 70
0
 71
3
 72
18
 73
14
 74
0
 42
0.0000001
 43
0.0000001
 44
0.0000000001
 40
0.0
 40
0.0
 40
0.0
 40
0.0
 40
0.2318045625
 40
0.4202665026
 40
0.5671469775
 40
0.6761386637
 40
0.7187876471
 40
0.7555882236
 40
0.7890230892
 40
0.8221772184
 40
0.8580334987
 40
0.8988255523
 40
1.0
 40
1.0
 40
1.0
 40
1.0
 10
238.581207773
 20
374.5119022912
 30
0.0
 10
238.7720818868
 20
374.8123047794
 30
0.0
 10
239.1349355212
 20
375.3465983224
 30
0.0
 10
239.6845881632
 20
376.024268664
 30
0.0
 10
240.1743325992
 20
376.5008922869
 30
0.0
 10
240.5593936045
 20
376.7605031684
 30
0.0
 10
240.8350218828
 20
376.8544390382
 30
0.0
 10
241.0095482352
 20
376.8713777711
 30
0.0
 10
241.1677737415
 20
376.8391840808
 30
0.0
 10
241.3056566063
 20
376.7580796912
 30
0.0
 10
241.4211405399
 20
376.6326101455
 30
0.0
 10
241.5566434254
 20
376.3937552974
 30
0.0
 10
241.6130916903
 20
376.1797065193
 30
0.0
 10
241.6419811306
 20
376.0270727724
 30
0.0
  0
LINE
  5
673
100
AcDbEntity
  8
0
100
AcDbLine
 62
7
  6
CONTINUOUS
 10
57.5358791623
 20
180.6640832992
 11
60.8313745005
 21
179.1181825789
  0
SPLINE
  5
674
100
AcDbEntity
  8
0
100
AcDbSpline
 62
7
  6
CONTINUOUS
 70
0
 71
3
 72
15
 73
11
 74
0
 42
0.0000001
 43
0.0000001
 44
0.0000000001
 40
0.0
 40
0.0
 40
0.0
 40
0.0
 40
0.1264411985
 40
0.2528327739
 40
0.3790696197
 40
0.5049595795
 40
0.6302403192
 40
0.7546043928
 40
0.8778332346
 40
1.0
 40
1.0
 40
1.0
 40
1.0
 10
60.8313745005
 20
179.1181825789
 30
0.0
 10
62.056741702
 20
178.5432139828
 30
0.0
 10
64.4186050605
 20
177.1932583412
 30
0.0
 10
67.5857843902
 20
174.6294902297
 30
0.0
 10
70.2939092883
 20
171.5906644868
 30
0.0
 10
72.4561882287
 20
168.1550728852
 30
0.0
 10
73.988101335
 20
164.415440871
 30
0.0
 10
74.8056099411
 20
160.4833152072
 30
0.0
 10
74.8325801314
 20
156.4983956767
 30
0.0
 10
74.2808292476
 20
153.903114094
 30
0.0
 10
73.8623338783
 20
152.6640832992
 30
0.0
  0
SPLINE
  5
675
100
AcDbEntity
  8
0
100
AcDbSpline
 62
7
  6
CONTINUOUS
 70
0
 71
3
 72
9
 73
5
 74
0
 42
0.0000001
 43
0.0000001
 44
0.0000000001
 40
0.0
 40
0.0
 40
0.0
 40
0.0
 40
0.249420998
 40
1.0
 40
1.0
 40
1.0
 40
1.0
 10
26.3229086049
 20
152.6640832992
 30
0.0
 10
26.201352335
 20
152.924761561
 30
0.0
 10
25.721881388
 20
153.9735653564
 30
0.0
 10
25.2719474153
 20
155.0357724365
 30
0.0
 10
24.9481812844
 20
155.8384887474
 30
0.0
  0
SPLINE
  5
676
100
AcDbEntity
  8
0
100
AcDbSpline
 62
7
  6
CONTINUOUS
 70
0
 71
3
 72
11
 73
7
 74
0
 42
0.0000001
 43
0.0000001
 44
0.0000000001
 40
0.0
 40
0.0
 40
0.0
 40
0.0
 40
0.2470516724
 40
0.4963129316
 40
0.7475116979
 40
1.0
 40
1.0
 40
1.0
 40
1.0
 10
24.9481812844
 20
155.8384887474
 30
0.0
 10
24.2883177545
 20
157.4744943945
 30
0.0
 10
23.2560839228
 20
160.8859734141
 30
0.0
 10
22.5426387844
 20
166.1949460292
 30
0.0
 10
22.5910562055
 20
171.5871962896
 30
0.0
 10
23.0837272162
 20
175.160254682
 30
0.0
 10
23.4330108031
 20
176.9289844678
 30
0.0
  0
ELLIPSE
  5
677
100
AcDbEntity
  8
0
100
AcDbEllipse
 62
7
  6
CONTINUOUS
 10
254.7721635049
 20
67.0496607316
 30
0.0
 11
0.0
 21
11.0
 31
0.0
 40
0.1763269807
 41
-2.3851362689
 42
0.0
  0
ELLIPSE
  5
678
100
AcDbEntity
  8
0
100
AcDbEllipse
 62
7
  6
CONTINUOUS
 10
195.5450930697
 20
67.0496607316
 30
0.0
 11
-0.0
 21
16.0
 31
0.0
 40
0.3333334923
 41
-0.0
 42
0.2205332609
  0
ELLIPSE
  5
679
100
AcDbEntity
  8
0
100
AcDbEllipse
 62
7
  6
CONTINUOUS
 10
202.1258240443
 20
67.0496607316
 30
0.0
 11
-0.0
 21
16.0
 31
0.0
 40
0.2447935635
 41
0.0419005523
 42
0.0792051199
  0
ELLIPSE
  5
67A
100
AcDbEntity
  8
0
100
AcDbEllipse
 62
7
  6
CONTINUOUS
 10
202.6180115443
 20
67.0496607316
 30
0.0
 11
0.0
 21
16.0
 31
0.0
 40
0.979168651
 41
0.0046542716
 42
0.0419005523
  0
ELLIPSE
  5
67B
100
AcDbEntity
  8
0
100
AcDbEllipse
 62
7
  6
CONTINUOUS
 10
207.0173117193
 20
67.0496607316
 30
0.0
 11
-0.0
 21
16.0
 31
0.0
 40
0.6527753654
 41
0.1072533821
 42
0.135386618
  0
ELLIPSE
  5
67C
100
AcDbEntity
  8
0
100
AcDbEllipse
 62
7
  6
CONTINUOUS
 10
208.7794689343
 20
67.0496607316
 30
0.0
 11
23.4999945723
 21
0.0
 31
0.0
 40
0.6808512211
 41
1.7061829448
 42
1.7249971223
  0
ELLIPSE
  5
67D
100
AcDbEntity
  8
0
100
AcDbEllipse
 62
7
  6
CONTINUOUS
 10
214.7951143225
 20
67.0496607316
 30
0.0
 11
62.6667936643
 21
0.0
 31
0.0
 40
0.2553186315
 41
1.7249971223
 42
1.734424454
  0
ELLIPSE
  5
67E
100
AcDbEntity
  8
0
100
AcDbEllipse
 62
7
  6
CONTINUOUS
 10
193.2117407088
 20
67.0496607316
 30
0.0
 11
62.6667936643
 21
-0.0
 31
0.0
 40
0.2553186315
 41
1.4071681996
 42
1.4165955313
  0
ELLIPSE
  5
67F
100
AcDbEntity
  8
0
100
AcDbEllipse
 62
7
  6
CONTINUOUS
 10
200.430510548
 20
67.0496607316
 30
0.0
 11
0.0
 21
16.0
 31
0.0
 40
0.9791665548
 41
-0.1542007955
 42
-0.1259980073
  0
ELLIPSE
  5
680
100
AcDbEntity
  8
0
100
AcDbEllipse
 62
7
  6
CONTINUOUS
 10
201.7430052178
 20
67.0496607316
 30
0.0
 11
0.0
 21
16.0
 31
0.0
 40
0.3263914179
 41
-0.1259980073
 42
-0.097895653
  0
ELLIPSE
  5
681
100
AcDbEntity
  8
0
100
AcDbEllipse
 62
7
  6
CONTINUOUS
 10
206.2273874682
 20
67.0496607316
 30
0.0
 11
-0.0
 21
16.0
 31
0.0
 40
0.4895813526
 41
6.2133146362
 42
6.2505997575
  0
ELLIPSE
  5
682
100
AcDbEntity
  8
0
100
AcDbEllipse
 62
7
  6
CONTINUOUS
 10
205.9721770984
 20
67.0496607316
 30
0.0
 11
-0.0
 21
16.0
 31
0.0
 40
0.979168651
 41
-0.0325855497
 42
-0.0000002072
  0
ELLIPSE
  5
683
100
AcDbEntity
  8
0
100
AcDbEllipse
 62
7
  6
CONTINUOUS
 10
199.0450930697
 20
67.0496607316
 30
0.0
 11
0.0
 21
16.0
 31
0.0
 40
0.3333334923
 41
-0.2205332609
 42
-0.0
  0
ELLIPSE
  5
684
100
AcDbEntity
  8
0
100
AcDbEllipse
 62
7
  6
CONTINUOUS
 10
177.2976977926
 20
67.0496607316
 30
0.0
 11
-0.0
 21
16.0
 31
0.0
 40
0.7343750875
 41
-0.0512191943
 42
-0.013963218
  0
ELLIPSE
  5
685
100
AcDbEntity
  8
0
100
AcDbEllipse
 62
7
  6
CONTINUOUS
 10
177.6318986716
 20
67.0496607316
 30
0.0
 11
0.0
 21
16.0
 31
0.0
 40
0.3263895503
 41
-0.0792051199
 42
-0.0512191943
  0
ELLIPSE
  5
686
100
AcDbEntity
  8
0
100
AcDbEllipse
 62
7
  6
CONTINUOUS
 10
170.8810307772
 20
67.0496607316
 30
0.0
 11
0.0
 21
16.0
 31
0.0
 40
0.2447914624
 41
0.069870671
 42
0.1072533821
  0
ELLIPSE
  5
687
100
AcDbEntity
  8
0
100
AcDbEllipse
 62
7
  6
CONTINUOUS
 10
171.5798165175
 20
67.0496607316
 30
0.0
 11
0.0
 21
16.0
 31
0.0
 40
0.6527781669
 41
0.1072533821
 42
0.135386618
  0
ELLIPSE
  5
688
100
AcDbEntity
  8
0
100
AcDbEllipse
 62
7
  6
CONTINUOUS
 10
173.3419676826
 20
67.0496607316
 30
0.0
 11
23.4999945723
 21
0.0
 31
0.0
 40
0.6808512211
 41
1.7061829448
 42
1.7249971223
  0
ELLIPSE
  5
689
100
AcDbEntity
  8
0
100
AcDbEllipse
 62
7
  6
CONTINUOUS
 10
179.3575924177
 20
67.0496607316
 30
0.0
 11
62.6666591962
 21
0.0
 31
0.0
 40
0.2553191794
 41
1.7249971223
 42
1.734424454
  0
ELLIPSE
  5
68A
100
AcDbEntity
  8
0
100
AcDbEllipse
 62
7
  6
CONTINUOUS
 10
157.7742579196
 20
67.0496607316
 30
0.0
 11
62.6666816076
 21
0.0
 31
0.0
 40
0.2553190881
 41
1.4071681996
 42
1.4165955313
  0
ELLIPSE
  5
68B
100
AcDbEntity
  8
0
100
AcDbEllipse
 62
7
  6
CONTINUOUS
 10
163.789886097
 20
67.0496607316
 30
0.0
 11
23.4999945723
 21
0.0
 31
0.0
 40
0.6808512211
 41
1.4165955313
 42
1.4354097088
  0
ELLIPSE
  5
68C
100
AcDbEntity
  8
0
100
AcDbEllipse
 62
7
  6
CONTINUOUS
 10
165.5520377662
 20
67.0496607316
 30
0.0
 11
0.0
 21
16.0
 31
0.0
 40
0.6527779334
 41
-0.135386618
 42
-0.1072533821
  0
ELLIPSE
  5
68D
100
AcDbEntity
  8
0
100
AcDbEllipse
 62
7
  6
CONTINUOUS
 10
166.2508228068
 20
67.0496607316
 30
0.0
 11
-0.0
 21
16.0
 31
0.0
 40
0.2447916375
 41
-0.1072533821
 42
-0.069870671
  0
ELLIPSE
  5
68E
100
AcDbEntity
  8
0
100
AcDbEllipse
 62
7
  6
CONTINUOUS
 10
177.9721762639
 20
67.0496607316
 30
0.0
 11
73.4374807402
 21
0.0
 31
0.0
 40
0.2042553727
 41
1.5856904927
 42
1.5956215687
  0
ELLIPSE
  5
68F
100
AcDbEntity
  8
0
100
AcDbEllipse
 62
7
  6
CONTINUOUS
 10
165.4305102453
 20
67.0496607316
 30
0.0
 11
-0.0
 21
15.0
 31
0.0
 40
0.1958333625
 41
-0.1244343474
 42
-0.0745370896
  0
ELLIPSE
  5
690
100
AcDbEntity
  8
0
100
AcDbEllipse
 62
7
  6
CONTINUOUS
 10
164.883635368
 20
67.0496607316
 30
0.0
 11
-0.0
 21
15.0
 31
0.0
 40
0.4895832987
 41
-0.164571655
 42
-0.1244343474
  0
ELLIPSE
  5
691
100
AcDbEntity
  8
0
100
AcDbEllipse
 62
7
  6
CONTINUOUS
 10
163.6805103403
 20
67.0496607316
 30
0.0
 11
-0.0
 21
15.0
 31
0.0
 40
0.9791666393
 41
-0.2049784891
 42
-0.164571655
  0
ELLIPSE
  5
692
100
AcDbEntity
  8
0
100
AcDbEllipse
 62
7
  6
CONTINUOUS
 10
160.690926282
 20
67.0496607316
 30
0.0
 11
29.3750031461
 21
0.0
 31
0.0
 40
0.5106382432
 41
1.3454907198
 42
1.3658178377
  0
ELLIPSE
  5
693
100
AcDbEntity
  8
0
100
AcDbEllipse
 62
7
  6
CONTINUOUS
 10
150.8471756692
 20
67.0496607316
 30
0.0
 11
73.4375058272
 21
-0.0
 31
0.0
 40
0.2042553029
 41
1.3352920901
 42
1.3454907198
  0
ELLIPSE
  5
694
100
AcDbEntity
  8
0
100
AcDbEllipse
 62
7
  6
CONTINUOUS
 10
186.2846807702
 20
67.0496607316
 30
0.0
 11
73.4375163325
 21
-0.0
 31
0.0
 40
0.2042552737
 41
1.7961019338
 42
1.8063005635
  0
ELLIPSE
  5
695
100
AcDbEntity
  8
0
100
AcDbEllipse
 62
7
  6
CONTINUOUS
 10
176.4409254635
 20
67.0496607316
 30
0.0
 11
29.3749926408
 21
-0.0
 31
0.0
 40
0.5106384258
 41
1.7757748159
 42
1.7961019338
  0
ELLIPSE
  5
696
100
AcDbEntity
  8
0
100
AcDbEllipse
 62
7
  6
CONTINUOUS
 10
173.451343009
 20
67.0496607316
 30
0.0
 11
-0.0
 21
15.0
 31
0.0
 40
0.9791664642
 41
0.164571655
 42
0.2049784891
  0
ELLIPSE
  5
697
100
AcDbEntity
  8
0
100
AcDbEllipse
 62
7
  6
CONTINUOUS
 10
172.2482190031
 20
67.0496607316
 30
0.0
 11
-0.0
 21
15.0
 31
0.0
 40
0.4895835394
 41
0.1244343474
 42
0.164571655
  0
ELLIPSE
  5
698
100
AcDbEntity
  8
0
100
AcDbEllipse
 62
7
  6
CONTINUOUS
 10
171.7013433191
 20
67.0496607316
 30
0.0
 11
0.0
 21
15.0
 31
0.0
 40
0.1958331699
 41
0.0745370896
 42
0.1244343474
  0
ELLIPSE
  5
699
100
AcDbEntity
  8
0
100
AcDbEllipse
 62
7
  6
CONTINUOUS
 10
202.6909275156
 20
67.0496607316
 30
0.0
 11
31.3332175414
 21
-0.0
 31
0.0
 40
0.5106401849
 41
1.5568331088
 42
1.5754505984
  0
ELLIPSE
  5
69A
100
AcDbEntity
  8
0
100
AcDbEllipse
 62
7
  6
CONTINUOUS
 10
198.2430113939
 20
67.0496607316
 30
0.0
 11
-0.0
 21
16.0
 31
0.0
 40
0.326388877
 41
-0.069870671
 42
0.0673662065
  0
ELLIPSE
  5
69B
100
AcDbEntity
  8
0
100
AcDbEllipse
 62
7
  6
CONTINUOUS
 10
202.2534241778
 20
67.0496607316
 30
0.0
 11
62.6667936643
 21
0.0
 31
0.0
 40
0.2553186315
 41
1.547522952
 42
1.5568331088
  0
ELLIPSE
  5
69C
100
AcDbEntity
  8
0
100
AcDbEllipse
 62
7
  6
CONTINUOUS
 10
203.1284241778
 20
67.0496607316
 30
0.0
 11
62.6667936643
 21
-0.0
 31
0.0
 40
0.2553186315
 41
1.5382107771
 42
1.547522952
  0
ELLIPSE
  5
69D
100
AcDbEntity
  8
0
100
AcDbEllipse
 62
7
  6
CONTINUOUS
 10
204.4044697386
 20
67.0496607316
 30
0.0
 11
23.5000028014
 21
0.0
 31
0.0
 40
0.6808509827
 41
1.5195771325
 42
1.5382107771
  0
ELLIPSE
  5
69E
100
AcDbEntity
  8
0
100
AcDbEllipse
 62
7
  6
CONTINUOUS
 10
205.0728748058
 20
67.0496607316
 30
0.0
 11
0.0
 21
16.0
 31
0.0
 40
0.6527750607
 41
-0.079205133
 42
-0.0512191943
  0
ELLIPSE
  5
69F
100
AcDbEntity
  8
0
100
AcDbEllipse
 62
7
  6
CONTINUOUS
 10
196.3957891395
 20
67.0496607316
 30
0.0
 11
-0.0
 21
15.0
 31
0.0
 40
0.3263895122
 41
0.1144339888
 42
0.2355042367
  0
ELLIPSE
  5
6A0
100
AcDbEntity
  8
0
100
AcDbEllipse
 62
7
  6
CONTINUOUS
 10
198.1943969998
 20
67.0496607316
 30
0.0
 11
0.0
 21
15.0
 31
0.0
 40
0.3263895122
 41
-0.2355042367
 42
-0.1144339888
  0
ELLIPSE
  5
6A1
100
AcDbEntity
  8
0
100
AcDbEllipse
 62
7
  6
CONTINUOUS
 10
200.995610375
 20
67.0496607316
 30
0.0
 11
-0.0
 21
16.0
 31
0.0
 40
0.2447935635
 41
-0.135386618
 42
-0.097895653
  0
ELLIPSE
  5
6A2
100
AcDbEntity
  8
0
100
AcDbEllipse
 62
7
  6
CONTINUOUS
 10
200.2555104367
 20
67.0496607316
 30
0.0
 11
-0.0
 21
16.0
 31
0.0
 40
0.5874999466
 41
-0.1825277997
 42
-0.135386618
  0
ELLIPSE
  5
6A3
100
AcDbEntity
  8
0
100
AcDbEllipse
 62
7
  6
CONTINUOUS
 10
197.2221840105
 20
67.0496607316
 30
0.0
 11
26.1110720955
 21
0.0
 31
0.0
 40
0.6127668731
 41
1.3597925804
 42
1.3882685271
  0
ELLIPSE
  5
6A4
100
AcDbEntity
  8
0
100
AcDbEllipse
 62
7
  6
CONTINUOUS
 10
186.2846252362
 20
67.0496607316
 30
0.0
 11
78.3335748681
 21
0.0
 31
0.0
 40
0.2042546893
 41
1.3502630659
 42
1.3597925804
  0
ELLIPSE
  5
6A5
100
AcDbEntity
  8
0
100
AcDbEllipse
 62
7
  6
CONTINUOUS
 10
221.7221513553
 20
67.0496607316
 30
0.0
 11
78.3332162866
 21
-0.0
 31
0.0
 40
0.2042556244
 41
1.7818000732
 42
1.7913295877
  0
ELLIPSE
  5
6A6
100
AcDbEntity
  8
0
100
AcDbEllipse
 62
7
  6
CONTINUOUS
 10
211.8784382934
 20
67.0496607316
 30
0.0
 11
31.3333927176
 21
-0.0
 31
0.0
 40
0.5106373301
 41
1.7627983069
 42
1.7818000732
  0
ELLIPSE
  5
6A7
100
AcDbEntity
  8
0
100
AcDbEllipse
 62
7
  6
CONTINUOUS
 10
208.8888494239
 20
67.0496607316
 30
0.0
 11
-0.0
 21
16.0
 31
0.0
 40
0.9791685653
 41
0.1542007955
 42
0.1920019801
  0
ELLIPSE
  5
6A8
100
AcDbEntity
  8
0
100
AcDbEllipse
 62
7
  6
CONTINUOUS
 10
207.6857150916
 20
67.0496607316
 30
0.0
 11
0.0
 21
16.0
 31
0.0
 40
0.4895814384
 41
0.1166205492
 42
0.1542007955
  0
ELLIPSE
  5
6A9
100
AcDbEntity
  8
0
100
AcDbEllipse
 62
7
  6
CONTINUOUS
 10
177.1700934869
 20
67.0496607316
 30
0.0
 11
19.5833450059
 21
-0.0
 31
0.0
 40
0.7659569903
 41
1.5707963268
 42
1.5856904927
  0
ELLIPSE
  5
6AA
100
AcDbEntity
  8
0
100
AcDbEllipse
 62
7
  6
CONTINUOUS
 10
196.3471780833
 20
67.0496607316
 30
0.0
 11
0.0
 21
16.0
 31
0.0
 40
0.326388877
 41
6.2158191001
 42
6.3530559782
  0
ELLIPSE
  5
6AB
100
AcDbEntity
  8
0
100
AcDbEllipse
 62
7
  6
CONTINUOUS
 10
196.3957891395
 20
67.0496607316
 30
0.0
 11
0.0
 21
16.0
 31
0.0
 40
0.3263895122
 41
0.1072533821
 42
0.2205332609
  0
ELLIPSE
  5
6AC
100
AcDbEntity
  8
0
100
AcDbEllipse
 62
7
  6
CONTINUOUS
 10
198.1943969998
 20
67.0496607316
 30
0.0
 11
0.0
 21
16.0
 31
0.0
 40
0.3263895122
 41
-0.2205332609
 42
-0.1072533821
  0
ELLIPSE
  5
6AD
100
AcDbEntity
  8
0
100
AcDbEllipse
 62
7
  6
CONTINUOUS
 10
177.9721762639
 20
67.0496607316
 30
0.0
 11
78.3333127896
 21
-0.0
 31
0.0
 40
0.2042553727
 41
1.5847595448
 42
1.5940697016
  0
ELLIPSE
  5
6AE
100
AcDbEntity
  8
0
100
AcDbEllipse
 62
7
  6
CONTINUOUS
 10
177.1700934869
 20
67.0496607316
 30
0.0
 11
20.8889013396
 21
-0.0
 31
0.0
 40
0.7659569903
 41
7.8400184159
 42
7.867944852
  0
ELLIPSE
  5
6AF
100
AcDbEntity
  8
0
100
AcDbEllipse
 62
7
  6
CONTINUOUS
 10
200.995610375
 20
67.0496607316
 30
0.0
 11
0.0
 21
15.0
 31
0.0
 40
0.2447935635
 41
-0.1444736951
 42
-0.1044451119
  0
ELLIPSE
  5
6B0
100
AcDbEntity
  8
0
100
AcDbEllipse
 62
7
  6
CONTINUOUS
 10
200.2555104367
 20
67.0496607316
 30
0.0
 11
-0.0
 21
15.0
 31
0.0
 40
0.5874999466
 41
-0.1948476015
 42
-0.1444736951
  0
ELLIPSE
  5
6B1
100
AcDbEntity
  8
0
100
AcDbEllipse
 62
7
  6
CONTINUOUS
 10
197.2221840105
 20
67.0496607316
 30
0.0
 11
24.4791300896
 21
-0.0
 31
0.0
 40
0.6127668731
 41
1.3454907198
 42
1.3759487253
  0
ELLIPSE
  5
6B2
100
AcDbEntity
  8
0
100
AcDbEllipse
 62
7
  6
CONTINUOUS
 10
186.2846252362
 20
67.0496607316
 30
0.0
 11
73.4377264389
 21
0.0
 31
0.0
 40
0.2042546893
 41
1.3352920901
 42
1.3454907198
  0
ELLIPSE
  5
6B3
100
AcDbEntity
  8
0
100
AcDbEllipse
 62
7
  6
CONTINUOUS
 10
221.7221513553
 20
67.0496607316
 30
0.0
 11
73.4373902687
 21
0.0
 31
0.0
 40
0.2042556244
 41
1.7961019338
 42
1.8063005635
  0
ELLIPSE
  5
6B4
100
AcDbEntity
  8
0
100
AcDbEllipse
 62
7
  6
CONTINUOUS
 10
211.8784382934
 20
67.0496607316
 30
0.0
 11
29.3750556727
 21
0.0
 31
0.0
 40
0.5106373301
 41
1.7757748159
 42
1.7961019338
  0
ELLIPSE
  5
6B5
100
AcDbEntity
  8
0
100
AcDbEllipse
 62
7
  6
CONTINUOUS
 10
208.8888494239
 20
67.0496607316
 30
0.0
 11
-0.0
 21
15.0
 31
0.0
 40
0.9791685653
 41
0.164571655
 42
0.2049784891
  0
ELLIPSE
  5
6B6
100
AcDbEntity
  8
0
100
AcDbEllipse
 62
7
  6
CONTINUOUS
 10
207.6857150916
 20
67.0496607316
 30
0.0
 11
0.0
 21
15.0
 31
0.0
 40
0.4895814384
 41
0.1244343474
 42
0.164571655
  0
ELLIPSE
  5
6B7
100
AcDbEntity
  8
0
100
AcDbEllipse
 62
7
  6
CONTINUOUS
 10
165.4305102453
 20
67.0496607316
 30
0.0
 11
0.0
 21
16.0
 31
0.0
 40
0.1958333625
 41
-0.1166205492
 42
-0.069870671
  0
ELLIPSE
  5
6B8
100
AcDbEntity
  8
0
100
AcDbEllipse
 62
7
  6
CONTINUOUS
 10
164.883635368
 20
67.0496607316
 30
0.0
 11
-0.0
 21
16.0
 31
0.0
 40
0.4895832987
 41
-0.1542007955
 42
-0.1166205492
  0
ELLIPSE
  5
6B9
100
AcDbEntity
  8
0
100
AcDbEllipse
 62
7
  6
CONTINUOUS
 10
163.6805103403
 20
67.0496607316
 30
0.0
 11
0.0
 21
16.0
 31
0.0
 40
0.9791666393
 41
-0.1920019801
 42
-0.1542007955
  0
ELLIPSE
  5
6BA
100
AcDbEntity
  8
0
100
AcDbEllipse
 62
7
  6
CONTINUOUS
 10
160.690926282
 20
67.0496607316
 30
0.0
 11
31.3333366892
 21
0.0
 31
0.0
 40
0.5106382432
 41
1.3597925804
 42
1.3787943467
  0
ELLIPSE
  5
6BB
100
AcDbEntity
  8
0
100
AcDbEllipse
 62
7
  6
CONTINUOUS
 10
150.8471756692
 20
67.0496607316
 30
0.0
 11
78.333339549
 21
-0.0
 31
0.0
 40
0.2042553029
 41
1.3502630659
 42
1.3597925804
  0
ELLIPSE
  5
6BC
100
AcDbEntity
  8
0
100
AcDbEllipse
 62
7
  6
CONTINUOUS
 10
186.2846807702
 20
67.0496607316
 30
0.0
 11
78.3333507547
 21
-0.0
 31
0.0
 40
0.2042552737
 41
1.7818000732
 42
1.7913295877
  0
ELLIPSE
  5
6BD
100
AcDbEntity
  8
0
100
AcDbEllipse
 62
7
  6
CONTINUOUS
 10
176.4409254635
 20
67.0496607316
 30
0.0
 11
31.3333254835
 21
0.0
 31
0.0
 40
0.5106384258
 41
1.7627983069
 42
1.7818000732
  0
ELLIPSE
  5
6BE
100
AcDbEntity
  8
0
100
AcDbEllipse
 62
7
  6
CONTINUOUS
 10
173.451343009
 20
67.0496607316
 30
0.0
 11
0.0
 21
16.0
 31
0.0
 40
0.9791664642
 41
0.1542007955
 42
0.1920019801
  0
ELLIPSE
  5
6BF
100
AcDbEntity
  8
0
100
AcDbEllipse
 62
7
  6
CONTINUOUS
 10
172.2482190031
 20
67.0496607316
 30
0.0
 11
0.0
 21
16.0
 31
0.0
 40
0.4895835394
 41
0.1166205492
 42
0.1542007955
  0
ELLIPSE
  5
6C0
100
AcDbEntity
  8
0
100
AcDbEllipse
 62
7
  6
CONTINUOUS
 10
171.7013433191
 20
67.0496607316
 30
0.0
 11
0.0
 21
16.0
 31
0.0
 40
0.1958331699
 41
0.069870671
 42
0.1166205492
  0
ELLIPSE
  5
6C1
100
AcDbEntity
  8
0
100
AcDbEllipse
 62
7
  6
CONTINUOUS
 10
254.7721635049
 20
349.2831882619
 30
0.0
 11
0.0
 21
11.0
 31
0.0
 40
0.1763269807
 41
0.7564563847
 42
5.5267289225
  0
ELLIPSE
  5
6C2
100
AcDbEntity
  8
0
100
AcDbEllipse
 62
7
  6
CONTINUOUS
 10
196.3471780833
 20
349.2831882619
 30
0.0
 11
-0.0
 21
16.0
 31
0.0
 40
0.326388877
 41
-3.1415754267
 42
-2.9590648505
  0
ELLIPSE
  5
6C3
100
AcDbEntity
  8
0
100
AcDbEllipse
 62
7
  6
CONTINUOUS
 10
177.1700934869
 20
349.2831882619
 30
0.0
 11
20.8889013396
 21
0.0
 31
0.0
 40
0.7659569903
 41
4.7123889804
 42
4.7263521984
  0
ELLIPSE
  5
6C4
100
AcDbEntity
  8
0
100
AcDbEllipse
 62
7
  6
CONTINUOUS
 10
202.1258240443
 20
349.2831882619
 30
0.0
 11
0.0
 21
16.0
 31
0.0
 40
0.2447935635
 41
3.0623875337
 42
3.0996921013
  0
ELLIPSE
  5
6C5
100
AcDbEntity
  8
0
100
AcDbEllipse
 62
7
  6
CONTINUOUS
 10
202.6180115443
 20
349.2831882619
 30
0.0
 11
-0.0
 21
16.0
 31
0.0
 40
0.979168651
 41
-3.1834932059
 42
-3.1462469252
  0
ELLIPSE
  5
6C6
100
AcDbEntity
  8
0
100
AcDbEllipse
 62
7
  6
CONTINUOUS
 10
202.6909275156
 20
349.2831882619
 30
0.0
 11
31.3332175414
 21
-0.0
 31
0.0
 40
0.5106401849
 41
-1.5754505984
 42
-1.5707963119
  0
ELLIPSE
  5
6C7
100
AcDbEntity
  8
0
100
AcDbEllipse
 62
7
  6
CONTINUOUS
 10
206.2273874682
 20
349.2831882619
 30
0.0
 11
0.0
 21
16.0
 31
0.0
 40
0.4895813526
 41
-3.1090071039
 42
-3.0717219826
  0
ELLIPSE
  5
6C8
100
AcDbEntity
  8
0
100
AcDbEllipse
 62
7
  6
CONTINUOUS
 10
205.9721770984
 20
349.2831882619
 30
0.0
 11
-0.0
 21
16.0
 31
0.0
 40
0.979168651
 41
-3.1415924464
 42
-3.1090071039
  0
ELLIPSE
  5
6C9
100
AcDbEntity
  8
0
100
AcDbEllipse
 62
7
  6
CONTINUOUS
 10
202.1318943259
 20
349.2831882619
 30
0.0
 11
0.0
 21
16.0
 31
0.0
 40
0.3263911132
 41
-3.0343392846
 42
-3.0062060225
  0
ELLIPSE
  5
6CA
100
AcDbEntity
  8
0
100
AcDbEllipse
 62
7
  6
CONTINUOUS
 10
199.6648846798
 20
349.2831882619
 30
0.0
 11
23.5000028014
 21
0.0
 31
0.0
 40
0.6808509827
 41
-1.4354096957
 42
-1.4165955247
  0
ELLIPSE
  5
6CB
100
AcDbEntity
  8
0
100
AcDbEllipse
 62
7
  6
CONTINUOUS
 10
196.055509067
 20
349.2831882619
 30
0.0
 11
47.0000056028
 21
0.0
 31
0.0
 40
0.3404254913
 41
-1.4165955247
 42
-1.407168193
  0
ELLIPSE
  5
6CC
100
AcDbEntity
  8
0
100
AcDbEllipse
 62
7
  6
CONTINUOUS
 10
212.2430115183
 20
349.2831882619
 30
0.0
 11
47.0000056028
 21
0.0
 31
0.0
 40
0.3404254913
 41
-1.7344244606
 42
-1.7249971289
  0
ELLIPSE
  5
6CD
100
AcDbEntity
  8
0
100
AcDbEllipse
 62
7
  6
CONTINUOUS
 10
207.4305015221
 20
349.2831882619
 30
0.0
 11
0.0
 21
16.0
 31
0.0
 40
0.9791630482
 41
-3.2957934557
 42
-3.2769792847
  0
ELLIPSE
  5
6CE
100
AcDbEntity
  8
0
100
AcDbEllipse
 62
7
  6
CONTINUOUS
 10
206.3732257841
 20
349.2831882619
 30
0.0
 11
0.0
 21
16.0
 31
0.0
 40
0.4895871269
 41
-3.2769792847
 42
-3.2582132159
  0
ELLIPSE
  5
6CF
100
AcDbEntity
  8
0
100
AcDbEllipse
 62
7
  6
CONTINUOUS
 10
198.2430113939
 20
349.2831882619
 30
0.0
 11
0.0
 21
16.0
 31
0.0
 40
0.326388877
 41
-3.3241204566
 42
-3.1416098802
  0
ELLIPSE
  5
6D0
100
AcDbEntity
  8
0
100
AcDbEllipse
 62
7
  6
CONTINUOUS
 10
184.3888451298
 20
349.2831882619
 30
0.0
 11
47.0000056028
 21
0.0
 31
0.0
 40
0.3404254913
 41
-1.7438664893
 42
-1.7344244606
  0
ELLIPSE
  5
6D1
100
AcDbEntity
  8
0
100
AcDbEllipse
 62
7
  6
CONTINUOUS
 10
179.2846752121
 20
349.2831882619
 30
0.0
 11
0.0
 21
16.0
 31
0.0
 40
0.9791658496
 41
-3.3052207874
 42
-3.2863799185
  0
ELLIPSE
  5
6D2
100
AcDbEntity
  8
0
100
AcDbEllipse
 62
7
  6
CONTINUOUS
 10
177.7777340882
 20
349.2831882619
 30
0.0
 11
0.0
 21
16.0
 31
0.0
 40
0.3263895503
 41
-3.2863799185
 42
-3.2582132159
  0
ELLIPSE
  5
6D3
100
AcDbEntity
  8
0
100
AcDbEllipse
 62
7
  6
CONTINUOUS
 10
177.2976977926
 20
349.2831882619
 30
0.0
 11
0.0
 21
16.0
 31
0.0
 40
0.7343750875
 41
-3.1276294356
 42
-3.0903734593
  0
ELLIPSE
  5
6D4
100
AcDbEntity
  8
0
100
AcDbEllipse
 62
7
  6
CONTINUOUS
 10
177.6318986716
 20
349.2831882619
 30
0.0
 11
-0.0
 21
16.0
 31
0.0
 40
0.3263895503
 41
-3.0903734593
 42
-3.0623875337
  0
ELLIPSE
  5
6D5
100
AcDbEntity
  8
0
100
AcDbEllipse
 62
7
  6
CONTINUOUS
 10
179.3575928263
 20
349.2831882619
 30
0.0
 11
62.6666591962
 21
0.0
 31
0.0
 40
0.2553191794
 41
-1.7344244606
 42
-1.7249971289
  0
ELLIPSE
  5
6D6
100
AcDbEntity
  8
0
100
AcDbEllipse
 62
7
  6
CONTINUOUS
 10
173.3419690997
 20
349.2831882619
 30
0.0
 11
23.5000028014
 21
-0.0
 31
0.0
 40
0.6808509827
 41
-1.7249971289
 42
-1.7061829579
  0
ELLIPSE
  5
6D7
100
AcDbEntity
  8
0
100
AcDbEllipse
 62
7
  6
CONTINUOUS
 10
171.5798153373
 20
349.2831882619
 30
0.0
 11
-0.0
 21
16.0
 31
0.0
 40
0.6527775573
 41
-3.2769792847
 42
-3.2488460226
  0
ELLIPSE
  5
6D8
100
AcDbEntity
  8
0
100
AcDbEllipse
 62
7
  6
CONTINUOUS
 10
170.8810307261
 20
349.2831882619
 30
0.0
 11
-0.0
 21
16.0
 31
0.0
 40
0.2447914624
 41
-3.2488460226
 42
-3.2114633115
  0
ELLIPSE
  5
6D9
100
AcDbEntity
  8
0
100
AcDbEllipse
 62
7
  6
CONTINUOUS
 10
166.2508228578
 20
349.2831882619
 30
0.0
 11
0.0
 21
16.0
 31
0.0
 40
0.2447916375
 41
-3.0717219956
 42
-3.0343392846
  0
ELLIPSE
  5
6DA
100
AcDbEntity
  8
0
100
AcDbEllipse
 62
7
  6
CONTINUOUS
 10
165.5520389464
 20
349.2831882619
 30
0.0
 11
0.0
 21
16.0
 31
0.0
 40
0.6527773238
 41
-3.0343392846
 42
-3.0062060225
  0
ELLIPSE
  5
6DB
100
AcDbEntity
  8
0
100
AcDbEllipse
 62
7
  6
CONTINUOUS
 10
163.7898846798
 20
349.2831882619
 30
0.0
 11
23.5000028014
 21
-0.0
 31
0.0
 40
0.6808509827
 41
-1.4354096957
 42
-1.4165955247
  0
ELLIPSE
  5
6DC
100
AcDbEntity
  8
0
100
AcDbEllipse
 62
7
  6
CONTINUOUS
 10
157.7742575111
 20
349.2831882619
 30
0.0
 11
62.6666816076
 21
0.0
 31
0.0
 40
0.2553190881
 41
-1.4165955247
 42
-1.407168193
  0
ELLIPSE
  5
6DD
100
AcDbEntity
  8
0
100
AcDbEllipse
 62
7
  6
CONTINUOUS
 10
186.2846822703
 20
349.2831882619
 30
0.0
 11
73.4375227615
 21
-0.0
 31
0.0
 40
0.2042552558
 41
-1.8063005635
 42
-1.7961019347
  0
ELLIPSE
  5
6DE
100
AcDbEntity
  8
0
100
AcDbEllipse
 62
7
  6
CONTINUOUS
 10
150.8471741691
 20
349.2831882619
 30
0.0
 11
73.4375122562
 21
-0.0
 31
0.0
 40
0.2042552851
 41
-1.3454907189
 42
-1.3352920901
  0
ELLIPSE
  5
6DF
100
AcDbEntity
  8
0
100
AcDbEllipse
 62
7
  6
CONTINUOUS
 10
141.7117602926
 20
386.1937893991
 30
0.0
 11
100.0
 21
-0.0
 31
0.0
 40
0.4663076582
 41
-0.3106258193
 42
-0.2837941092
  0
ELLIPSE
  5
6E0
100
AcDbEntity
  8
0
100
AcDbEllipse
 62
7
  6
CONTINUOUS
 10
160.6909253947
 20
349.2831882619
 30
0.0
 11
29.3750070035
 21
-0.0
 31
0.0
 40
0.5106381761
 41
-1.3658178342
 42
-1.3454907189
  0
ELLIPSE
  5
6E1
100
AcDbEntity
  8
0
100
AcDbEllipse
 62
7
  6
CONTINUOUS
 10
163.6805100275
 20
349.2831882619
 30
0.0
 11
0.0
 21
15.0
 31
0.0
 40
0.979166725
 41
-2.9770209915
 42
-2.9366141609
  0
ELLIPSE
  5
6E2
100
AcDbEntity
  8
0
100
AcDbEllipse
 62
7
  6
CONTINUOUS
 10
164.8836351063
 20
349.2831882619
 30
0.0
 11
-0.0
 21
15.0
 31
0.0
 40
0.4895833844
 41
-3.0171582922
 42
-2.9770209915
  0
ELLIPSE
  5
6E3
100
AcDbEntity
  8
0
100
AcDbEllipse
 62
7
  6
CONTINUOUS
 10
165.4305104087
 20
349.2831882619
 30
0.0
 11
0.0
 21
15.0
 31
0.0
 40
0.1958332528
 41
-3.067055578
 42
-3.0171582922
  0
ELLIPSE
  5
6E4
100
AcDbEntity
  8
0
100
AcDbEllipse
 62
7
  6
CONTINUOUS
 10
199.0450930697
 20
349.2831882619
 30
0.0
 11
0.0
 21
16.0
 31
0.0
 40
0.3333334923
 41
-3.3621259145
 42
-2.9210593927
  0
ELLIPSE
  5
6E5
100
AcDbEntity
  8
0
100
AcDbEllipse
 62
7
  6
CONTINUOUS
 10
206.9444039536
 20
349.2831882619
 30
0.0
 11
0.0
 21
16.0
 31
0.0
 40
0.3263914179
 41
-3.2863799185
 42
-3.2582132159
  0
ELLIPSE
  5
6E6
100
AcDbEntity
  8
0
100
AcDbEllipse
 62
7
  6
CONTINUOUS
 10
207.8862386531
 20
349.2831882619
 30
0.0
 11
0.0
 21
16.0
 31
0.0
 40
0.7343750875
 41
-3.3241204566
 42
-3.2863799185
  0
ELLIPSE
  5
6E7
100
AcDbEntity
  8
0
100
AcDbEllipse
 62
7
  6
CONTINUOUS
 10
209.545078594
 20
349.2831882619
 30
0.0
 11
20.8888116942
 21
0.0
 31
0.0
 40
0.7659602774
 41
-1.781800074
 42
-1.7533241298
  0
ELLIPSE
  5
6E8
100
AcDbEntity
  8
0
100
AcDbEllipse
 62
7
  6
CONTINUOUS
 10
221.5763968492
 20
349.2831882619
 30
0.0
 11
78.3335817258
 21
-0.0
 31
0.0
 40
0.2042546715
 41
-1.7913295877
 42
-1.781800074
  0
ELLIPSE
  5
6E9
100
AcDbEntity
  8
0
100
AcDbEllipse
 62
7
  6
CONTINUOUS
 10
190.0033991786
 20
349.2831882619
 30
0.0
 11
62.6667936643
 21
0.0
 31
0.0
 40
0.2553186315
 41
-1.3597925796
 42
-1.3502630659
  0
ELLIPSE
  5
6EA
100
AcDbEntity
  8
0
100
AcDbEllipse
 62
7
  6
CONTINUOUS
 10
196.5659500636
 20
349.2831882619
 30
0.0
 11
31.3332175414
 21
-0.0
 31
0.0
 40
0.5106401849
 41
-1.3787943434
 42
-1.3597925796
  0
ELLIPSE
  5
6EB
100
AcDbEntity
  8
0
100
AcDbEllipse
 62
7
  6
CONTINUOUS
 10
199.5555052945
 20
349.2831882619
 30
0.0
 11
0.0
 21
16.0
 31
0.0
 40
0.979168651
 41
-2.9873918515
 42
-2.9495906701
  0
ELLIPSE
  5
6EC
100
AcDbEntity
  8
0
100
AcDbEllipse
 62
7
  6
CONTINUOUS
 10
201.360193101
 20
349.2831882619
 30
0.0
 11
-0.0
 21
16.0
 31
0.0
 40
0.2447935635
 41
-3.0249720913
 42
-2.9873918515
  0
ELLIPSE
  5
6ED
100
AcDbEntity
  8
0
100
AcDbEllipse
 62
7
  6
CONTINUOUS
 10
195.5450930697
 20
349.2831882619
 30
0.0
 11
-0.0
 21
15.0
 31
0.0
 40
0.3333334923
 41
-3.1415926533
 42
-2.9060884169
  0
ELLIPSE
  5
6EE
100
AcDbEntity
  8
0
100
AcDbEllipse
 62
7
  6
CONTINUOUS
 10
206.0450939041
 20
349.2831882619
 30
0.0
 11
31.3333968322
 21
0.0
 31
0.0
 40
0.510637263
 41
-1.5940697016
 42
-1.5754505984
  0
ELLIPSE
  5
6EF
100
AcDbEntity
  8
0
100
AcDbEllipse
 62
7
  6
CONTINUOUS
 10
207.1388397318
 20
349.2831882619
 30
0.0
 11
78.3332231442
 21
0.0
 31
0.0
 40
0.2042556065
 41
-1.6033818765
 42
-1.5940697016
  0
ELLIPSE
  5
6F0
100
AcDbEntity
  8
0
100
AcDbEllipse
 62
7
  6
CONTINUOUS
 10
205.2430102926
 20
349.2831882619
 30
0.0
 11
47.0000056028
 21
0.0
 31
0.0
 40
0.3404254913
 41
-1.6126968791
 42
-1.6033818765
  0
ELLIPSE
  5
6F1
100
AcDbEntity
  8
0
100
AcDbEllipse
 62
7
  6
CONTINUOUS
 10
204.2586352926
 20
349.2831882619
 30
0.0
 11
23.5000028014
 21
0.0
 31
0.0
 40
0.6808509827
 41
-1.6313386169
 42
-1.6126968791
  0
ELLIPSE
  5
6F2
100
AcDbEntity
  8
0
100
AcDbEllipse
 62
7
  6
CONTINUOUS
 10
203.1527349255
 20
349.2831882619
 30
0.0
 11
0.0
 21
16.0
 31
0.0
 40
0.3263914179
 41
-3.2301391567
 42
-3.2021349437
  0
ELLIPSE
  5
6F3
100
AcDbEntity
  8
0
100
AcDbEllipse
 62
7
  6
CONTINUOUS
 10
199.0450930697
 20
349.2831882619
 30
0.0
 11
0.0
 21
15.0
 31
0.0
 40
0.3333334923
 41
-3.3770968903
 42
-3.1415926538
  0
ELLIPSE
  5
6F4
100
AcDbEntity
  8
0
100
AcDbEllipse
 62
7
  6
CONTINUOUS
 10
206.9444039536
 20
349.2831882619
 30
0.0
 11
-0.0
 21
15.0
 31
0.0
 40
0.3263914179
 41
-3.2961074746
 42
-3.266027015
  0
ELLIPSE
  5
6F5
100
AcDbEntity
  8
0
100
AcDbEllipse
 62
7
  6
CONTINUOUS
 10
207.8862386531
 20
349.2831882619
 30
0.0
 11
-0.0
 21
15.0
 31
0.0
 40
0.7343750875
 41
-3.3364402586
 42
-3.2961074746
  0
ELLIPSE
  5
6F6
100
AcDbEntity
  8
0
100
AcDbEllipse
 62
7
  6
CONTINUOUS
 10
209.545078594
 20
349.2831882619
 30
0.0
 11
19.5832609634
 21
-0.0
 31
0.0
 40
0.7659602774
 41
-1.7961019347
 42
-1.7656439319
  0
ELLIPSE
  5
6F7
100
AcDbEntity
  8
0
100
AcDbEllipse
 62
7
  6
CONTINUOUS
 10
221.5763968492
 20
349.2831882619
 30
0.0
 11
73.4377328679
 21
0.0
 31
0.0
 40
0.2042546715
 41
-1.8063005635
 42
-1.7961019347
  0
ELLIPSE
  5
6F8
100
AcDbEntity
  8
0
100
AcDbEllipse
 62
7
  6
CONTINUOUS
 10
190.0033991786
 20
349.2831882619
 30
0.0
 11
58.7501190603
 21
0.0
 31
0.0
 40
0.2553186315
 41
-1.3454907189
 42
-1.3352920901
  0
ELLIPSE
  5
6F9
100
AcDbEntity
  8
0
100
AcDbEllipse
 62
7
  6
CONTINUOUS
 10
196.5659500636
 20
349.2831882619
 30
0.0
 11
29.374891445
 21
0.0
 31
0.0
 40
0.5106401849
 41
-1.3658178342
 42
-1.3454907189
  0
ELLIPSE
  5
6FA
100
AcDbEntity
  8
0
100
AcDbEllipse
 62
7
  6
CONTINUOUS
 10
195.5450930697
 20
349.2831882619
 30
0.0
 11
0.0
 21
16.0
 31
0.0
 40
0.3333334923
 41
2.9210593927
 42
3.3621259145
  0
ELLIPSE
  5
6FB
100
AcDbEntity
  8
0
100
AcDbEllipse
 62
7
  6
CONTINUOUS
 10
199.5555052945
 20
349.2831882619
 30
0.0
 11
-0.0
 21
15.0
 31
0.0
 40
0.979168651
 41
-2.9770209915
 42
-2.9366141609
  0
ELLIPSE
  5
6FC
100
AcDbEntity
  8
0
100
AcDbEllipse
 62
7
  6
CONTINUOUS
 10
201.360193101
 20
349.2831882619
 30
0.0
 11
-0.0
 21
15.0
 31
0.0
 40
0.2447935635
 41
-3.0171582922
 42
-2.9770209915
  0
ELLIPSE
  5
6FD
100
AcDbEntity
  8
0
100
AcDbEllipse
 62
7
  6
CONTINUOUS
 10
176.7082874678
 20
349.2831882619
 30
0.0
 11
0.0
 21
16.0
 31
0.0
 40
0.3263895503
 41
-3.0810503635
 42
-3.0530461505
  0
ELLIPSE
  5
6FE
100
AcDbEntity
  8
0
100
AcDbEllipse
 62
7
  6
CONTINUOUS
 10
176.07634453
 20
349.2831882619
 30
0.0
 11
0.0
 21
16.0
 31
0.0
 40
0.9791658496
 41
-3.0996921013
 42
-3.0810503635
  0
ELLIPSE
  5
6FF
100
AcDbEntity
  8
0
100
AcDbEllipse
 62
7
  6
CONTINUOUS
 10
174.7638439041
 20
349.2831882619
 30
0.0
 11
47.0000056028
 21
-0.0
 31
0.0
 40
0.3404254913
 41
-1.5382107771
 42
-1.5288957745
  0
ELLIPSE
  5
700
100
AcDbEntity
  8
0
100
AcDbEllipse
 62
7
  6
CONTINUOUS
 10
179.594573099
 20
349.2831882619
 30
0.0
 11
0.0
 21
16.0
 31
0.0
 40
0.7343750875
 41
-3.3241204566
 42
-3.2863799185
  0
ELLIPSE
  5
701
100
AcDbEntity
  8
0
100
AcDbEllipse
 62
7
  6
CONTINUOUS
 10
181.253429312
 20
349.2831882619
 30
0.0
 11
20.8889013396
 21
-0.0
 31
0.0
 40
0.7659569903
 41
-1.781800074
 42
-1.7533241298
  0
ELLIPSE
  5
702
100
AcDbEntity
  8
0
100
AcDbEllipse
 62
7
  6
CONTINUOUS
 10
193.2846724654
 20
349.2831882619
 30
0.0
 11
78.3333127896
 21
0.0
 31
0.0
 40
0.2042553727
 41
-1.7913295877
 42
-1.781800074
  0
ELLIPSE
  5
703
100
AcDbEntity
  8
0
100
AcDbEllipse
 62
7
  6
CONTINUOUS
 10
178.6527340882
 20
349.2831882619
 30
0.0
 11
0.0
 21
15.0
 31
0.0
 40
0.3263895503
 41
-3.2961074746
 42
-3.266027015
  0
ELLIPSE
  5
704
100
AcDbEntity
  8
0
100
AcDbEllipse
 62
7
  6
CONTINUOUS
 10
179.594573099
 20
349.2831882619
 30
0.0
 11
0.0
 21
15.0
 31
0.0
 40
0.7343750875
 41
-3.3364402586
 42
-3.2961074746
  0
ELLIPSE
  5
705
100
AcDbEntity
  8
0
100
AcDbEllipse
 62
7
  6
CONTINUOUS
 10
181.253429312
 20
349.2831882619
 30
0.0
 11
19.5833450059
 21
0.0
 31
0.0
 40
0.7659569903
 41
-1.7961019347
 42
-1.7656439319
  0
ELLIPSE
  5
706
100
AcDbEntity
  8
0
100
AcDbEllipse
 62
7
  6
CONTINUOUS
 10
178.6527340882
 20
349.2831882619
 30
0.0
 11
-0.0
 21
16.0
 31
0.0
 40
0.3263895503
 41
-3.2863799185
 42
-3.2582132159
  0
ELLIPSE
  5
707
100
AcDbEntity
  8
0
100
AcDbEllipse
 62
7
  6
CONTINUOUS
 10
193.2846724654
 20
349.2831882619
 30
0.0
 11
73.4374807402
 21
-0.0
 31
0.0
 40
0.2042553727
 41
-1.8063005635
 42
-1.7961019347
  0
ELLIPSE
  5
708
100
AcDbEntity
  8
0
100
AcDbEllipse
 62
7
  6
CONTINUOUS
 10
171.7013431557
 20
349.2831882619
 30
0.0
 11
0.0
 21
15.0
 31
0.0
 40
0.1958330602
 41
-3.266027015
 42
-3.2161297292
  0
ELLIPSE
  5
709
100
AcDbEntity
  8
0
100
AcDbEllipse
 62
7
  6
CONTINUOUS
 10
172.2482192649
 20
349.2831882619
 30
0.0
 11
-0.0
 21
15.0
 31
0.0
 40
0.4895836251
 41
-3.3061643156
 42
-3.266027015
  0
ELLIPSE
  5
70A
100
AcDbEntity
  8
0
100
AcDbEllipse
 62
7
  6
CONTINUOUS
 10
173.4513433217
 20
349.2831882619
 30
0.0
 11
-0.0
 21
15.0
 31
0.0
 40
0.9791665499
 41
-3.3465711462
 42
-3.3061643156
  0
ELLIPSE
  5
70B
100
AcDbEntity
  8
0
100
AcDbEllipse
 62
7
  6
CONTINUOUS
 10
160.6909253947
 20
349.2831882619
 30
0.0
 11
31.3333408038
 21
0.0
 31
0.0
 40
0.5106381761
 41
-1.3787943434
 42
-1.3597925796
  0
ELLIPSE
  5
70C
100
AcDbEntity
  8
0
100
AcDbEllipse
 62
7
  6
CONTINUOUS
 10
163.6805100275
 20
349.2831882619
 30
0.0
 11
0.0
 21
16.0
 31
0.0
 40
0.979166725
 41
-2.9873918515
 42
-2.9495906701
  0
ELLIPSE
  5
70D
100
AcDbEntity
  8
0
100
AcDbEllipse
 62
7
  6
CONTINUOUS
 10
164.8836351063
 20
349.2831882619
 30
0.0
 11
-0.0
 21
16.0
 31
0.0
 40
0.4895833844
 41
-3.0249720913
 42
-2.9873918515
  0
ELLIPSE
  5
70E
100
AcDbEntity
  8
0
100
AcDbEllipse
 62
7
  6
CONTINUOUS
 10
165.4305104087
 20
349.2831882619
 30
0.0
 11
-0.0
 21
16.0
 31
0.0
 40
0.1958332528
 41
-3.0717219956
 42
-3.0249720913
  0
ELLIPSE
  5
70F
100
AcDbEntity
  8
0
100
AcDbEllipse
 62
7
  6
CONTINUOUS
 10
171.7013431557
 20
349.2831882619
 30
0.0
 11
0.0
 21
16.0
 31
0.0
 40
0.1958330602
 41
-3.2582132159
 42
-3.2114633115
  0
ELLIPSE
  5
710
100
AcDbEntity
  8
0
100
AcDbEllipse
 62
7
  6
CONTINUOUS
 10
172.2482192649
 20
349.2831882619
 30
0.0
 11
-0.0
 21
16.0
 31
0.0
 40
0.4895836251
 41
-3.2957934557
 42
-3.2582132159
  0
ELLIPSE
  5
711
100
AcDbEntity
  8
0
100
AcDbEllipse
 62
7
  6
CONTINUOUS
 10
173.4513433217
 20
349.2831882619
 30
0.0
 11
-0.0
 21
16.0
 31
0.0
 40
0.9791665499
 41
-3.333594637
 42
-3.2957934557
  0
ELLIPSE
  5
712
100
AcDbEntity
  8
0
100
AcDbEllipse
 62
7
  6
CONTINUOUS
 10
176.4409263508
 20
349.2831882619
 30
0.0
 11
31.3333295981
 21
0.0
 31
0.0
 40
0.5106383587
 41
-1.781800074
 42
-1.7627983102
  0
ELLIPSE
  5
713
100
AcDbEntity
  8
0
100
AcDbEllipse
 62
7
  6
CONTINUOUS
 10
186.2846822703
 20
349.2831882619
 30
0.0
 11
78.3333576123
 21
-0.0
 31
0.0
 40
0.2042552558
 41
-1.7913295877
 42
-1.781800074
  0
ELLIPSE
  5
714
100
AcDbEntity
  8
0
100
AcDbEllipse
 62
7
  6
CONTINUOUS
 10
150.8471741691
 20
349.2831882619
 30
0.0
 11
78.3333464066
 21
0.0
 31
0.0
 40
0.2042552851
 41
-1.3597925796
 42
-1.3502630659
  0
ELLIPSE
  5
715
100
AcDbEntity
  8
0
100
AcDbEllipse
 62
7
  6
CONTINUOUS
 10
176.4409263508
 20
349.2831882619
 30
0.0
 11
29.3749964982
 21
-0.0
 31
0.0
 40
0.5106383587
 41
-1.7961019347
 42
-1.7757748194
  0
ENDSEC
  0
SECTION
  2
OBJECTS
  0
DICTIONARY
  5
C
100
AcDbDictionary
280
0
281
1
  3
ACAD_GROUP
350
D
  3
ACAD_MLINESTYLE
350
17
  3
ACAD_LAYOUT
350
1A
  3
ACAD_PLOTSETTINGS
350
19
  3
ACAD_PLOTSTYLENAME
350
E
  0
DICTIONARY
  5
D
102
{ACAD_REACTORS
330
C
102
}
100
AcDbDictionary
280
0
281
1
  0
ACDBDICTIONARYWDFLT
  5
E
102
{ACAD_REACTORS
330
C
102
}
100
AcDbDictionary
281
1
  3
Normal
350
F
100
AcDbDictionaryWithDefault
340
F
  0
DICTIONARY
  5
17
102
{ACAD_REACTORS
330
C
102
}
100
AcDbDictionary
280
0
281
1
  3
Standard
350
18
  0
DICTIONARY
  5
19
102
{ACAD_REACTORS
330
C
102
}
100
AcDbDictionary
281
1
  0
DICTIONARY
  5
1A
102
{ACAD_REACTORS
330
C
102
}
100
AcDbDictionary
281
1
  3
Model
350
716
  3
Layout1
350
717
  0
ACDBPLACEHOLDER
  5
F
102
{ACAD_REACTORS
330
E
102
}
  0
MLINESTYLE
  5
18
102
{ACAD_REACTORS
330
17
102
}
100
AcDbMlineStyle
  2
STANDARD
 70
0
  3

 62
256
 51
90.0
 52
90.0
 71
2
 49
0.5
 62
256
  6
BYLAYER
 49
-0.5
 62
256
  6
BYLAYER
  0
LAYOUT
  5
716
102
{ACAD_REACTORS
330
1A
102
}
100
AcDbPlotSettings
  1

  2
none_device
  4
ISO_A2_(594.00_x_420.00_MM)
  6

 40
0.0
 41
0.0
 42
0.0
 43
0.0
 44
594.0
 45
420.0
 46
0.0
 47
0.0
 48
0.0
 49
0.0
140
0.0
141
0.0
142
1.0
143
1.0
 70
1024
 72
1
 73
0
 74
0
  7

 75
0
147
1.0
148
0.0
149
0.0
100
AcDbLayout
  1
Model
 70
0
 71
0
 10
0.0
 20
0.0
 11
594.0
 21
420.0
 12
0.0
 22
0.0
 32
0.0
 14
0.0
 24
0.0
 34
0.0
 15
0.0
 25
0.0
 35
0.0
146
0.0
 13
0.0
 23
0.0
 33
0.0
 16
1.0
 26
0.0
 36
0.0
 17
0.0
 27
1.0
 37
0.0
 76
0
330
20C
345
0
346
0
  0
LAYOUT
  5
717
102
{ACAD_REACTORS
330
1A
102
}
100
AcDbPlotSettings
  1

  2
none_device
  4
ISO_A2_(594.00_x_420.00_MM)
  6

 40
0.0
 41
0.0
 42
0.0
 43
0.0
 44
594.0
 45
420.0
 46
0.0
 47
0.0
 48
0.0
 49
0.0
140
0.0
141
0.0
142
1.0
143
1.0
 70
0
 72
1
 73
0
 74
0
  7

 75
0
147
1.0
148
0.0
149
0.0
100
AcDbLayout
  1
Layout1
 70
0
 71
1
 10
0.0
 20
0.0
 11
594.0
 21
420.0
 12
0.0
 22
0.0
 32
0.0
 14
0.0
 24
0.0
 34
0.0
 15
0.0
 25
0.0
 35
0.0
146
0.0
 13
0.0
 23
0.0
 33
0.0
 16
1.0
 26
0.0
 36
0.0
 17
0.0
 27
1.0
 37
0.0
 76
0
330
20D
345
0
346
0
  0
ENDSEC
  0
EOF
